  0
SECTION
  2
HEADER
  9
$ACADVER
  1
AC1018
  9
$ACADMAINTVER
 70
     0
  9
$DWGCODEPAGE
  3
ANSI_932
  9
$INSBASE
 10
0.0
 20
0.0
 30
0.0
  9
$EXTMIN
 10
236.4619353910007
 20
171.6313712927051
 30
-0.000000000000013
  9
$EXTMAX
 10
491.8915644529841
 20
367.0501782466424
 30
0.0000000000000023
  9
$LIMMIN
 10
0.0
 20
0.0
  9
$LIMMAX
 10
420.0
 20
297.0
  9
$ORTHOMODE
 70
     0
  9
$REGENMODE
 70
     1
  9
$FILLMODE
 70
     1
  9
$QTEXTMODE
 70
     0
  9
$MIRRTEXT
 70
     1
  9
$LTSCALE
 40
1.0
  9
$ATTMODE
 70
     1
  9
$TEXTSIZE
 40
1.0
  9
$TRACEWID
 40
1.0
  9
$TEXTSTYLE
  7
STYLE3
  9
$CLAYER
  8
外形線
  9
$CELTYPE
  6
BYLAYER
  9
$CECOLOR
 62
   256
  9
$CELTSCALE
 40
1.0
  9
$DISPSILH
 70
     0
  9
$DIMSCALE
 40
1.0
  9
$DIMASZ
 40
2.5
  9
$DIMEXO
 40
0.0
  9
$DIMDLI
 40
3.75
  9
$DIMRND
 40
0.0
  9
$DIMDLE
 40
0.0
  9
$DIMEXE
 40
1.25
  9
$DIMTP
 40
0.0
  9
$DIMTM
 40
0.0
  9
$DIMTXT
 40
2.5
  9
$DIMCEN
 40
2.5
  9
$DIMTSZ
 40
0.0
  9
$DIMTOL
 70
     0
  9
$DIMLIM
 70
     0
  9
$DIMTIH
 70
     0
  9
$DIMTOH
 70
     0
  9
$DIMSE1
 70
     0
  9
$DIMSE2
 70
     0
  9
$DIMTAD
 70
     1
  9
$DIMZIN
 70
     8
  9
$DIMBLK
  1

  9
$DIMASO
 70
     1
  9
$DIMSHO
 70
     1
  9
$DIMPOST
  1

  9
$DIMAPOST
  1

  9
$DIMALT
 70
     0
  9
$DIMALTD
 70
     4
  9
$DIMALTF
 40
0.0394
  9
$DIMLFAC
 40
1.0
  9
$DIMTOFL
 70
     1
  9
$DIMTVP
 40
0.0
  9
$DIMTIX
 70
     0
  9
$DIMSOXD
 70
     0
  9
$DIMSAH
 70
     1
  9
$DIMBLK1
  1
OPEN
  9
$DIMBLK2
  1
OPEN
  9
$DIMSTYLE
  2
STYLE2
  9
$DIMCLRD
 70
     2
  9
$DIMCLRE
 70
     2
  9
$DIMCLRT
 70
     6
  9
$DIMTFAC
 40
1.0
  9
$DIMGAP
 40
0.625
  9
$DIMJUST
 70
     0
  9
$DIMSD1
 70
     0
  9
$DIMSD2
 70
     0
  9
$DIMTOLJ
 70
     1
  9
$DIMTZIN
 70
     0
  9
$DIMALTZ
 70
     0
  9
$DIMALTTZ
 70
     0
  9
$DIMUPT
 70
     0
  9
$DIMDEC
 70
     1
  9
$DIMTDEC
 70
     4
  9
$DIMALTU
 70
     8
  9
$DIMALTTD
 70
     4
  9
$DIMTXSTY
  7
STYLE3
  9
$DIMAUNIT
 70
     0
  9
$DIMADEC
 70
     0
  9
$DIMALTRND
 40
0.0
  9
$DIMAZIN
 70
     0
  9
$DIMDSEP
 70
    46
  9
$DIMATFIT
 70
     3
  9
$DIMFRAC
 70
     0
  9
$DIMLDRBLK
  1

  9
$DIMLUNIT
 70
     2
  9
$DIMLWD
 70
    -2
  9
$DIMLWE
 70
    -2
  9
$DIMTMOVE
 70
     0
  9
$LUNITS
 70
     2
  9
$LUPREC
 70
     4
  9
$SKETCHINC
 40
1.0
  9
$FILLETRAD
 40
0.0
  9
$AUNITS
 70
     0
  9
$AUPREC
 70
     0
  9
$MENU
  1
.
  9
$ELEVATION
 40
0.0
  9
$PELEVATION
 40
0.0
  9
$THICKNESS
 40
0.0
  9
$LIMCHECK
 70
     0
  9
$CHAMFERA
 40
0.2
  9
$CHAMFERB
 40
0.2
  9
$CHAMFERC
 40
20.0
  9
$CHAMFERD
 40
0.0
  9
$SKPOLY
 70
     0
  9
$TDCREATE
 40
2450717.578556713
  9
$TDUCREATE
 40
2450717.203556713
  9
$TDUPDATE
 40
2455355.478462801
  9
$TDUUPDATE
 40
2455355.103462801
  9
$TDINDWG
 40
0.8921374653
  9
$TDUSRTIMER
 40
0.8921374653
  9
$USRTIMER
 70
     1
  9
$ANGBASE
 50
0.0
  9
$ANGDIR
 70
     0
  9
$PDMODE
 70
     0
  9
$PDSIZE
 40
0.0
  9
$PLINEWID
 40
0.0
  9
$SPLFRAME
 70
     0
  9
$SPLINETYPE
 70
     6
  9
$SPLINESEGS
 70
     8
  9
$HANDSEED
  5
154E
  9
$SURFTAB1
 70
     6
  9
$SURFTAB2
 70
     6
  9
$SURFTYPE
 70
     6
  9
$SURFU
 70
     6
  9
$SURFV
 70
     6
  9
$UCSBASE
  2

  9
$UCSNAME
  2

  9
$UCSORG
 10
0.0
 20
0.0
 30
0.0
  9
$UCSXDIR
 10
1.0
 20
0.0
 30
0.0
  9
$UCSYDIR
 10
0.0
 20
1.0
 30
0.0
  9
$UCSORTHOREF
  2

  9
$UCSORTHOVIEW
 70
     0
  9
$UCSORGTOP
 10
0.0
 20
0.0
 30
0.0
  9
$UCSORGBOTTOM
 10
0.0
 20
0.0
 30
0.0
  9
$UCSORGLEFT
 10
0.0
 20
0.0
 30
0.0
  9
$UCSORGRIGHT
 10
0.0
 20
0.0
 30
0.0
  9
$UCSORGFRONT
 10
0.0
 20
0.0
 30
0.0
  9
$UCSORGBACK
 10
0.0
 20
0.0
 30
0.0
  9
$PUCSBASE
  2

  9
$PUCSNAME
  2

  9
$PUCSORG
 10
0.0
 20
0.0
 30
0.0
  9
$PUCSXDIR
 10
1.0
 20
0.0
 30
0.0
  9
$PUCSYDIR
 10
0.0
 20
1.0
 30
0.0
  9
$PUCSORTHOREF
  2

  9
$PUCSORTHOVIEW
 70
     0
  9
$PUCSORGTOP
 10
0.0
 20
0.0
 30
0.0
  9
$PUCSORGBOTTOM
 10
0.0
 20
0.0
 30
0.0
  9
$PUCSORGLEFT
 10
0.0
 20
0.0
 30
0.0
  9
$PUCSORGRIGHT
 10
0.0
 20
0.0
 30
0.0
  9
$PUCSORGFRONT
 10
0.0
 20
0.0
 30
0.0
  9
$PUCSORGBACK
 10
0.0
 20
0.0
 30
0.0
  9
$USERI1
 70
     0
  9
$USERI2
 70
     0
  9
$USERI3
 70
     0
  9
$USERI4
 70
     0
  9
$USERI5
 70
     0
  9
$USERR1
 40
0.0
  9
$USERR2
 40
0.0
  9
$USERR3
 40
0.0
  9
$USERR4
 40
0.0
  9
$USERR5
 40
0.0
  9
$WORLDVIEW
 70
     1
  9
$SHADEDGE
 70
     3
  9
$SHADEDIF
 70
    70
  9
$TILEMODE
 70
     1
  9
$MAXACTVP
 70
    48
  9
$PINSBASE
 10
0.0
 20
0.0
 30
0.0
  9
$PLIMCHECK
 70
     0
  9
$PEXTMIN
 10
1.000000000000000E+20
 20
1.000000000000000E+20
 30
1.000000000000000E+20
  9
$PEXTMAX
 10
-1.000000000000000E+20
 20
-1.000000000000000E+20
 30
-1.000000000000000E+20
  9
$PLIMMIN
 10
0.0
 20
0.0
  9
$PLIMMAX
 10
420.0
 20
297.0
  9
$UNITMODE
 70
     0
  9
$VISRETAIN
 70
     1
  9
$PLINEGEN
 70
     0
  9
$PSLTSCALE
 70
     1
  9
$TREEDEPTH
 70
  3020
  9
$CMLSTYLE
  2
STANDARD
  9
$CMLJUST
 70
     0
  9
$CMLSCALE
 40
20.0
  9
$PROXYGRAPHICS
 70
     1
  9
$MEASUREMENT
 70
     1
  9
$CELWEIGHT
370
    -1
  9
$ENDCAPS
280
     0
  9
$JOINSTYLE
280
     0
  9
$LWDISPLAY
290
     0
  9
$INSUNITS
 70
     0
  9
$HYPERLINKBASE
  1

  9
$STYLESHEET
  1

  9
$XEDIT
290
     1
  9
$CEPSNTYPE
380
     0
  9
$PSTYLEMODE
290
     1
  9
$FINGERPRINTGUID
  2
{F99E4FF0-D239-4C04-A684-A9B3224662AA}
  9
$VERSIONGUID
  2
{580EF25F-7E0A-4E7C-8673-69CCDD244EA9}
  9
$EXTNAMES
290
     1
  9
$PSVPSCALE
 40
0.0
  9
$OLESTARTUP
290
     0
  9
$SORTENTS
280
    96
  9
$INDEXCTL
280
     0
  9
$HIDETEXT
280
     0
  9
$XCLIPFRAME
290
     0
  9
$HALOGAP
280
     0
  9
$OBSCOLOR
 70
   257
  9
$OBSLTYPE
280
     0
  9
$INTERSECTIONDISPLAY
280
     0
  9
$INTERSECTIONCOLOR
 70
   257
  9
$DIMASSOC
280
     1
  9
$PROJECTNAME
  1

  0
ENDSEC
  0
SECTION
  2
CLASSES
  0
CLASS
  1
HATCH
  2
AcDbHatch
  3
ObjectDBX Classes
 90
        0
 91
       14
280
     0
281
     1
  0
CLASS
  1
LWPOLYLINE
  2
AcDbPolyline
  3
ObjectDBX Classes
 90
        0
 91
        1
280
     0
281
     1
  0
CLASS
  1
IMAGEDEF
  2
AcDbRasterImageDef
  3
ISM
 90
        0
 91
        1
280
     0
281
     0
  0
CLASS
  1
DICTIONARYVAR
  2
AcDbDictionaryVar
  3
ObjectDBX Classes
 90
        0
 91
        2
280
     0
281
     0
  0
CLASS
  1
ACDBDICTIONARYWDFLT
  2
AcDbDictionaryWithDefault
  3
ObjectDBX Classes
 90
        0
 91
        1
280
     0
281
     0
  0
CLASS
  1
TABLESTYLE
  2
AcDbTableStyle
  3
ObjectDBX Classes
 90
     2047
 91
        1
280
     0
281
     0
  0
ENDSEC
  0
SECTION
  2
TABLES
  0
TABLE
  2
VPORT
  5
8
330
0
100
AcDbSymbolTable
 70
     3
  0
VPORT
  5
154D
330
8
100
AcDbSymbolTableRecord
100
AcDbViewportTableRecord
  2
*Active
 70
     0
 10
0.0
 20
0.0
 11
1.0
 21
1.0
 12
364.1767499219924
 22
269.3407747696738
 13
0.0
 23
0.0
 14
10.0
 24
10.0
 15
10.0
 25
10.0
 16
0.0
 26
0.0
 36
1.0
 17
0.0
 27
0.0
 37
0.0
 40
196.9048815315337
 41
1.530456852791878
 42
50.0
 43
0.0
 44
0.0
 50
0.0
 51
0.0
 71
     0
 72
   100
 73
     1
 74
     1
 75
     0
 76
     0
 77
     0
 78
     0
281
     0
 65
     1
110
0.0
120
0.0
130
0.0
111
1.0
121
0.0
131
0.0
112
0.0
122
1.0
132
0.0
 79
     0
146
0.0
  0
ENDTAB
  0
TABLE
  2
LTYPE
  5
5
330
0
100
AcDbSymbolTable
 70
     4
  0
LTYPE
  5
12
330
5
100
AcDbSymbolTableRecord
100
AcDbLinetypeTableRecord
  2
BYBLOCK
 70
     0
  3

 72
    65
 73
     0
 40
0.0
  0
LTYPE
  5
13
330
5
100
AcDbSymbolTableRecord
100
AcDbLinetypeTableRecord
  2
BYLAYER
 70
     0
  3

 72
    65
 73
     0
 40
0.0
  0
LTYPE
  5
14
330
5
100
AcDbSymbolTableRecord
100
AcDbLinetypeTableRecord
  2
CONTINUOUS
 70
     0
  3
Solid line
 72
    65
 73
     0
 40
0.0
  0
LTYPE
  5
22
330
5
100
AcDbSymbolTableRecord
100
AcDbLinetypeTableRecord
  2
CENTER2
 70
     0
  3
Center (.5x) ___ _ ___ _ ___ _ ___ _ ___ _ ___
 72
    65
 73
     4
 40
28.575
 49
19.05
 74
     0
 49
-3.174999999999999
 74
     0
 49
3.174999999999999
 74
     0
 49
-3.174999999999999
 74
     0
  0
LTYPE
  5
24
330
5
100
AcDbSymbolTableRecord
100
AcDbLinetypeTableRecord
  2
PHANTOM2
 70
     0
  3
Phantom (.5x) ___ _ _ ___ _ _ ___ _ _ ___ _ _
 72
    65
 73
     6
 40
31.75
 49
15.875
 74
     0
 49
-3.174999999999999
 74
     0
 49
3.174999999999999
 74
     0
 49
-3.174999999999999
 74
     0
 49
3.174999999999999
 74
     0
 49
-3.174999999999999
 74
     0
  0
ENDTAB
  0
TABLE
  2
LAYER
  5
2
330
0
100
AcDbSymbolTable
 70
    16
  0
LAYER
  5
E
330
2
100
AcDbSymbolTableRecord
100
AcDbLayerTableRecord
  2
0
 70
     0
 62
     7
  6
CONTINUOUS
370
    -3
390
148A
  0
LAYER
  5
25
330
2
100
AcDbSymbolTableRecord
100
AcDbLayerTableRecord
  2
外形線
 70
     0
 62
     7
  6
CONTINUOUS
370
    -3
390
148A
  0
LAYER
  5
27
330
2
100
AcDbSymbolTableRecord
100
AcDbLayerTableRecord
  2
中心線
 70
     0
 62
     4
  6
CENTER2
370
    -3
390
148A
  0
LAYER
  5
29
330
2
100
AcDbSymbolTableRecord
100
AcDbLayerTableRecord
  2
想像線
 70
     0
 62
     1
  6
PHANTOM2
370
    -3
390
148A
  0
LAYER
  5
2A
330
2
100
AcDbSymbolTableRecord
100
AcDbLayerTableRecord
  2
ﾊｯﾁﾝｸ
 70
     0
 62
     4
  6
CONTINUOUS
370
    -3
390
148A
  0
LAYER
  5
2B
330
2
100
AcDbSymbolTableRecord
100
AcDbLayerTableRecord
  2
文字
 70
     0
 62
     6
  6
CONTINUOUS
370
    -3
390
148A
  0
LAYER
  5
2C
330
2
100
AcDbSymbolTableRecord
100
AcDbLayerTableRecord
  2
目盛
 70
     0
 62
    70
  6
CONTINUOUS
370
    -3
390
148A
  0
LAYER
  5
2D
330
2
100
AcDbSymbolTableRecord
100
AcDbLayerTableRecord
  2
針
 70
     0
 62
     5
  6
CONTINUOUS
370
    -3
390
148A
  0
LAYER
  5
53
330
2
100
AcDbSymbolTableRecord
100
AcDbLayerTableRecord
  2
DEFPOINTS
 70
     0
 62
     7
  6
CONTINUOUS
290
     0
370
    -3
390
148A
  0
LAYER
  5
A5
330
2
100
AcDbSymbolTableRecord
100
AcDbLayerTableRecord
  2
C
 70
     0
 62
     7
  6
CONTINUOUS
370
    -3
390
148A
  0
ENDTAB
  0
TABLE
  2
STYLE
  5
3
330
0
100
AcDbSymbolTable
 70
     3
  0
STYLE
  5
F
330
3
100
AcDbSymbolTableRecord
100
AcDbTextStyleTableRecord
  2
STANDARD
 70
     0
 40
0.0
 41
1.0
 50
0.0
 71
     0
 42
2.5
  3
txt
  4

  0
STYLE
  5
3F
330
3
100
AcDbSymbolTableRecord
100
AcDbTextStyleTableRecord
  2
STYLE3
 70
     0
 40
0.0
 41
1.0
 50
0.0
 71
     0
 42
1.0
  3
romans.shx
  4
bigfont.shx
  0
ENDTAB
  0
TABLE
  2
VIEW
  5
6
330
0
100
AcDbSymbolTable
 70
     0
  0
ENDTAB
  0
TABLE
  2
UCS
  5
7
330
0
100
AcDbSymbolTable
 70
     0
  0
ENDTAB
  0
TABLE
  2
APPID
  5
9
330
0
100
AcDbSymbolTable
 70
     3
  0
APPID
  5
10
330
9
100
AcDbSymbolTableRecord
100
AcDbRegAppTableRecord
  2
ACAD
 70
     0
  0
APPID
  5
1457
330
9
100
AcDbSymbolTableRecord
100
AcDbRegAppTableRecord
  2
CONTENTTABDATA
 70
     0
  0
APPID
  5
1458
330
9
100
AcDbSymbolTableRecord
100
AcDbRegAppTableRecord
  2
CONTENTCURRENTTAB
 70
     0
  0
ENDTAB
  0
TABLE
  2
DIMSTYLE
  5
A
330
0
100
AcDbSymbolTable
 70
     3
100
AcDbDimStyleTable
 71
     1
340
66
  0
DIMSTYLE
105
1D
330
A
100
AcDbSymbolTableRecord
100
AcDbDimStyleTableRecord
  2
STANDARD
 70
     0
 41
2.5
 42
0.625
 43
3.75
 44
1.25
 73
     0
 74
     0
 77
     1
 78
     8
140
2.5
141
2.5
143
0.0394
147
0.625
171
     4
172
     1
273
     8
274
     4
277
     6
340
F
  0
DIMSTYLE
105
66
330
A
100
AcDbSymbolTableRecord
100
AcDbDimStyleTableRecord
  2
STYLE2
 70
     0
 41
2.5
 42
0.0
 43
3.75
 44
1.25
 73
     0
 74
     0
 77
     1
 78
     8
140
2.5
141
2.5
143
0.0394
147
0.625
171
     4
172
     1
173
     1
176
     2
177
     2
178
     6
271
     1
273
     8
274
     4
340
3F
341
45
343
45
344
45
  0
ENDTAB
  0
TABLE
  2
BLOCK_RECORD
  5
1
330
0
100
AcDbSymbolTable
 70
     3
  0
BLOCK_RECORD
  5
18
330
1
100
AcDbSymbolTableRecord
100
AcDbBlockTableRecord
  2
*MODEL_SPACE
340
1491
  0
BLOCK_RECORD
  5
15
330
1
100
AcDbSymbolTableRecord
100
AcDbBlockTableRecord
  2
*PAPER_SPACE
340
1492
  0
BLOCK_RECORD
  5
45
330
1
100
AcDbSymbolTableRecord
100
AcDbBlockTableRecord
  2
_OPEN
340
0
102
{BLKREFS
331
836
331
837
331
83E
331
83F
331
847
331
848
331
875
331
876
331
87E
331
87F
331
900
331
901
331
909
331
90A
331
912
331
913
331
F35
331
F36
331
FD7
331
FD8
331
FE0
331
FE1
331
10CC
331
10CD
331
10D5
331
10D6
331
12FC
331
12FD
331
1305
331
1306
331
134C
331
134D
331
137D
331
137E
102
}
  0
ENDTAB
  0
ENDSEC
  0
SECTION
  2
BLOCKS
  0
BLOCK
  5
19
330
18
100
AcDbEntity
  8
0
100
AcDbBlockBegin
  2
*MODEL_SPACE
 70
     0
 10
0.0
 20
0.0
 30
0.0
  3
*MODEL_SPACE
  1

  0
ENDBLK
  5
1A
330
18
100
AcDbEntity
  8
0
100
AcDbBlockEnd
  0
BLOCK
  5
16
330
15
100
AcDbEntity
 67
     1
  8
0
100
AcDbBlockBegin
  2
*PAPER_SPACE
 70
     0
 10
0.0
 20
0.0
 30
0.0
  3
*PAPER_SPACE
  1

  0
ENDBLK
  5
17
330
15
100
AcDbEntity
 67
     1
  8
0
100
AcDbBlockEnd
  0
BLOCK
  5
46
330
45
100
AcDbEntity
  8
0
100
AcDbBlockBegin
  2
_OPEN
 70
     0
 10
0.0
 20
0.0
 30
0.0
  3
_OPEN
  1

  0
LINE
  5
47
330
45
100
AcDbEntity
  8
0
  6
ByBlock
 62
     0
100
AcDbLine
 10
-1.0
 20
0.1666666666666666
 30
0.0
 11
0.0
 21
0.0
 31
0.0
  0
LINE
  5
48
330
45
100
AcDbEntity
  8
0
  6
ByBlock
 62
     0
100
AcDbLine
 10
0.0
 20
0.0
 30
0.0
 11
-1.0
 21
-0.1666666666666666
 31
0.0
  0
LINE
  5
49
330
45
100
AcDbEntity
  8
0
  6
ByBlock
 62
     0
100
AcDbLine
 10
0.0
 20
0.0
 30
0.0
 11
-1.0
 21
0.0
 31
0.0
  0
ENDBLK
  5
4A
330
45
100
AcDbEntity
  8
0
100
AcDbBlockEnd
  0
ENDSEC
  0
SECTION
  2
ENTITIES
  0
LINE
  5
244
330
18
100
AcDbEntity
  8
中心線
 48
0.5
100
AcDbLine
 10
288.3311331705722
 20
281.2254952147663
 30
0.0
 11
355.9746918115786
 21
281.2254952147663
 31
0.0
  0
LINE
  5
245
330
18
100
AcDbEntity
  8
中心線
 48
0.5
100
AcDbLine
 10
326.3740604659464
 20
326.3337127798546
 30
0.0
 11
326.3740604659465
 21
213.361240229741
 31
0.0
  0
CIRCLE
  5
246
330
18
100
AcDbEntity
  8
外形線
100
AcDbCircle
 10
326.3740604659465
 20
281.2254952147663
 30
0.0
 40
15.5
  0
CIRCLE
  5
247
330
18
100
AcDbEntity
  8
外形線
100
AcDbCircle
 10
326.3740604659465
 20
281.2254952147663
 30
0.0
 40
23.0
  0
CIRCLE
  5
248
330
18
100
AcDbEntity
  8
外形線
100
AcDbCircle
 10
326.3740604659465
 20
281.2254952147663
 30
0.0
 40
26.4
  0
LINE
  5
2A5
330
18
100
AcDbEntity
  8
目盛
100
AcDbLine
 10
332.0939278707383
 20
303.5029079207248
 30
0.0
 11
331.671155062558
 21
301.8563165468061
 31
0.0
  0
LINE
  5
2A6
330
18
100
AcDbEntity
  8
目盛
100
AcDbLine
 10
330.6838307014182
 20
303.8181019815261
 30
0.0
 11
330.3652824666226
 21
302.1482136552874
 31
0.0
  0
LINE
  5
2A7
330
18
100
AcDbEntity
  8
目盛
100
AcDbLine
 10
329.2567248379257
 20
304.0441333449993
 30
0.0
 11
329.0436583408663
 21
302.3575383527647
 31
0.0
  0
LINE
  5
2A8
330
18
100
AcDbEntity
  8
目盛
100
AcDbLine
 10
327.8182424151209
 20
304.1801099686165
 30
0.0
 11
327.711498531921
 21
302.4834645302885
 31
0.0
  0
LINE
  5
2AC
330
18
100
AcDbEntity
  8
目盛
100
AcDbLine
 10
326.3740604659465
 20
304.2254952147663
 30
0.0
 11
326.3740604659465
 21
301.5254952147663
 31
0.0
  0
TEXT
  5
2AD
330
18
100
AcDbEntity
  8
文字
100
AcDbText
 10
325.1597499434975
 20
298.346014609279
 30
0.0
 40
2.5
  1
0
  7
STYLE3
100
AcDbText
  0
TEXT
  5
2AE
330
18
100
AcDbEntity
  8
文字
100
AcDbText
 10
335.1056920232712
 20
294.6142753792782
 30
0.0
 40
2.5
  1
10
  7
STYLE3
100
AcDbText
  0
TEXT
  5
2AF
330
18
100
AcDbEntity
  8
文字
100
AcDbText
 10
341.4906841769264
 20
284.4167111941411
 30
0.0
 40
2.5
  1
20
  7
STYLE3
100
AcDbText
  0
TEXT
  5
2B0
330
18
100
AcDbEntity
  8
文字
100
AcDbText
 10
340.7609328591667
 20
273.9766661437305
 30
0.0
 40
2.5
  1
30
  7
STYLE3
100
AcDbText
  0
TEXT
  5
2B1
330
18
100
AcDbEntity
  8
文字
100
AcDbText
 10
334.9633677207912
 20
265.35306610829
 30
0.0
 40
2.5
  1
40
  7
STYLE3
100
AcDbText
  0
TEXT
  5
2B2
330
18
100
AcDbEntity
  8
文字
100
AcDbText
 10
324.0608129987976
 20
261.5426079414078
 30
0.0
 40
2.5
  1
50
  7
STYLE3
100
AcDbText
  0
TEXT
  5
2B3
330
18
100
AcDbEntity
  8
文字
100
AcDbText
 10
312.8157434566854
 20
265.4151007261556
 30
0.0
 40
2.5
  1
60
  7
STYLE3
100
AcDbText
  0
TEXT
  5
2B4
330
18
100
AcDbEntity
  8
文字
100
AcDbText
 10
307.0814063552266
 20
274.0003513289296
 30
0.0
 40
2.5
  1
70
  7
STYLE3
100
AcDbText
  0
TEXT
  5
2B5
330
18
100
AcDbEntity
  8
文字
100
AcDbText
 10
307.1870871241653
 20
285.7348824537339
 30
0.0
 40
2.5
  1
80
  7
STYLE3
100
AcDbText
  0
TEXT
  5
2B6
330
18
100
AcDbEntity
  8
文字
100
AcDbText
 10
313.381535802152
 20
294.6354702283231
 30
0.0
 40
2.5
  1
90
  7
STYLE3
100
AcDbText
  0
LINE
  5
2B7
330
18
100
AcDbEntity
  8
中心線
 48
0.2
100
AcDbLine
 10
323.1740604659464
 20
279.0147312219741
 30
0.0
 11
323.1740604659464
 21
263.3251371999386
 31
0.0
  0
CIRCLE
  5
2B8
330
18
100
AcDbEntity
  8
外形線
100
AcDbCircle
 10
323.1740604659464
 20
271.1515238032524
 30
0.0
 40
4.75
  0
LINE
  5
2B9
330
18
100
AcDbEntity
  8
中心線
 48
0.2
100
AcDbLine
 10
316.2147852790166
 20
271.1515238032524
 30
0.0
 11
330.7427727269969
 21
271.1515238032524
 31
0.0
  0
LINE
  5
2BA
330
18
100
AcDbEntity
  8
目盛
100
AcDbLine
 10
323.1740604659464
 20
275.9015238032524
 30
0.0
 11
323.1740604659464
 21
275.4015238032524
 31
0.0
  0
LINE
  5
2BB
330
18
100
AcDbEntity
  8
目盛
100
AcDbLine
 10
320.3820805175571
 20
274.9943545265334
 30
0.0
 11
320.6759731437034
 21
274.5898460293459
 31
0.0
  0
LINE
  5
2BC
330
18
100
AcDbEntity
  8
目盛
100
AcDbLine
 10
318.6565420135443
 20
272.6193545265334
 30
0.0
 11
319.132070271692
 21
272.4648460293459
 31
0.0
  0
LINE
  5
2BD
330
18
100
AcDbEntity
  8
目盛
100
AcDbLine
 10
318.6565420135443
 20
269.6836930799713
 30
0.0
 11
319.1320702716919
 21
269.8382015771588
 31
0.0
  0
LINE
  5
2BE
330
18
100
AcDbEntity
  8
目盛
100
AcDbLine
 10
320.3820805175571
 20
267.3086930799714
 30
0.0
 11
320.6759731437033
 21
267.7132015771588
 31
0.0
  0
LINE
  5
2BF
330
18
100
AcDbEntity
  8
目盛
100
AcDbLine
 10
323.1740604659464
 20
266.4015238032523
 30
0.0
 11
323.1740604659464
 21
266.9015238032524
 31
0.0
  0
LINE
  5
2C0
330
18
100
AcDbEntity
  8
目盛
100
AcDbLine
 10
325.9660404143357
 20
267.3086930799714
 30
0.0
 11
325.6721477881894
 21
267.7132015771589
 31
0.0
  0
LINE
  5
2C1
330
18
100
AcDbEntity
  8
目盛
100
AcDbLine
 10
327.6915789183483
 20
269.6836930799713
 30
0.0
 11
327.2160506602008
 21
269.8382015771588
 31
0.0
  0
LINE
  5
2C2
330
18
100
AcDbEntity
  8
目盛
100
AcDbLine
 10
327.6915789183483
 20
272.6193545265334
 30
0.0
 11
327.2160506602008
 21
272.4648460293458
 31
0.0
  0
LINE
  5
2C3
330
18
100
AcDbEntity
  8
目盛
100
AcDbLine
 10
325.9660404143356
 20
274.9943545265334
 30
0.0
 11
325.6721477881894
 21
274.5898460293459
 31
0.0
  0
TEXT
  5
2C5
330
18
100
AcDbEntity
  8
文字
100
AcDbText
 10
322.6876840268161
 20
274.1792977317272
 30
0.0
 40
1.0
  1
0
  7
STYLE3
100
AcDbText
  0
TEXT
  5
2C6
330
18
100
AcDbEntity
  8
文字
100
AcDbText
 10
324.7711837645779
 20
273.4529677512689
 30
0.0
 40
1.0
  1
9
  7
STYLE3
100
AcDbText
  0
TEXT
  5
2C7
330
18
100
AcDbEntity
  8
文字
100
AcDbText
 10
326.268581282425
 20
271.7336599738701
 30
0.0
 40
1.0
  1
8
  7
STYLE3
100
AcDbText
  0
TEXT
  5
2C8
330
18
100
AcDbEntity
  8
文字
100
AcDbText
 10
326.2083943504791
 20
269.4300325887955
 30
0.0
 40
1.0
  1
7
  7
STYLE3
100
AcDbText
  0
TEXT
  5
2C9
330
18
100
AcDbEntity
  8
文字
100
AcDbText
 10
324.7684978287794
 20
267.8259128495063
 30
0.0
 40
1.0
  1
6
  7
STYLE3
100
AcDbText
  0
TEXT
  5
2CA
330
18
100
AcDbEntity
  8
文字
100
AcDbText
 10
322.6561088430944
 20
267.2286310928833
 30
0.0
 40
1.0
  1
5
  7
STYLE3
100
AcDbText
  0
TEXT
  5
2CB
330
18
100
AcDbEntity
  8
文字
100
AcDbText
 10
320.5526172737221
 20
267.7033690784148
 30
0.0
 40
1.0
  1
4
  7
STYLE3
100
AcDbText
  0
TEXT
  5
2CC
330
18
100
AcDbEntity
  8
文字
100
AcDbText
 10
319.3580449011401
 20
269.438563907242
 30
0.0
 40
1.0
  1
3
  7
STYLE3
100
AcDbText
  0
TEXT
  5
2CD
330
18
100
AcDbEntity
  8
文字
100
AcDbText
 10
319.3872879051737
 20
271.7014056568813
 30
0.0
 40
1.0
  1
2
  7
STYLE3
100
AcDbText
  0
TEXT
  5
2CE
330
18
100
AcDbEntity
  8
文字
100
AcDbText
 10
320.747570252119
 20
273.5035736630428
 30
0.0
 40
1.0
  1
1
  7
STYLE3
100
AcDbText
  0
LINE
  5
2D3
330
18
100
AcDbEntity
  8
外形線
100
AcDbLine
 10
322.9740604659464
 20
236.2254952147663
 30
0.0
 11
329.7740604659465
 21
236.2254952147663
 31
0.0
  0
LINE
  5
2D4
330
18
100
AcDbEntity
  8
外形線
100
AcDbLine
 10
324.1240604659465
 20
225.2254952147663
 30
0.0
 11
328.6240604659464
 21
225.2254952147663
 31
0.0
  0
LINE
  5
2D5
330
18
100
AcDbEntity
  8
外形線
100
AcDbLine
 10
330.3740604659465
 20
255.1302849262861
 30
0.0
 11
330.3740604659465
 21
240.7254952147663
 31
0.0
  0
LINE
  5
2D6
330
18
100
AcDbEntity
  8
外形線
100
AcDbLine
 10
322.3740604659464
 20
255.1302849262861
 30
0.0
 11
322.3740604659464
 21
240.7254952147662
 31
0.0
  0
LINE
  5
2D9
330
18
100
AcDbEntity
  8
外形線
100
AcDbLine
 10
328.3740604659464
 20
236.2254952147663
 30
0.0
 11
328.3740604659464
 21
225.2254952147663
 31
0.0
  0
LINE
  5
2DA
330
18
100
AcDbEntity
  8
外形線
100
AcDbLine
 10
324.3740604659465
 20
236.2254952147663
 30
0.0
 11
324.3740604659465
 21
225.2254952147663
 31
0.0
  0
LINE
  5
2DB
330
18
100
AcDbEntity
  8
外形線
100
AcDbLine
 10
328.8740604659464
 20
225.0254952147663
 30
0.0
 11
328.8740604659464
 21
221.9254952147663
 31
0.0
  0
LINE
  5
2DC
330
18
100
AcDbEntity
  8
外形線
100
AcDbLine
 10
323.8740604659465
 20
225.0254952147663
 30
0.0
 11
323.8740604659465
 21
221.9254952147663
 31
0.0
  0
LINE
  5
2DD
330
18
100
AcDbEntity
  8
外形線
100
AcDbLine
 10
324.1240604659465
 20
221.7254952147663
 30
0.0
 11
328.6240604659464
 21
221.7254952147663
 31
0.0
  0
LINE
  5
2DE
330
18
100
AcDbEntity
  8
外形線
100
AcDbLine
 10
323.8740604659463
 20
225.0254952147663
 30
0.0
 11
328.8740604659464
 21
225.0254952147663
 31
0.0
  0
LINE
  5
2DF
330
18
100
AcDbEntity
  8
外形線
100
AcDbLine
 10
323.8740604659463
 20
221.9254952147663
 30
0.0
 11
328.8740604659464
 21
221.9254952147663
 31
0.0
  0
LINE
  5
2E0
330
18
100
AcDbEntity
  8
外形線
100
AcDbLine
 10
328.6240604659464
 20
225.2254952147663
 30
0.0
 11
328.8740604659464
 21
225.0254952147663
 31
0.0
  0
LINE
  5
2E1
330
18
100
AcDbEntity
  8
外形線
100
AcDbLine
 10
324.1240604659465
 20
225.2254952147663
 30
0.0
 11
323.8740604659465
 21
225.0254952147663
 31
0.0
  0
LINE
  5
2E2
330
18
100
AcDbEntity
  8
外形線
100
AcDbLine
 10
328.8740604659464
 20
221.9254952147663
 30
0.0
 11
328.6240604659464
 21
221.7254952147663
 31
0.0
  0
LINE
  5
2E3
330
18
100
AcDbEntity
  8
外形線
100
AcDbLine
 10
323.8740604659465
 20
221.9254952147663
 30
0.0
 11
324.1240604659465
 21
221.7254952147663
 31
0.0
  0
LINE
  5
2E5
330
18
100
AcDbEntity
  8
外形線
100
AcDbLine
 10
325.0740604659464
 20
217.2254952147663
 30
0.0
 11
327.6740604659464
 21
217.2254952147663
 31
0.0
  0
LINE
  5
2E6
330
18
100
AcDbEntity
  8
外形線
100
AcDbLine
 10
328.6240604659464
 20
221.7254952147663
 30
0.0
 11
327.6740604659464
 21
217.2254952147663
 31
0.0
  0
LINE
  5
2E7
330
18
100
AcDbEntity
  8
外形線
100
AcDbLine
 10
324.1240604659465
 20
221.7254952147663
 30
0.0
 11
325.0740604659464
 21
217.2254952147663
 31
0.0
  0
LINE
  5
5CF
330
18
100
AcDbEntity
  8
外形線
  6
Continuous
100
AcDbLine
 10
330.0740604659464
 20
321.7254952147662
 30
0.0
 11
330.0740604659464
 21
315.2254952147662
 31
0.0
  0
LINE
  5
5D0
330
18
100
AcDbEntity
  8
外形線
  6
Continuous
100
AcDbLine
 10
322.6740604659465
 20
321.7254952147662
 30
0.0
 11
322.6740604659465
 21
315.2254952147662
 31
0.0
  0
LINE
  5
5D1
330
18
100
AcDbEntity
  8
外形線
  6
Continuous
100
AcDbLine
 10
322.6740604659465
 20
321.7254952147662
 30
0.0
 11
330.0740604659464
 21
321.7254952147662
 31
0.0
  0
LINE
  5
5D2
330
18
100
AcDbEntity
  8
外形線
  6
Continuous
100
AcDbLine
 10
322.3740604659465
 20
315.2254952147662
 30
0.0
 11
330.3740604659464
 21
315.2254952147662
 31
0.0
  0
LINE
  5
5D3
330
18
100
AcDbEntity
  8
外形線
  6
Continuous
100
AcDbLine
 10
322.3740604659464
 20
309.2254952147662
 30
0.0
 11
330.3740604659464
 21
309.2254952147662
 31
0.0
  0
LINE
  5
5D4
330
18
100
AcDbEntity
  8
外形線
  6
Continuous
100
AcDbLine
 10
330.3740604659464
 20
315.2254952147662
 30
0.0
 11
330.3740604659464
 21
309.2254952147662
 31
0.0
  0
LINE
  5
5D5
330
18
100
AcDbEntity
  8
外形線
  6
Continuous
100
AcDbLine
 10
322.3740604659465
 20
315.2254952147662
 30
0.0
 11
322.3740604659465
 21
309.2254952147662
 31
0.0
  0
LINE
  5
5D6
330
18
100
AcDbEntity
  8
外形線
  6
Continuous
100
AcDbLine
 10
330.0740604659464
 20
309.2254952147662
 30
0.0
 11
330.0740604659464
 21
307.3649290265381
 31
0.0
  0
LINE
  5
5D7
330
18
100
AcDbEntity
  8
外形線
  6
Continuous
100
AcDbLine
 10
322.6740604659465
 20
309.2254952147662
 30
0.0
 11
322.6740604659465
 21
307.3649290265381
 31
0.0
  0
ARC
  5
5D9
330
18
100
AcDbEntity
  8
外形線
  6
Continuous
100
AcDbCircle
 10
326.3740604659464
 20
315.3804952147664
 30
0.0
 40
7.344999999999885
100
AcDbArc
 50
59.75198538337817
 51
120.2480146166212
  0
TEXT
  5
661
330
18
100
AcDbEntity
  8
文字
  6
Continuous
 62
     4
100
AcDbText
 10
325.8674849779679
 20
297.0028702709533
 30
0.0
 40
1.0
  1
0
  7
STYLE3
100
AcDbText
  0
TEXT
  5
662
330
18
100
AcDbEntity
  8
文字
  6
Continuous
 62
     4
100
AcDbText
 10
336.4898344123989
 20
293.1264523398118
 30
0.0
 40
1.0
  1
90
  7
STYLE3
100
AcDbText
  0
TEXT
  5
663
330
18
100
AcDbEntity
  8
文字
  6
Continuous
 62
     4
100
AcDbText
 10
342.0961994742502
 20
283.025105303895
 30
0.0
 40
1.0
  1
80
  7
STYLE3
100
AcDbText
  0
TEXT
  5
664
330
18
100
AcDbEntity
  8
文字
  6
Continuous
 62
     4
100
AcDbText
 10
341.7084174135923
 20
277.304983411959
 30
0.0
 40
1.0
  1
70
  7
STYLE3
100
AcDbText
  0
TEXT
  5
665
330
18
100
AcDbEntity
  8
文字
  6
Continuous
 62
     4
100
AcDbText
 10
336.2721260680393
 20
268.2127353342867
 30
0.0
 40
1.0
  1
60
  7
STYLE3
100
AcDbText
  0
TEXT
  5
666
330
18
100
AcDbEntity
  8
文字
  6
Continuous
 62
     4
100
AcDbText
 10
325.4400908584389
 20
264.3640338199532
 30
0.0
 40
1.0
  1
50
  7
STYLE3
100
AcDbText
  0
TEXT
  5
667
330
18
100
AcDbEntity
  8
文字
  6
Continuous
 62
     4
100
AcDbText
 10
314.4853360274464
 20
268.2826586515958
 30
0.0
 40
1.0
  1
40
  7
STYLE3
100
AcDbText
  0
TEXT
  5
668
330
18
100
AcDbEntity
  8
文字
  6
Continuous
 62
     4
100
AcDbText
 10
309.192000328695
 20
277.0667520400699
 30
0.0
 40
1.0
  1
30
  7
STYLE3
100
AcDbText
  0
TEXT
  5
669
330
18
100
AcDbEntity
  8
文字
  6
Continuous
 62
     4
100
AcDbText
 10
309.159588267777
 20
284.1696292585446
 30
0.0
 40
1.0
  1
20
  7
STYLE3
100
AcDbText
  0
TEXT
  5
66A
330
18
100
AcDbEntity
  8
文字
  6
Continuous
 62
     4
100
AcDbText
 10
314.3687425506941
 20
293.0769545155478
 30
0.0
 40
1.0
  1
10
  7
STYLE3
100
AcDbText
  0
ARC
  5
692
330
18
100
AcDbEntity
  8
外形線
  6
Continuous
100
AcDbCircle
 10
505.1746135217361
 20
281.2254952147663
 30
0.0
 40
105.6666666666664
100
AcDbArc
 50
166.3144531747381
 51
193.685546825262
  0
LINE
  5
693
330
18
100
AcDbEntity
  8
外形線
  6
Continuous
100
AcDbLine
 10
402.5079468550697
 20
306.2254952147663
 30
0.0
 11
402.5079468550697
 21
256.2254952147663
 31
0.0
  0
LINE
  5
694
330
18
100
AcDbEntity
  8
外形線
  6
Continuous
100
AcDbLine
 10
403.7079468550698
 20
307.6254952147662
 30
0.0
 11
403.7079468550698
 21
254.8254952147663
 31
0.0
  0
LINE
  5
695
330
18
100
AcDbEntity
  8
外形線
  6
Continuous
100
AcDbLine
 10
407.5079468550697
 20
307.6254952147662
 30
0.0
 11
407.5079468550697
 21
254.8254952147663
 31
0.0
  0
LINE
  5
696
330
18
100
AcDbEntity
  8
外形線
  6
Continuous
100
AcDbLine
 10
409.0079468550697
 20
306.2254952147663
 30
0.0
 11
409.0079468550697
 21
256.2254952147663
 31
0.0
  0
LINE
  5
697
330
18
100
AcDbEntity
  8
外形線
  6
Continuous
100
AcDbLine
 10
420.5079468550697
 20
305.7254952147663
 30
0.0
 11
420.5079468550697
 21
256.7254952147663
 31
0.0
  0
LINE
  5
69C
330
18
100
AcDbEntity
  8
外形線
  6
Continuous
100
AcDbLine
 10
403.7079468550698
 20
255.7254952147663
 30
0.0
 11
402.5079468550697
 21
256.2254952147663
 31
0.0
  0
LINE
  5
6AD
330
18
100
AcDbEntity
  8
外形線
  6
CENTER2
100
AcDbLine
 10
409.0079468550697
 20
256.2254952147663
 30
0.0
 11
407.5079468550697
 21
256.2254952147663
 31
0.0
  0
LINE
  5
6AE
330
18
100
AcDbEntity
  8
外形線
  6
Continuous
100
AcDbLine
 10
403.7079468550698
 20
254.8254952147663
 30
0.0
 11
407.5079468550697
 21
254.8254952147663
 31
0.0
  0
LINE
  5
6AF
330
18
100
AcDbEntity
  8
外形線
  6
Continuous
 62
     4
100
AcDbLine
 10
403.7079468550698
 20
258.8254952147663
 30
0.0
 11
407.5079468550697
 21
258.8254952147663
 31
0.0
  0
LINE
  5
6B0
330
18
100
AcDbEntity
  8
外形線
  6
Continuous
 62
     4
100
AcDbLine
 10
403.7079468550698
 20
257.8254952147663
 30
0.0
 11
407.5079468550697
 21
257.8254952147663
 31
0.0
  0
LINE
  5
6B1
330
18
100
AcDbEntity
  8
外形線
  6
Continuous
 62
     4
100
AcDbLine
 10
403.7079468550698
 20
256.8254952147663
 30
0.0
 11
407.5079468550697
 21
256.8254952147663
 31
0.0
  0
LINE
  5
6B2
330
18
100
AcDbEntity
  8
外形線
  6
Continuous
 62
     4
100
AcDbLine
 10
403.7079468550698
 20
255.8254952147663
 30
0.0
 11
407.5079468550697
 21
255.8254952147663
 31
0.0
  0
ARC
  5
6B8
330
18
100
AcDbEntity
  8
外形線
  6
Continuous
100
AcDbCircle
 10
414.0079468550696
 20
315.3804952147664
 30
0.0
 40
7.344999999999885
100
AcDbArc
 50
59.75198538337879
 51
120.2480146166218
  0
LINE
  5
6B9
330
18
100
AcDbEntity
  8
外形線
  6
Continuous
100
AcDbLine
 10
403.7079468550698
 20
306.7254952147663
 30
0.0
 11
402.5079468550697
 21
306.2254952147663
 31
0.0
  0
LINE
  5
6BA
330
18
100
AcDbEntity
  8
外形線
  6
Continuous
 62
     4
100
AcDbLine
 10
403.7079468550698
 20
259.8254952147663
 30
0.0
 11
407.5079468550697
 21
259.8254952147663
 31
0.0
  0
LINE
  5
6BB
330
18
100
AcDbEntity
  8
外形線
  6
Continuous
 62
     4
100
AcDbLine
 10
407.5079468550697
 20
279.2254952147663
 30
0.0
 11
403.7079468550698
 21
279.2254952147663
 31
0.0
  0
LINE
  5
6BC
330
18
100
AcDbEntity
  8
外形線
  6
Continuous
 62
     4
100
AcDbLine
 10
407.5079468550697
 20
280.2254952147663
 30
0.0
 11
403.7079468550698
 21
280.2254952147663
 31
0.0
  0
LINE
  5
6BD
330
18
100
AcDbEntity
  8
外形線
  6
Continuous
 62
     4
100
AcDbLine
 10
407.5079468550697
 20
281.2254952147663
 30
0.0
 11
403.7079468550698
 21
281.2254952147663
 31
0.0
  0
LINE
  5
6BE
330
18
100
AcDbEntity
  8
外形線
  6
Continuous
 62
     4
100
AcDbLine
 10
407.5079468550697
 20
282.2254952147663
 30
0.0
 11
403.7079468550698
 21
282.2254952147663
 31
0.0
  0
LINE
  5
6BF
330
18
100
AcDbEntity
  8
外形線
  6
Continuous
 62
     4
100
AcDbLine
 10
407.5079468550697
 20
284.2254952147663
 30
0.0
 11
403.7079468550698
 21
284.2254952147663
 31
0.0
  0
LINE
  5
6C0
330
18
100
AcDbEntity
  8
外形線
  6
Continuous
 62
     4
100
AcDbLine
 10
407.5079468550697
 20
283.2254952147663
 30
0.0
 11
403.7079468550698
 21
283.2254952147663
 31
0.0
  0
LINE
  5
6C1
330
18
100
AcDbEntity
  8
外形線
  6
Continuous
 62
     4
100
AcDbLine
 10
403.7079468550698
 20
302.6254952147663
 30
0.0
 11
407.5079468550697
 21
302.6254952147663
 31
0.0
  0
LINE
  5
6C2
330
18
100
AcDbEntity
  8
外形線
  6
Continuous
 62
     4
100
AcDbLine
 10
403.7079468550698
 20
303.6254952147662
 30
0.0
 11
407.5079468550697
 21
303.6254952147662
 31
0.0
  0
LINE
  5
6C3
330
18
100
AcDbEntity
  8
外形線
  6
Continuous
 62
     4
100
AcDbLine
 10
403.7079468550698
 20
304.6254952147663
 30
0.0
 11
407.5079468550697
 21
304.6254952147663
 31
0.0
  0
LINE
  5
6C4
330
18
100
AcDbEntity
  8
外形線
  6
Continuous
 62
     4
100
AcDbLine
 10
403.7079468550698
 20
305.6254952147662
 30
0.0
 11
407.5079468550697
 21
305.6254952147662
 31
0.0
  0
LINE
  5
6C5
330
18
100
AcDbEntity
  8
外形線
  6
Continuous
100
AcDbLine
 10
417.7079468550697
 20
321.7254952147662
 30
0.0
 11
410.3079468550696
 21
321.7254952147662
 31
0.0
  0
LINE
  5
6C6
330
18
100
AcDbEntity
  8
外形線
  6
Continuous
100
AcDbLine
 10
418.0079468550697
 20
315.2254952147662
 30
0.0
 11
410.0079468550696
 21
315.2254952147662
 31
0.0
  0
LINE
  5
6C7
330
18
100
AcDbEntity
  8
外形線
  6
Continuous
100
AcDbLine
 10
418.0079468550697
 20
309.2254952147662
 30
0.0
 11
410.0079468550696
 21
309.2254952147662
 31
0.0
  0
LINE
  5
6C9
330
18
100
AcDbEntity
  8
外形線
  6
Continuous
100
AcDbLine
 10
418.0079468550697
 20
315.2254952147662
 30
0.0
 11
418.0079468550697
 21
309.2254952147662
 31
0.0
  0
LINE
  5
6CA
330
18
100
AcDbEntity
  8
外形線
  6
Continuous
100
AcDbLine
 10
417.7079468550697
 20
309.2254952147662
 30
0.0
 11
417.7079468550697
 21
305.7254952147663
 31
0.0
  0
LINE
  5
6CB
330
18
100
AcDbEntity
  8
外形線
  6
Continuous
100
AcDbLine
 10
417.7079468550697
 20
321.7254952147662
 30
0.0
 11
417.7079468550697
 21
315.2254952147662
 31
0.0
  0
LINE
  5
6CC
330
18
100
AcDbEntity
  8
外形線
  6
Continuous
100
AcDbLine
 10
410.0079468550696
 20
315.2254952147662
 30
0.0
 11
410.0079468550696
 21
309.2254952147662
 31
0.0
  0
LINE
  5
6CD
330
18
100
AcDbEntity
  8
外形線
  6
CENTER2
100
AcDbLine
 10
409.0079468550697
 20
306.2254952147663
 30
0.0
 11
407.5079468550697
 21
306.2254952147663
 31
0.0
  0
LINE
  5
6CE
330
18
100
AcDbEntity
  8
外形線
  6
Continuous
100
AcDbLine
 10
410.3079468550696
 20
309.2254952147662
 30
0.0
 11
410.3079468550696
 21
305.7254952147663
 31
0.0
  0
LINE
  5
6CF
330
18
100
AcDbEntity
  8
外形線
  6
Continuous
 62
     4
100
AcDbLine
 10
403.7079468550698
 20
306.6254952147663
 30
0.0
 11
407.5079468550697
 21
306.6254952147663
 31
0.0
  0
LINE
  5
6D0
330
18
100
AcDbEntity
  8
外形線
  6
Continuous
100
AcDbLine
 10
403.7079468550698
 20
307.6254952147662
 30
0.0
 11
407.5079468550697
 21
307.6254952147662
 31
0.0
  0
LINE
  5
6D1
330
18
100
AcDbEntity
  8
外形線
  6
Continuous
100
AcDbLine
 10
410.3079468550696
 20
321.7254952147662
 30
0.0
 11
410.3079468550696
 21
315.2254952147662
 31
0.0
  0
MTEXT
  5
778
330
18
100
AcDbEntity
  8
DEFPOINTS
  6
Continuous
100
AcDbMText
 10
735.8166661286731
 20
235.565234348894
 30
0.0
 40
1.0
 41
0.0
 71
     4
 72
     1
  1
\A1;
 73
     1
 44
1.0
  0
LINE
  5
789
330
18
100
AcDbEntity
  8
中心線
 48
0.5
100
AcDbLine
 10
414.0079468550696
 20
334.2443007435194
 30
0.0
 11
414.0079468550698
 21
213.306912878718
 31
0.0
  0
LINE
  5
78E
330
18
100
AcDbEntity
  8
外形線
100
AcDbLine
 10
409.0079468550697
 20
256.7254952147663
 30
0.0
 11
420.5079468550697
 21
256.7254952147663
 31
0.0
  0
LINE
  5
78F
330
18
100
AcDbEntity
  8
外形線
100
AcDbLine
 10
409.0079468550697
 20
305.7254952147663
 30
0.0
 11
420.5079468550697
 21
305.7254952147663
 31
0.0
  0
LINE
  5
795
330
18
100
AcDbEntity
  8
外形線
100
AcDbLine
 10
322.3740604659464
 20
240.7254952147662
 30
0.0
 11
330.3740604659465
 21
240.7254952147663
 31
0.0
  0
LINE
  5
796
330
18
100
AcDbEntity
  8
外形線
100
AcDbLine
 10
322.7740604659465
 20
238.2254952147663
 30
0.0
 11
329.9740604659465
 21
238.2254952147663
 31
0.0
  0
LINE
  5
797
330
18
100
AcDbEntity
  8
外形線
100
AcDbLine
 10
322.5240604659465
 20
239.2254952147663
 30
0.0
 11
330.2240604659465
 21
239.2254952147663
 31
0.0
  0
LINE
  5
79F
330
18
100
AcDbEntity
  8
外形線
100
AcDbLine
 10
322.7740604659464
 20
238.2254952147663
 30
0.0
 11
322.7740604659464
 21
236.4254952147662
 31
0.0
  0
LINE
  5
7A0
330
18
100
AcDbEntity
  8
外形線
100
AcDbLine
 10
329.9740604659465
 20
236.4254952147662
 30
0.0
 11
329.9740604659465
 21
238.2254952147663
 31
0.0
  0
LINE
  5
7A1
330
18
100
AcDbEntity
  8
外形線
100
AcDbLine
 10
329.9740604659465
 20
236.4254952147662
 30
0.0
 11
329.7740604659465
 21
236.2254952147663
 31
0.0
  0
LINE
  5
7A2
330
18
100
AcDbEntity
  8
外形線
100
AcDbLine
 10
322.7740604659464
 20
236.4254952147662
 30
0.0
 11
322.9740604659464
 21
236.2254952147663
 31
0.0
  0
LINE
  5
7A5
330
18
100
AcDbEntity
  8
外形線
100
AcDbLine
 10
322.5240604659465
 20
240.7254952147663
 30
0.0
 11
322.5240604659465
 21
239.2254952147663
 31
0.0
  0
LINE
  5
7A6
330
18
100
AcDbEntity
  8
外形線
100
AcDbLine
 10
330.2240604659465
 20
240.7254952147663
 30
0.0
 11
330.2240604659465
 21
239.2254952147663
 31
0.0
  0
ARC
  5
7AC
330
18
100
AcDbEntity
  8
外形線
100
AcDbCircle
 10
330.0990604659465
 20
238.7254952147663
 30
0.0
 40
0.5153882032022076
100
AcDbArc
 50
75.96375653207353
 51
255.9637565320735
  0
ARC
  5
7AD
330
18
100
AcDbEntity
  8
外形線
100
AcDbCircle
 10
322.6490604659464
 20
238.7254952147663
 30
0.0
 40
0.5153882032022076
100
AcDbArc
 50
284.0362434679264
 51
104.0362434679264
  0
LINE
  5
7B0
330
18
100
AcDbEntity
  8
外形線
100
AcDbLine
 10
416.0079468550696
 20
236.2254952147663
 30
0.0
 11
416.0079468550696
 21
225.2254952147663
 31
0.0
  0
LINE
  5
7B1
330
18
100
AcDbEntity
  8
外形線
100
AcDbLine
 10
412.0079468550698
 20
236.2254952147663
 30
0.0
 11
412.0079468550698
 21
225.2254952147663
 31
0.0
  0
LINE
  5
7B2
330
18
100
AcDbEntity
  8
外形線
100
AcDbLine
 10
416.5079468550698
 20
225.0254952147663
 30
0.0
 11
416.5079468550697
 21
221.9254952147663
 31
0.0
  0
LINE
  5
7B3
330
18
100
AcDbEntity
  8
外形線
100
AcDbLine
 10
411.5079468550698
 20
225.0254952147663
 30
0.0
 11
411.5079468550698
 21
221.9254952147663
 31
0.0
  0
LINE
  5
7B5
330
18
100
AcDbEntity
  8
外形線
100
AcDbLine
 10
412.7079468550697
 20
217.2254952147663
 30
0.0
 11
415.3079468550697
 21
217.2254952147663
 31
0.0
  0
LINE
  5
7B7
330
18
100
AcDbEntity
  8
外形線
100
AcDbLine
 10
411.7579468550697
 20
221.7254952147663
 30
0.0
 11
416.2579468550696
 21
221.7254952147663
 31
0.0
  0
LINE
  5
7B8
330
18
100
AcDbEntity
  8
外形線
100
AcDbLine
 10
411.5079468550696
 20
221.9254952147663
 30
0.0
 11
416.5079468550698
 21
221.9254952147663
 31
0.0
  0
LINE
  5
7B9
330
18
100
AcDbEntity
  8
外形線
100
AcDbLine
 10
411.7579468550697
 20
221.7254952147663
 30
0.0
 11
412.7079468550697
 21
217.2254952147663
 31
0.0
  0
LINE
  5
7BA
330
18
100
AcDbEntity
  8
外形線
100
AcDbLine
 10
411.5079468550698
 20
221.9254952147663
 30
0.0
 11
411.7579468550697
 21
221.7254952147663
 31
0.0
  0
LINE
  5
7BB
330
18
100
AcDbEntity
  8
外形線
100
AcDbLine
 10
416.2579468550697
 20
221.7254952147663
 30
0.0
 11
415.3079468550697
 21
217.2254952147663
 31
0.0
  0
LINE
  5
7BC
330
18
100
AcDbEntity
  8
外形線
100
AcDbLine
 10
416.5079468550698
 20
221.9254952147663
 30
0.0
 11
416.2579468550697
 21
221.7254952147663
 31
0.0
  0
LINE
  5
7BD
330
18
100
AcDbEntity
  8
外形線
100
AcDbLine
 10
411.7579468550697
 20
225.2254952147663
 30
0.0
 11
416.2579468550697
 21
225.2254952147663
 31
0.0
  0
LINE
  5
7BE
330
18
100
AcDbEntity
  8
外形線
100
AcDbLine
 10
411.5079468550696
 20
225.0254952147663
 30
0.0
 11
416.5079468550698
 21
225.0254952147663
 31
0.0
  0
LINE
  5
7BF
330
18
100
AcDbEntity
  8
外形線
100
AcDbLine
 10
411.7579468550697
 20
225.2254952147663
 30
0.0
 11
411.5079468550698
 21
225.0254952147663
 31
0.0
  0
LINE
  5
7C0
330
18
100
AcDbEntity
  8
外形線
100
AcDbLine
 10
416.2579468550697
 20
225.2254952147663
 30
0.0
 11
416.5079468550698
 21
225.0254952147663
 31
0.0
  0
LINE
  5
7C1
330
18
100
AcDbEntity
  8
外形線
100
AcDbLine
 10
418.0079468550697
 20
256.7254952147662
 30
0.0
 11
418.0079468550697
 21
240.7254952147663
 31
0.0
  0
LINE
  5
7C2
330
18
100
AcDbEntity
  8
外形線
100
AcDbLine
 10
410.0079468550699
 20
256.7254952147663
 30
0.0
 11
410.0079468550697
 21
240.7254952147662
 31
0.0
  0
LINE
  5
7C3
330
18
100
AcDbEntity
  8
外形線
100
AcDbLine
 10
410.4079468550698
 20
238.2254952147663
 30
0.0
 11
410.4079468550698
 21
236.4254952147662
 31
0.0
  0
LINE
  5
7C4
330
18
100
AcDbEntity
  8
外形線
100
AcDbLine
 10
417.6079468550698
 20
236.4254952147662
 30
0.0
 11
417.6079468550698
 21
238.2254952147663
 31
0.0
  0
LINE
  5
7C5
330
18
100
AcDbEntity
  8
外形線
100
AcDbLine
 10
410.6079468550698
 20
236.2254952147663
 30
0.0
 11
417.4079468550698
 21
236.2254952147663
 31
0.0
  0
LINE
  5
7C6
330
18
100
AcDbEntity
  8
外形線
100
AcDbLine
 10
410.4079468550698
 20
236.4254952147662
 30
0.0
 11
410.6079468550698
 21
236.2254952147663
 31
0.0
  0
LINE
  5
7C7
330
18
100
AcDbEntity
  8
外形線
100
AcDbLine
 10
417.6079468550698
 20
236.4254952147662
 30
0.0
 11
417.4079468550698
 21
236.2254952147663
 31
0.0
  0
LINE
  5
7C8
330
18
100
AcDbEntity
  8
外形線
100
AcDbLine
 10
410.1579468550697
 20
239.2254952147663
 30
0.0
 11
417.8579468550698
 21
239.2254952147663
 31
0.0
  0
LINE
  5
7C9
330
18
100
AcDbEntity
  8
外形線
100
AcDbLine
 10
410.4079468550698
 20
238.2254952147663
 30
0.0
 11
417.6079468550698
 21
238.2254952147663
 31
0.0
  0
LINE
  5
7CA
330
18
100
AcDbEntity
  8
外形線
100
AcDbLine
 10
410.0079468550697
 20
240.7254952147662
 30
0.0
 11
418.0079468550697
 21
240.7254952147663
 31
0.0
  0
ARC
  5
7CB
330
18
100
AcDbEntity
  8
外形線
100
AcDbCircle
 10
410.2829468550697
 20
238.7254952147663
 30
0.0
 40
0.5153882032022076
100
AcDbArc
 50
284.0362434679264
 51
104.0362434679264
  0
LINE
  5
7CC
330
18
100
AcDbEntity
  8
外形線
100
AcDbLine
 10
410.1579468550697
 20
240.7254952147663
 30
0.0
 11
410.1579468550697
 21
239.2254952147663
 31
0.0
  0
ARC
  5
7CD
330
18
100
AcDbEntity
  8
外形線
100
AcDbCircle
 10
417.7329468550698
 20
238.7254952147663
 30
0.0
 40
0.5153882032022076
100
AcDbArc
 50
75.96375653207353
 51
255.9637565320735
  0
LINE
  5
7CE
330
18
100
AcDbEntity
  8
外形線
100
AcDbLine
 10
417.8579468550698
 20
240.7254952147663
 30
0.0
 11
417.8579468550698
 21
239.2254952147663
 31
0.0
  0
LINE
  5
7D6
330
18
100
AcDbEntity
  8
中心線
 48
0.5
100
AcDbLine
 10
396.0312471091158
 20
281.2254952147663
 30
0.0
 11
444.3181350230305
 21
281.2254952147663
 31
0.0
  0
LINE
  5
833
330
18
100
AcDbEntity
  8
0
  6
ByBlock
 62
     2
100
AcDbLine
 10
326.3740604659464
 20
322.7254952147663
 30
0.0
 11
281.23609656117
 21
322.7254952147663
 31
0.0
  0
LINE
  5
835
330
18
100
AcDbEntity
  8
0
  6
ByBlock
 62
     2
100
AcDbLine
 10
289.5811331705722
 20
320.2254952147663
 30
0.0
 11
289.5811331705722
 21
283.7254952147663
 31
0.0
  0
INSERT
  5
836
330
18
100
AcDbEntity
  8
0
  6
ByBlock
 62
     2
100
AcDbBlockReference
  2
_OPEN
 10
289.5811331705722
 20
322.7254952147663
 30
0.0
 41
2.5
 42
2.5
 43
2.5
 50
90.0
  0
INSERT
  5
837
330
18
100
AcDbEntity
  8
0
  6
ByBlock
 62
     2
100
AcDbBlockReference
  2
_OPEN
 10
289.5811331705722
 20
281.2254952147663
 30
0.0
 41
2.5
 42
2.5
 43
2.5
 50
270.0
  0
MTEXT
  5
838
330
18
100
AcDbEntity
  8
0
  6
ByBlock
 62
     6
100
AcDbMText
 10
287.7061331705722
 20
301.9754952147663
 30
0.0
 40
2.5
 41
0.0
 71
     5
 72
     1
  1
\A1;41.5
  7
STYLE3
 11
0.0000000000000001
 21
1.0
 31
0.0
 73
     1
 44
1.0
  0
POINT
  5
839
330
18
100
AcDbEntity
  8
DEFPOINTS
  6
ByBlock
 62
     0
100
AcDbPoint
 10
326.3740604659464
 20
322.7254952147663
 30
0.0
  0
POINT
  5
83A
330
18
100
AcDbEntity
  8
DEFPOINTS
  6
ByBlock
 62
     0
100
AcDbPoint
 10
326.3740604659464
 20
281.2254952147663
 30
0.0
  0
LINE
  5
83C
330
18
100
AcDbEntity
  8
0
  6
ByBlock
 62
     2
100
AcDbLine
 10
326.3740604659465
 20
216.2254952147663
 30
0.0
 11
281.2360965611702
 21
216.2254952147663
 31
0.0
  0
LINE
  5
83D
330
18
100
AcDbEntity
  8
0
  6
ByBlock
 62
     2
100
AcDbLine
 10
289.5811331705722
 20
278.7254952147663
 30
0.0
 11
289.5811331705722
 21
218.7254952147663
 31
0.0
  0
INSERT
  5
83E
330
18
100
AcDbEntity
  8
0
  6
ByBlock
 62
     2
100
AcDbBlockReference
  2
_OPEN
 10
289.5811331705722
 20
281.2254952147663
 30
0.0
 41
2.5
 42
2.5
 43
2.5
 50
90.0
  0
INSERT
  5
83F
330
18
100
AcDbEntity
  8
0
  6
ByBlock
 62
     2
100
AcDbBlockReference
  2
_OPEN
 10
289.5811331705722
 20
216.2254952147663
 30
0.0
 41
2.5
 42
2.5
 43
2.5
 50
270.0
  0
MTEXT
  5
840
330
18
100
AcDbEntity
  8
0
  6
ByBlock
 62
     6
100
AcDbMText
 10
287.7061331705722
 20
248.7254952147663
 30
0.0
 40
2.5
 41
0.0
 71
     5
 72
     1
  1
\A1;65
  7
STYLE3
 11
0.0000000000000001
 21
1.0
 31
0.0
 73
     1
 44
1.0
  0
POINT
  5
841
330
18
100
AcDbEntity
  8
DEFPOINTS
  6
ByBlock
 62
     0
100
AcDbPoint
 10
326.3740604659464
 20
281.2254952147663
 30
0.0
  0
POINT
  5
843
330
18
100
AcDbEntity
  8
DEFPOINTS
  6
ByBlock
 62
     0
100
AcDbPoint
 10
289.5811331705722
 20
216.2254952147663
 30
0.0
  0
LINE
  5
846
330
18
100
AcDbEntity
  8
0
  6
ByBlock
 62
     2
100
AcDbLine
 10
282.48609656117
 20
320.2254952147663
 30
0.0
 11
282.48609656117
 21
218.7254952147663
 31
0.0
  0
INSERT
  5
847
330
18
100
AcDbEntity
  8
0
  6
ByBlock
 62
     2
100
AcDbBlockReference
  2
_OPEN
 10
282.48609656117
 20
322.7254952147663
 30
0.0
 41
2.5
 42
2.5
 43
2.5
 50
90.0
  0
INSERT
  5
848
330
18
100
AcDbEntity
  8
0
  6
ByBlock
 62
     2
100
AcDbBlockReference
  2
_OPEN
 10
282.48609656117
 20
216.2254952147663
 30
0.0
 41
2.5
 42
2.5
 43
2.5
 50
270.0
  0
MTEXT
  5
849
330
18
100
AcDbEntity
  8
0
  6
ByBlock
 62
     6
100
AcDbMText
 10
280.61109656117
 20
269.4754952147663
 30
0.0
 40
2.5
 41
0.0
 71
     5
 72
     1
  1
\A1;106.5
  7
STYLE3
 11
0.0000000000000001
 21
1.0
 31
0.0
 73
     1
 44
1.0
  0
POINT
  5
84A
330
18
100
AcDbEntity
  8
DEFPOINTS
  6
ByBlock
 62
     0
100
AcDbPoint
 10
288.3311331705722
 20
322.7254952147663
 30
0.0
  0
POINT
  5
84B
330
18
100
AcDbEntity
  8
DEFPOINTS
  6
ByBlock
 62
     0
100
AcDbPoint
 10
288.3311331705722
 20
216.2254952147663
 30
0.0
  0
POINT
  5
84C
330
18
100
AcDbEntity
  8
DEFPOINTS
  6
ByBlock
 62
     0
100
AcDbPoint
 10
282.48609656117
 20
216.2254952147663
 30
0.0
  0
LINE
  5
874
330
18
100
AcDbEntity
  8
0
  6
ByBlock
 62
     2
100
AcDbLine
 10
324.8740604659464
 20
246.5752675103374
 30
0.0
 11
327.8740604659465
 21
246.5752675103374
 31
0.0
  0
INSERT
  5
875
330
18
100
AcDbEntity
  8
0
  6
ByBlock
 62
     2
100
AcDbBlockReference
  2
_OPEN
 10
322.3740604659464
 20
246.5752675103374
 30
0.0
 41
2.5
 42
2.5
 43
2.5
 50
180.0
  0
INSERT
  5
876
330
18
100
AcDbEntity
  8
0
  6
ByBlock
 62
     2
100
AcDbBlockReference
  2
_OPEN
 10
330.3740604659465
 20
246.5752675103374
 30
0.0
 41
2.5
 42
2.5
 43
2.5
  0
MTEXT
  5
877
330
18
100
AcDbEntity
  8
0
  6
ByBlock
 62
     6
100
AcDbMText
 10
327.1851629560876
 20
248.4502675103374
 30
0.0
 40
2.5
 41
0.0
 71
     5
 72
     1
  1
8.0
  7
STYLE3
 73
     1
 44
1.0
  0
POINT
  5
878
330
18
100
AcDbEntity
  8
DEFPOINTS
  6
ByBlock
 62
     0
100
AcDbPoint
 10
322.3740604659464
 20
246.0079646330687
 30
0.0
  0
POINT
  5
879
330
18
100
AcDbEntity
  8
DEFPOINTS
  6
ByBlock
 62
     0
100
AcDbPoint
 10
330.3740604659465
 20
245.845878291723
 30
0.0
  0
POINT
  5
87A
330
18
100
AcDbEntity
  8
DEFPOINTS
  6
ByBlock
 62
     0
100
AcDbPoint
 10
330.3740604659465
 20
246.5752675103374
 30
0.0
  0
LINE
  5
87B
330
18
100
AcDbEntity
  8
0
  6
ByBlock
 62
     2
100
AcDbLine
 10
321.8740604659465
 20
229.3130487225024
 30
0.0
 11
320.9962646429627
 21
229.3130487225024
 31
0.0
  0
LINE
  5
87C
330
18
100
AcDbEntity
  8
0
  6
ByBlock
 62
     2
100
AcDbLine
 10
330.8740604659464
 20
229.3130487225024
 30
0.0
 11
335.401816691299
 21
229.3130487225024
 31
0.0
  0
LINE
  5
87D
330
18
100
AcDbEntity
  8
0
  6
ByBlock
 62
     2
100
AcDbLine
 10
324.3740604659465
 20
229.3130487225024
 30
0.0
 11
328.3740604659464
 21
229.3130487225024
 31
0.0
  0
INSERT
  5
87E
330
18
100
AcDbEntity
  8
0
  6
ByBlock
 62
     2
100
AcDbBlockReference
  2
_OPEN
 10
324.3740604659465
 20
229.3130487225024
 30
0.0
 41
2.5
 42
2.5
 43
2.5
  0
INSERT
  5
87F
330
18
100
AcDbEntity
  8
0
  6
ByBlock
 62
     2
100
AcDbBlockReference
  2
_OPEN
 10
328.3740604659464
 20
229.3130487225024
 30
0.0
 41
2.5
 42
2.5
 43
2.5
 50
180.0
  0
MTEXT
  5
880
330
18
100
AcDbEntity
  8
0
  6
ByBlock
 62
     6
100
AcDbMText
 10
333.8362040178568
 20
231.1880487225025
 30
0.0
 40
2.5
 41
0.0
 71
     5
 72
     1
  1
\A1;4
  7
STYLE3
 73
     1
 44
1.0
  0
POINT
  5
881
330
18
100
AcDbEntity
  8
DEFPOINTS
  6
ByBlock
 62
     0
100
AcDbPoint
 10
324.3740604659465
 20
229.9613949979636
 30
0.0
  0
POINT
  5
882
330
18
100
AcDbEntity
  8
DEFPOINTS
  6
ByBlock
 62
     0
100
AcDbPoint
 10
328.3740604659464
 20
229.8803515997712
 30
0.0
  0
POINT
  5
883
330
18
100
AcDbEntity
  8
DEFPOINTS
  6
ByBlock
 62
     0
100
AcDbPoint
 10
328.3740604659464
 20
229.3130487225024
 30
0.0
  0
TEXT
  5
884
330
18
100
AcDbEntity
  8
文字
100
AcDbText
 10
330.64207176017
 20
230.6907846716173
 30
0.0
 40
2.5
  1
φ
  7
STYLE3
100
AcDbText
  0
TEXT
  5
885
330
18
100
AcDbEntity
  8
文字
100
AcDbText
 10
322.2409498815699
 20
248.9372256460338
 30
0.0
 40
2.5
  1
φ
  7
STYLE3
100
AcDbText
  0
MTEXT
  5
887
330
18
100
AcDbEntity
  8
文字
100
AcDbMText
 10
302.9558756866726
 20
261.6432165871282
 30
0.0
 40
1.0
 41
6.927999999999999
 71
     1
 72
     5
  1

  7
STYLE3
 73
     1
 44
1.0
  0
LINE
  5
8FD
330
18
100
AcDbEntity
  8
0
  6
ByBlock
 62
     2
100
AcDbLine
 10
411.7579468550697
 20
225.2254952147663
 30
0.0
 11
387.2289009899272
 21
225.2254952147663
 31
0.0
  0
LINE
  5
8FF
330
18
100
AcDbEntity
  8
0
  6
ByBlock
 62
     2
100
AcDbLine
 10
388.4789009899273
 20
222.7254952147663
 30
0.0
 11
388.4789009899273
 21
218.7254952147663
 31
0.0
  0
INSERT
  5
900
330
18
100
AcDbEntity
  8
0
  6
ByBlock
 62
     2
100
AcDbBlockReference
  2
_OPEN
 10
388.4789009899273
 20
225.2254952147663
 30
0.0
 41
2.5
 42
2.5
 43
2.5
 50
90.0
  0
INSERT
  5
901
330
18
100
AcDbEntity
  8
0
  6
ByBlock
 62
     2
100
AcDbBlockReference
  2
_OPEN
 10
388.4789009899273
 20
216.2254952147663
 30
0.0
 41
2.5
 42
2.5
 43
2.5
 50
270.0
  0
MTEXT
  5
902
330
18
100
AcDbEntity
  8
0
  6
ByBlock
 62
     6
100
AcDbMText
 10
386.6039009899272
 20
220.7254952147663
 30
0.0
 40
2.5
 41
0.0
 71
     5
 72
     1
  1
\A1;9
  7
STYLE3
 11
0.0000000000000001
 21
1.0
 31
0.0
 73
     1
 44
1.0
  0
POINT
  5
903
330
18
100
AcDbEntity
  8
DEFPOINTS
  6
ByBlock
 62
     0
100
AcDbPoint
 10
411.7579468550697
 20
225.2254952147663
 30
0.0
  0
LINE
  5
907
330
18
100
AcDbEntity
  8
0
  6
ByBlock
 62
     2
100
AcDbLine
 10
410.0079468550697
 20
240.7254952147662
 30
0.0
 11
398.463748663956
 21
240.7254952147662
 31
0.0
  0
LINE
  5
908
330
18
100
AcDbEntity
  8
0
  6
ByBlock
 62
     2
100
AcDbLine
 10
399.713748663956
 20
252.3254952147663
 30
0.0
 11
399.713748663956
 21
243.2254952147662
 31
0.0
  0
INSERT
  5
909
330
18
100
AcDbEntity
  8
0
  6
ByBlock
 62
     2
100
AcDbBlockReference
  2
_OPEN
 10
399.713748663956
 20
254.8254952147663
 30
0.0
 41
2.5
 42
2.5
 43
2.5
 50
90.0
  0
INSERT
  5
90A
330
18
100
AcDbEntity
  8
0
  6
ByBlock
 62
     2
100
AcDbBlockReference
  2
_OPEN
 10
399.713748663956
 20
240.7254952147662
 30
0.0
 41
2.5
 42
2.5
 43
2.5
 50
270.0
  0
MTEXT
  5
90B
330
18
100
AcDbEntity
  8
0
  6
ByBlock
 62
     6
100
AcDbMText
 10
397.838748663956
 20
247.7754952147663
 30
0.0
 40
2.5
 41
0.0
 71
     5
 72
     1
  1
14
  7
STYLE3
 11
0.0000000000000001
 21
1.0
 31
0.0
 73
     1
 44
1.0
  0
POINT
  5
90D
330
18
100
AcDbEntity
  8
DEFPOINTS
  6
ByBlock
 62
     0
100
AcDbPoint
 10
410.0079468550697
 20
240.7254952147662
 30
0.0
  0
POINT
  5
90E
330
18
100
AcDbEntity
  8
DEFPOINTS
  6
ByBlock
 62
     0
100
AcDbPoint
 10
399.713748663956
 20
240.7254952147662
 30
0.0
  0
LINE
  5
910
330
18
100
AcDbEntity
  8
0
  6
ByBlock
 62
     2
100
AcDbLine
 10
410.6079468550698
 20
236.2254952147663
 30
0.0
 11
387.2289009899272
 21
236.2254952147663
 31
0.0
  0
LINE
  5
911
330
18
100
AcDbEntity
  8
0
  6
ByBlock
 62
     2
100
AcDbLine
 10
388.4789009899273
 20
252.3254952147663
 30
0.0
 11
388.4789009899273
 21
238.7254952147662
 31
0.0
  0
INSERT
  5
912
330
18
100
AcDbEntity
  8
0
  6
ByBlock
 62
     2
100
AcDbBlockReference
  2
_OPEN
 10
388.4789009899273
 20
254.8254952147663
 30
0.0
 41
2.5
 42
2.5
 43
2.5
 50
90.0
  0
INSERT
  5
913
330
18
100
AcDbEntity
  8
0
  6
ByBlock
 62
     2
100
AcDbBlockReference
  2
_OPEN
 10
388.4789009899273
 20
236.2254952147663
 30
0.0
 41
2.5
 42
2.5
 43
2.5
 50
270.0
  0
MTEXT
  5
914
330
18
100
AcDbEntity
  8
0
  6
ByBlock
 62
     6
100
AcDbMText
 10
386.6039009899272
 20
245.5254952147663
 30
0.0
 40
2.5
 41
0.0
 71
     5
 72
     1
  1
18.5
  7
STYLE3
 11
0.0000000000000001
 21
1.0
 31
0.0
 73
     1
 44
1.0
  0
POINT
  5
916
330
18
100
AcDbEntity
  8
DEFPOINTS
  6
ByBlock
 62
     0
100
AcDbPoint
 10
410.6079468550698
 20
236.2254952147663
 30
0.0
  0
POINT
  5
917
330
18
100
AcDbEntity
  8
DEFPOINTS
  6
ByBlock
 62
     0
100
AcDbPoint
 10
388.4789009899273
 20
236.2254952147663
 30
0.0
  0
TEXT
  5
93E
330
18
100
AcDbEntity
  8
文字
100
AcDbText
 10
453.7360828247599
 20
276.118412927749
 30
0.0
 40
2.5
  1
φ
 50
90.0
  7
STYLE3
100
AcDbText
  0
LWPOLYLINE
  5
96E
330
18
100
AcDbEntity
  8
C
100
AcDbPolyline
 90
        5
 70
     0
 43
0.4
 10
236.6915604445414
 20
366.8501752555372
 10
491.6915604445414
 20
366.8501752555372
 10
491.6915604445414
 20
171.8501752555372
 10
236.6915604445414
 20
171.8501752555372
 10
236.6915604445414
 20
366.8501752555372
  0
MTEXT
  5
EB4
330
18
100
AcDbEntity
  8
DEFPOINTS
  6
Continuous
100
AcDbMText
 10
624.6916853418142
 20
184.890767874579
 30
0.0
 40
0.35
 41
0.0
 71
     4
 72
     1
  1
\A1;
 73
     1
 44
1.0
  0
LINE
  5
EB5
102
{ACAD_REACTORS
330
EF3
102
}
330
18
100
AcDbEntity
  8
中心線
 48
0.5
100
AcDbLine
 10
319.7066843511046
 20
290.5904618558728
 30
0.0
 11
321.3191826640898
 21
290.5904618558728
 31
0.0
  0
LINE
  5
EB6
102
{ACAD_REACTORS
330
EF3
330
EF2
330
EF1
102
}
330
18
100
AcDbEntity
  8
中心線
 48
0.5
100
AcDbLine
 10
318.691433811012
 20
288.5385830709668
 30
0.0
 11
332.5806110780358
 21
288.5385830709668
 31
0.0
  0
LINE
  5
EB7
102
{ACAD_REACTORS
330
EF3
102
}
330
18
100
AcDbEntity
  8
中心線
 48
0.5
100
AcDbLine
 10
319.7066843511046
 20
290.5904618558728
 30
0.0
 11
318.691433811012
 21
288.5385830709667
 31
0.0
  0
SPLINE
  5
EB8
102
{ACAD_REACTORS
330
EF3
102
}
330
18
100
AcDbEntity
  8
中心線
 48
0.5
100
AcDbSpline
210
0.0
220
0.0
230
1.0
 70
     8
 71
     3
 72
    18
 73
    14
 74
     0
 42
0.0000000001
 43
0.0000000001
 40
0.1087402787915014
 40
0.1087402787915014
 40
0.1087402787915014
 40
0.1087402787915014
 40
0.5992371417938475
 40
1.083176791562496
 40
1.448211145705696
 40
1.714037220764907
 40
2.164002567013297
 40
2.740236056362883
 40
3.395137510199602
 40
4.071816045172726
 40
4.784906178399433
 40
5.506895915094292
 40
6.060470601257719
 40
6.060470601257719
 40
6.060470601257719
 40
6.060470601257719
 10
321.3191826640898
 20
290.5904618558728
 30
0.0
 10
321.3708422017258
 20
290.5715295010251
 30
0.0
 10
321.4724301495763
 20
290.5315036097098
 30
0.0
 10
321.5964153851235
 20
290.4401512999184
 30
0.0
 10
321.6640315790483
 20
290.3346925227457
 30
0.0
 10
321.7290707875913
 20
290.2307817804429
 30
0.0
 10
321.7381729061022
 20
290.0817042462864
 30
0.0
 10
321.7232630210551
 20
289.8932341107147
 30
0.0
 10
321.627006150179
 20
289.696584973194
 30
0.0
 10
321.4725082110976
 20
289.5245879423921
 30
0.0
 10
321.2806882380046
 20
289.3869237620504
 30
0.0
 10
321.0784074598973
 20
289.278860925555
 30
0.0
 10
320.9338171028438
 20
289.2777842049465
 30
0.0
 10
320.8710671859491
 20
289.2773169253153
 30
0.0
  0
LINE
  5
EB9
102
{ACAD_REACTORS
330
EF3
102
}
330
18
100
AcDbEntity
  8
中心線
 48
0.5
100
AcDbLine
 10
320.8710671862582
 20
289.2773169253153
 30
0.0
 11
319.9794589177769
 21
289.2773169253153
 31
0.0
  0
LINE
  5
EBA
102
{ACAD_REACTORS
330
EF3
102
}
330
18
100
AcDbEntity
  8
中心線
 48
0.5
100
AcDbLine
 10
320.3438212064445
 20
290.0826649446594
 30
0.0
 11
320.1858234100871
 21
289.7334432597741
 31
0.0
  0
SPLINE
  5
EBB
102
{ACAD_REACTORS
330
EF3
102
}
330
18
100
AcDbEntity
  8
中心線
 48
0.5
100
AcDbSpline
210
0.0
220
0.0
230
1.0
 70
     8
 71
     3
 72
    15
 73
    11
 74
     9
 42
0.0000000001
 43
0.0000000001
 44
0.0000000001
 40
0.0
 40
0.0
 40
0.0
 40
0.0
 40
0.1539705029175028
 40
0.2241725832587281
 40
0.3038566179396687
 40
0.3581410872474193
 40
0.443992538467216
 40
0.4954152125469665
 40
0.5836396705646186
 40
0.6130478420065743
 40
0.6130478420065743
 40
0.6130478420065743
 40
0.6130478420065743
 10
320.7498082055419
 20
290.0826649446594
 30
0.0
 10
320.8076365406011
 20
290.0829298293018
 30
0.0
 10
320.8918314156593
 20
290.0833154867715
 30
0.0
 10
320.9378721720238
 20
289.979166182842
 30
0.0
 10
320.9172345097903
 20
289.9121102782046
 30
0.0
 10
320.8912912863662
 20
289.8432647639568
 30
0.0
 10
320.8454437348238
 20
289.7964831986875
 30
0.0
 10
320.7839096052288
 20
289.7514246650505
 30
0.0
 10
320.7257569121729
 20
289.745970127791
 30
0.0
 10
320.6879351132004
 20
289.7359486343368
 30
0.0
 10
320.6784796589311
 20
289.7334432597741
 30
0.0
 11
320.7498082055419
 21
290.0826649446594
 31
0.0
 11
320.8995982764707
 21
290.0470299840195
 31
0.0
 11
320.9281297771457
 21
289.9828872872141
 31
0.0
 11
320.9138642318849
 21
289.9044906061527
 31
0.0
 11
320.892465708917
 21
289.8546016612569
 31
0.0
 11
320.835402707567
 21
289.7904589644515
 31
0.0
 11
320.7926056616311
 21
289.7619509959396
 31
0.0
 11
320.7070111596061
 21
289.740570251902
 31
0.0
 11
320.6784796589311
 21
289.7334432597741
 31
0.0
  0
LINE
  5
EBC
102
{ACAD_REACTORS
330
EF3
102
}
330
18
100
AcDbEntity
  8
中心線
 48
0.5
100
AcDbLine
 10
320.7498082055419
 20
290.0826649446594
 30
0.0
 11
320.3438212064445
 21
290.0826649446594
 31
0.0
  0
LINE
  5
EBD
102
{ACAD_REACTORS
330
EF3
102
}
330
18
100
AcDbEntity
  8
中心線
 48
0.5
100
AcDbLine
 10
320.6784796589312
 20
289.7334432597741
 30
0.0
 11
320.1858234100871
 21
289.7334432597741
 31
0.0
  0
LINE
  5
EBE
102
{ACAD_REACTORS
330
EF3
330
EF1
102
}
330
18
100
AcDbEntity
  8
中心線
 48
0.5
100
AcDbLine
 10
319.9794589177769
 20
289.2773169253153
 30
0.0
 11
319.6452347669485
 21
288.5385830709668
 31
0.0
  0
LINE
  5
EBF
102
{ACAD_REACTORS
330
EEE
102
}
330
18
100
AcDbEntity
  8
中心線
 48
0.5
100
AcDbLine
 10
322.2718066572954
 20
290.5904618558728
 30
0.0
 11
321.6220747580353
 21
289.2773169253153
 31
0.0
  0
LINE
  5
EC0
102
{ACAD_REACTORS
330
EEE
102
}
330
18
100
AcDbEntity
  8
中心線
 48
0.5
100
AcDbLine
 10
324.0478898057793
 20
290.5904618558728
 30
0.0
 11
323.8990556100447
 21
290.2896595251807
 31
0.0
  0
LINE
  5
EC1
102
{ACAD_REACTORS
330
EEE
102
}
330
18
100
AcDbEntity
  8
中心線
 48
0.5
100
AcDbLine
 10
321.6220747580353
 20
289.2773169253153
 30
0.0
 11
323.3981579065192
 21
289.2773169253153
 31
0.0
  0
LINE
  5
EC2
102
{ACAD_REACTORS
330
EEE
102
}
330
18
100
AcDbEntity
  8
中心線
 48
0.5
100
AcDbLine
 10
322.9655911878268
 20
290.2896595251807
 30
0.0
 11
322.8492213417503
 21
290.0544694819966
 31
0.0
  0
LINE
  5
EC3
102
{ACAD_REACTORS
330
EEE
102
}
330
18
100
AcDbEntity
  8
中心線
 48
0.5
100
AcDbLine
 10
322.9655911878268
 20
290.2896595251807
 30
0.0
 11
323.8990556100447
 21
290.2896595251807
 31
0.0
  0
LINE
  5
EC4
102
{ACAD_REACTORS
330
EEE
102
}
330
18
100
AcDbEntity
  8
中心線
 48
0.5
100
AcDbLine
 10
322.8492213417503
 20
290.0544694819966
 30
0.0
 11
323.7826857639682
 21
290.0544694819966
 31
0.0
  0
LINE
  5
EC5
102
{ACAD_REACTORS
330
EEE
102
}
330
18
100
AcDbEntity
  8
中心線
 48
0.5
100
AcDbLine
 10
322.6135201935101
 20
289.5781041253154
 30
0.0
 11
323.546984615728
 21
289.5781041253154
 31
0.0
  0
LINE
  5
EC6
102
{ACAD_REACTORS
330
EEE
102
}
330
18
100
AcDbEntity
  8
中心線
 48
0.5
100
AcDbLine
 10
322.7298949661264
 20
289.8133041253153
 30
0.0
 11
323.6633593883444
 21
289.8133041253153
 31
0.0
  0
LINE
  5
EC7
102
{ACAD_REACTORS
330
EEE
102
}
330
18
100
AcDbEntity
  8
中心線
 48
0.5
100
AcDbLine
 10
323.7826857639682
 20
290.0544694819966
 30
0.0
 11
323.6633593883444
 21
289.8133041253153
 31
0.0
  0
LINE
  5
EC8
102
{ACAD_REACTORS
330
EEE
102
}
330
18
100
AcDbEntity
  8
中心線
 48
0.5
100
AcDbLine
 10
323.546984615728
 20
289.5781041253154
 30
0.0
 11
323.3981579065192
 21
289.2773169253153
 31
0.0
  0
LINE
  5
EC9
102
{ACAD_REACTORS
330
EEE
102
}
330
18
100
AcDbEntity
  8
中心線
 48
0.5
100
AcDbLine
 10
322.7298949661264
 20
289.8133041253153
 30
0.0
 11
322.6135201935101
 21
289.5781041253154
 31
0.0
  0
LINE
  5
ECA
102
{ACAD_REACTORS
330
EF7
102
}
330
18
100
AcDbEntity
  8
中心線
 48
0.5
100
AcDbLine
 10
324.562384070977
 20
290.5904618558728
 30
0.0
 11
323.6154497408779
 21
289.2773169253153
 31
0.0
  0
LINE
  5
ECB
102
{ACAD_REACTORS
330
EF7
102
}
330
18
100
AcDbEntity
  8
中心線
 48
0.5
100
AcDbLine
 10
325.0365119276087
 20
290.239452878921
 30
0.0
 11
324.7131451912955
 21
289.7910296071021
 31
0.0
  0
LINE
  5
ECC
102
{ACAD_REACTORS
330
EF7
102
}
330
18
100
AcDbEntity
  8
中心線
 48
0.5
100
AcDbLine
 10
324.5229874301504
 20
289.5273315954061
 30
0.0
 11
325.3528644189347
 21
289.5273315954061
 31
0.0
  0
LINE
  5
ECD
102
{ACAD_REACTORS
330
EF7
102
}
330
18
100
AcDbEntity
  8
中心線
 48
0.5
100
AcDbLine
 10
324.7131451912955
 20
289.7910296071022
 30
0.0
 11
325.2357193133341
 21
289.7910296071022
 31
0.0
  0
LINE
  5
ECE
102
{ACAD_REACTORS
330
EF7
102
}
330
18
100
AcDbEntity
  8
中心線
 48
0.5
100
AcDbLine
 10
324.5229874301504
 20
289.5273315954061
 30
0.0
 11
324.3426969925695
 21
289.2773169253153
 31
0.0
  0
LINE
  5
ECF
102
{ACAD_REACTORS
330
EF7
102
}
330
18
100
AcDbEntity
  8
中心線
 48
0.5
100
AcDbLine
 10
323.6154497408779
 20
289.2773169253153
 30
0.0
 11
324.3426969925694
 21
289.2773169253153
 31
0.0
  0
LINE
  5
ED0
102
{ACAD_REACTORS
330
EF7
102
}
330
18
100
AcDbEntity
  8
中心線
 48
0.5
100
AcDbLine
 10
324.562384070977
 20
290.5904618558728
 30
0.0
 11
325.6127875537484
 21
290.5904618558728
 31
0.0
  0
LINE
  5
ED1
102
{ACAD_REACTORS
330
EF7
102
}
330
18
100
AcDbEntity
  8
中心線
 48
0.5
100
AcDbLine
 10
326.1961385641317
 20
289.2773169253153
 30
0.0
 11
325.4639308420036
 21
289.2773169253153
 31
0.0
  0
LINE
  5
ED2
102
{ACAD_REACTORS
330
EEF
102
}
330
18
100
AcDbEntity
  8
中心線
 48
0.5
100
AcDbLine
 10
326.5557579791375
 20
289.2773169253153
 30
0.0
 11
327.6867869941422
 21
289.2773169253153
 31
0.0
  0
LINE
  5
ED3
102
{ACAD_REACTORS
330
EEF
102
}
330
18
100
AcDbEntity
  8
中心線
 48
0.5
100
AcDbLine
 10
328.3415634671514
 20
290.5904618558728
 30
0.0
 11
328.0979441666108
 21
290.1018868036559
 31
0.0
  0
LINE
  5
ED4
102
{ACAD_REACTORS
330
EEF
102
}
330
18
100
AcDbEntity
  8
中心線
 48
0.5
100
AcDbLine
 10
327.2761772432596
 20
290.1018868036559
 30
0.0
 11
328.0979441666108
 21
290.1018868036559
 31
0.0
  0
LINE
  5
ED5
102
{ACAD_REACTORS
330
EEF
102
}
330
18
100
AcDbEntity
  8
中心線
 48
0.5
100
AcDbLine
 10
327.0907226939488
 20
289.7658868036559
 30
0.0
 11
327.930403714821
 21
289.7658868036559
 31
0.0
  0
SPLINE
  5
ED6
102
{ACAD_REACTORS
330
EEF
102
}
330
18
100
AcDbEntity
  8
中心線
 48
0.5
100
AcDbSpline
210
0.0
220
0.0
230
1.0
 70
     8
 71
     3
 72
    26
 73
    22
 74
    20
 42
0.0000000001
 43
0.0000000001
 44
0.0000000001
 40
0.0
 40
0.0
 40
0.0
 40
0.0
 40
0.2382195346591896
 40
0.397689067266058
 40
0.5126795869787669
 40
0.5985392873135731
 40
0.7099038249249733
 40
0.7911890807494741
 40
0.9379713068543702
 40
1.057449928673087
 40
1.138714535893316
 40
1.218398644003506
 40
1.36093802187036
 40
1.461730374800257
 40
1.516014844108008
 40
1.593124329220501
 40
1.648806818593631
 40
1.729472362005518
 40
1.775122082164342
 40
1.874460993765092
 40
1.919820003751207
 40
1.919820003751207
 40
1.919820003751207
 40
1.919820003751207
 10
327.0265271250451
 20
290.5904618558728
 30
0.0
 10
326.9456717342865
 20
290.5856378846077
 30
0.0
 10
326.8106899202205
 20
290.5775846381109
 30
0.0
 10
326.6624807095088
 20
290.4875491342526
 30
0.0
 10
326.5538939650985
 20
290.4352064489101
 30
0.0
 10
326.4764500306743
 20
290.3640510274906
 30
0.0
 10
326.4196833128068
 20
290.2905526749693
 30
0.0
 10
326.3481182081092
 20
290.2029799268439
 30
0.0
 10
326.2897589102034
 20
290.1010050053793
 30
0.0
 10
326.2600400676701
 20
289.9886108643161
 30
0.0
 10
326.2337153990165
 20
289.899032081757
 30
0.0
 10
326.2141925840434
 20
289.7992082188647
 30
0.0
 10
326.2191597408565
 20
289.6913633307423
 30
0.0
 10
326.2262729367409
 20
289.5912025197386
 30
0.0
 10
326.258031626665
 20
289.5197026968119
 30
0.0
 10
326.294199149055
 20
289.4687997498825
 30
0.0
 10
326.3384857849098
 20
289.4127357971838
 30
0.0
 10
326.3869450492273
 20
289.3756048228535
 30
0.0
 10
326.4270248163378
 20
289.3083395677129
 30
0.0
 10
326.4971830966003
 20
289.2997560360368
 30
0.0
 10
326.5417784906761
 20
289.2826722461598
 30
0.0
 10
326.5557579791376
 20
289.2773169253153
 30
0.0
 11
327.0265271250451
 21
290.5904618558728
 31
0.0
 11
326.7911425520913
 21
290.553819673779
 31
0.0
 11
326.6484850487163
 21
290.4825499848456
 31
0.0
 11
326.5486250014304
 21
290.4255342801682
 31
0.0
 11
326.4844294325267
 21
290.3685183431444
 31
0.0
 11
326.4131008859159
 21
290.282994669955
 31
0.0
 11
326.3631708622729
 21
290.2188519731496
 31
0.0
 11
326.2918419055087
 21
290.0905663471924
 31
0.0
 11
326.25617783728
 21
289.9765347054912
 31
0.0
 11
326.2347793143121
 21
289.8981380244297
 31
0.0
 11
326.2205133588979
 21
289.8197413433684
 31
0.0
 11
326.2205133588979
 21
289.6772019655015
 31
0.0
 11
326.2347793143121
 21
289.5774243080563
 31
0.0
 11
326.25617783728
 21
289.5275353631604
 31
0.0
 11
326.2989748832158
 21
289.4633926663549
 31
0.0
 11
326.334639361598
 21
289.4206307135871
 31
0.0
 11
326.3917019527945
 21
289.3636150089096
 31
0.0
 11
326.4202334534696
 21
289.3279800482698
 31
0.0
 11
326.5129609332017
 21
289.2923453199762
 31
0.0
 11
326.5557579791376
 21
289.2773169253153
 31
0.0
  0
SPLINE
  5
ED7
102
{ACAD_REACTORS
330
EEF
102
}
330
18
100
AcDbEntity
  8
中心線
 48
0.5
100
AcDbSpline
210
0.0
220
0.0
230
1.0
 70
     8
 71
     3
 72
    16
 73
    12
 74
    10
 42
0.0000000001
 43
0.0000000001
 44
0.0000000001
 40
0.0
 40
0.0
 40
0.0
 40
0.0
 40
0.1255907025629711
 40
0.1869327038470372
 40
0.2171823804790188
 40
0.2490606136884497
 40
0.2947101524738226
 40
0.3362763310931653
 40
0.3796288870083566
 40
0.452312579561098
 40
0.5242542460842631
 40
0.5242542460842631
 40
0.5242542460842631
 40
0.5242542460842631
 10
327.2761772432597
 20
290.1018868036559
 30
0.0
 10
327.2336465356383
 20
290.095402710352
 30
0.0
 10
327.170342644427
 20
290.0857516050664
 30
0.0
 10
327.1130968930358
 20
290.0404364980907
 30
0.0
 10
327.0808142639118
 20
290.0134770257742
 30
0.0
 10
327.06983156966
 20
289.977775031592
 30
0.0
 10
327.0403355017995
 20
289.9503613805565
 30
0.0
 10
327.0160223519222
 20
289.9126861998403
 30
0.0
 10
327.0102169228605
 20
289.8609387288812
 30
0.0
 10
327.0144782407081
 20
289.7883190397438
 30
0.0
 10
327.0653949552772
 20
289.7733385957445
 30
0.0
 10
327.0907226939489
 20
289.7658868036559
 30
0.0
 11
327.2761772432597
 21
290.1018868036559
 31
0.0
 11
327.1549186730059
 21
290.0691853708085
 31
0.0
 11
327.104988649363
 21
290.033550642515
 31
0.0
 11
327.0835901263952
 21
290.012169666131
 31
0.0
 11
327.0693241709809
 21
289.9836616976191
 31
0.0
 11
327.0407926703059
 21
289.9480269693256
 31
0.0
 11
327.019394147338
 21
289.9123920086857
 31
0.0
 11
327.0122611696308
 21
289.8696302882642
 31
0.0
 11
327.0265271250451
 21
289.7983603669845
 31
0.0
 11
327.0907226939489
 21
289.7658868036559
 31
0.0
  0
LINE
  5
ED8
102
{ACAD_REACTORS
330
EEF
102
}
330
18
100
AcDbEntity
  8
中心線
 48
0.5
100
AcDbLine
 10
327.930403714821
 20
289.7658868036559
 30
0.0
 11
327.6867869941422
 21
289.2773169253153
 31
0.0
  0
LINE
  5
ED9
102
{ACAD_REACTORS
330
EEF
102
}
330
18
100
AcDbEntity
  8
中心線
 48
0.5
100
AcDbLine
 10
327.0265271250455
 20
290.5904618558728
 30
0.0
 11
328.3415634671514
 21
290.5904618558728
 31
0.0
  0
LINE
  5
EDA
102
{ACAD_REACTORS
330
EF0
102
}
330
18
100
AcDbEntity
  8
中心線
 48
0.5
100
AcDbLine
 10
330.7868277500654
 20
289.2773169253153
 30
0.0
 11
331.9178567650701
 21
289.2773169253153
 31
0.0
  0
LINE
  5
EDB
102
{ACAD_REACTORS
330
EF0
102
}
330
18
100
AcDbEntity
  8
中心線
 48
0.5
100
AcDbLine
 10
331.2575968959733
 20
290.5904618558728
 30
0.0
 11
332.5726332380792
 21
290.5904618558728
 31
0.0
  0
SPLINE
  5
EDC
102
{ACAD_REACTORS
330
EF0
102
}
330
18
100
AcDbEntity
  8
中心線
 48
0.5
100
AcDbSpline
210
0.0
220
0.0
230
1.0
 70
     8
 71
     3
 72
    16
 73
    12
 74
    10
 42
0.0000000001
 43
0.0000000001
 44
0.0000000001
 40
0.0
 40
0.0
 40
0.0
 40
0.0
 40
0.1255907025629163
 40
0.1869327038470616
 40
0.217182380479003
 40
0.2490606136884339
 40
0.2947101524738157
 40
0.3362763310931585
 40
0.3796288870082937
 40
0.4523125795610796
 40
0.5242542460842448
 40
0.5242542460842448
 40
0.5242542460842448
 40
0.5242542460842448
 10
331.5072470141875
 20
290.1018868036559
 30
0.0
 10
331.4647163065661
 20
290.0954027103519
 30
0.0
 10
331.4014124153547
 20
290.0857516050664
 30
0.0
 10
331.3441666639636
 20
290.0404364980907
 30
0.0
 10
331.3118840348396
 20
290.0134770257742
 30
0.0
 10
331.3009013405878
 20
289.977775031592
 30
0.0
 10
331.2714052727274
 20
289.9503613805564
 30
0.0
 10
331.2470921228501
 20
289.9126861998403
 30
0.0
 10
331.2412866937883
 20
289.8609387288811
 30
0.0
 10
331.2455480116359
 20
289.7883190397438
 30
0.0
 10
331.296464726205
 20
289.7733385957445
 30
0.0
 10
331.3217924648767
 20
289.7658868036558
 30
0.0
 11
331.5072470141875
 21
290.1018868036559
 31
0.0
 11
331.3859884439338
 21
290.0691853708085
 31
0.0
 11
331.3360584202909
 21
290.0335506425149
 31
0.0
 11
331.314659897323
 21
290.012169666131
 31
0.0
 11
331.3003939419087
 21
289.9836616976191
 31
0.0
 11
331.2718624412338
 21
289.9480269693256
 31
0.0
 11
331.2504639182658
 21
289.9123920086857
 31
0.0
 11
331.2433309405587
 21
289.8696302882642
 31
0.0
 11
331.257596895973
 21
289.7983603669844
 31
0.0
 11
331.3217924648767
 21
289.7658868036558
 31
0.0
  0
SPLINE
  5
EDD
102
{ACAD_REACTORS
330
EF0
102
}
330
18
100
AcDbEntity
  8
中心線
 48
0.5
100
AcDbSpline
210
0.0
220
0.0
230
1.0
 70
     8
 71
     3
 72
    26
 73
    22
 74
    20
 42
0.0000000001
 43
0.0000000001
 44
0.0000000001
 40
0.0
 40
0.0
 40
0.0
 40
0.0
 40
0.2382195346591896
 40
0.397689067266058
 40
0.5126795869787176
 40
0.5985392873135238
 40
0.7099038249250041
 40
0.7911890807494602
 40
0.9379713068544059
 40
1.057449928673177
 40
1.138714535893296
 40
1.218398644003487
 40
1.36093802187034
 40
1.461730374800238
 40
1.51601484410804
 40
1.593124329220486
 40
1.648806818593696
 40
1.729472362005543
 40
1.775122082164332
 40
1.874460993765135
 40
1.919820003751196
 40
1.919820003751196
 40
1.919820003751196
 40
1.919820003751196
 10
331.257596895973
 20
290.5904618558728
 30
0.0
 10
331.1767415052143
 20
290.5856378846077
 30
0.0
 10
331.0417596911484
 20
290.577584638111
 30
0.0
 10
330.8935504804366
 20
290.4875491342526
 30
0.0
 10
330.7849637360264
 20
290.4352064489101
 30
0.0
 10
330.7075198016022
 20
290.3640510274906
 30
0.0
 10
330.6507530837347
 20
290.2905526749693
 30
0.0
 10
330.579187979037
 20
290.2029799268438
 30
0.0
 10
330.5208286811311
 20
290.1010050053793
 30
0.0
 10
330.491109838598
 20
289.9886108643159
 30
0.0
 10
330.4647851699443
 20
289.8990320817571
 30
0.0
 10
330.4452623549713
 20
289.7992082188645
 30
0.0
 10
330.4502295117842
 20
289.6913633307424
 30
0.0
 10
330.4573427076688
 20
289.5912025197386
 30
0.0
 10
330.4891013975927
 20
289.5197026968118
 30
0.0
 10
330.5252689199829
 20
289.4687997498826
 30
0.0
 10
330.5695555558376
 20
289.4127357971838
 30
0.0
 10
330.6180148201552
 20
289.3756048228535
 30
0.0
 10
330.6580945872657
 20
289.308339567713
 30
0.0
 10
330.7282528675283
 20
289.2997560360369
 30
0.0
 10
330.772848261604
 20
289.2826722461597
 30
0.0
 10
330.7868277500654
 20
289.2773169253153
 30
0.0
 11
331.257596895973
 21
290.5904618558728
 31
0.0
 11
331.0222123230191
 21
290.553819673779
 31
0.0
 11
330.8795548196441
 21
290.4825499848456
 31
0.0
 11
330.7796947723583
 21
290.4255342801682
 31
0.0
 11
330.7154992034546
 21
290.3685183431444
 31
0.0
 11
330.6441706568437
 21
290.282994669955
 31
0.0
 11
330.5942406332008
 21
290.2188519731496
 31
0.0
 11
330.5229116764366
 21
290.0905663471924
 31
0.0
 11
330.4872476082078
 21
289.9765347054911
 31
0.0
 11
330.46584908524
 21
289.8981380244297
 31
0.0
 11
330.4515831298257
 21
289.8197413433684
 31
0.0
 11
330.4515831298257
 21
289.6772019655015
 31
0.0
 11
330.46584908524
 21
289.5774243080563
 31
0.0
 11
330.4872476082078
 21
289.5275353631604
 31
0.0
 11
330.5300446541437
 21
289.4633926663549
 31
0.0
 11
330.5657091325258
 21
289.4206307135871
 31
0.0
 11
330.6227717237224
 21
289.3636150089096
 31
0.0
 11
330.6513032243974
 21
289.3279800482698
 31
0.0
 11
330.7440307041296
 21
289.2923453199762
 31
0.0
 11
330.7868277500654
 21
289.2773169253153
 31
0.0
  0
LINE
  5
EDE
102
{ACAD_REACTORS
330
EF0
102
}
330
18
100
AcDbEntity
  8
中心線
 48
0.5
100
AcDbLine
 10
332.1614734857488
 20
289.7658868036559
 30
0.0
 11
331.91785676507
 21
289.2773169253153
 31
0.0
  0
LINE
  5
EDF
102
{ACAD_REACTORS
330
EF0
102
}
330
18
100
AcDbEntity
  8
中心線
 48
0.5
100
AcDbLine
 10
331.3217924648767
 20
289.7658868036559
 30
0.0
 11
332.1614734857488
 21
289.7658868036559
 31
0.0
  0
LINE
  5
EE0
102
{ACAD_REACTORS
330
EF0
102
}
330
18
100
AcDbEntity
  8
中心線
 48
0.5
100
AcDbLine
 10
331.5072470141875
 20
290.1018868036559
 30
0.0
 11
332.3290139375387
 21
290.1018868036559
 31
0.0
  0
LINE
  5
EE1
102
{ACAD_REACTORS
330
EF0
102
}
330
18
100
AcDbEntity
  8
中心線
 48
0.5
100
AcDbLine
 10
332.5726332380792
 20
290.5904618558728
 30
0.0
 11
332.3290139375387
 21
290.1018868036559
 31
0.0
  0
LINE
  5
EE2
102
{ACAD_REACTORS
330
EF2
102
}
330
18
100
AcDbEntity
  8
中心線
 48
0.5
100
AcDbLine
 10
332.8476603672014
 20
290.5904618558728
 30
0.0
 11
333.6037441097056
 21
290.5904618558728
 31
0.0
  0
LINE
  5
EE3
102
{ACAD_REACTORS
330
EF2
330
EF1
102
}
330
18
100
AcDbEntity
  8
中心線
 48
0.5
100
AcDbLine
 10
332.8476603672014
 20
290.5904618558728
 30
0.0
 11
331.8245273355315
 21
288.5385830709668
 31
0.0
  0
LINE
  5
EE4
102
{ACAD_REACTORS
330
EF2
102
}
330
18
100
AcDbEntity
  8
中心線
 48
0.5
100
AcDbLine
 10
333.6037441097056
 20
290.5904618558728
 30
0.0
 11
333.4920388027846
 21
290.3664384470512
 31
0.0
  0
LINE
  5
EE5
102
{ACAD_REACTORS
330
EF2
102
}
330
18
100
AcDbEntity
  8
中心線
 48
0.5
100
AcDbLine
 10
333.4920388027846
 20
290.3664384470512
 30
0.0
 11
333.8460518858634
 21
290.5904618558728
 31
0.0
  0
LINE
  5
EE6
102
{ACAD_REACTORS
330
EF2
102
}
330
18
100
AcDbEntity
  8
中心線
 48
0.5
100
AcDbLine
 10
332.8476603672014
 20
289.0741466330863
 30
0.0
 11
333.1147096563671
 21
288.5385830709668
 31
0.0
  0
LINE
  5
EE7
102
{ACAD_REACTORS
330
EF2
102
}
330
18
100
AcDbEntity
  8
中心線
 48
0.5
100
AcDbLine
 10
333.3592103405322
 20
289.5645224634198
 30
0.0
 11
333.8707768563671
 21
288.5385830709668
 31
0.0
  0
LINE
  5
EE8
102
{ACAD_REACTORS
330
EF2
102
}
330
18
100
AcDbEntity
  8
中心線
 48
0.5
100
AcDbLine
 10
332.8476603672014
 20
289.0741466330863
 30
0.0
 11
332.5806110780358
 21
288.5385830709668
 31
0.0
  0
LINE
  5
EE9
102
{ACAD_REACTORS
330
EF2
102
}
330
18
100
AcDbEntity
  8
中心線
 48
0.5
100
AcDbLine
 10
333.3592103405322
 20
289.5645224634198
 30
0.0
 11
334.6021190858634
 21
290.5904618558728
 31
0.0
  0
LINE
  5
EEA
102
{ACAD_REACTORS
330
EF2
102
}
330
18
100
AcDbEntity
  8
中心線
 48
0.5
100
AcDbLine
 10
333.8460518858634
 20
290.5904618558728
 30
0.0
 11
334.6021190858634
 21
290.5904618558728
 31
0.0
  0
LINE
  5
EEB
102
{ACAD_REACTORS
330
EF2
102
}
330
18
100
AcDbEntity
  8
中心線
 48
0.5
100
AcDbLine
 10
333.1147096563671
 20
288.5385830709668
 30
0.0
 11
333.8707768563671
 21
288.5385830709668
 31
0.0
  0
LINE
  5
EEC
102
{ACAD_REACTORS
330
EEE
102
}
330
18
100
AcDbEntity
  8
中心線
 48
0.5
100
AcDbLine
 10
322.2718066572954
 20
290.5904618558728
 30
0.0
 11
324.0478898057793
 21
290.5904618558728
 31
0.0
  0
LINE
  5
EED
102
{ACAD_REACTORS
330
EF1
102
}
330
18
100
AcDbEntity
  8
中心線
 48
0.5
100
AcDbLine
 10
319.7240223554538
 20
288.7442532772581
 30
0.0
 11
331.9270811429177
 21
288.7442532772581
 31
0.0
  0
HATCH
  5
EEE
330
18
100
AcDbEntity
  8
中心線
 48
0.5
100
AcDbHatch
 10
0.0
 20
0.0
 30
0.0
210
0.0
220
0.0
230
1.0
  2
SOLID
 70
     1
 71
     1
 91
        1
 92
        1
 93
       12
 72
     1
 10
322.2718066572954
 20
290.5904618558728
 11
324.0478898057793
 21
290.5904618558728
 72
     1
 10
324.0478898057793
 20
290.5904618558728
 11
323.8990556100447
 21
290.2896595251807
 72
     1
 10
323.8990556100447
 20
290.2896595251807
 11
322.9655911878268
 21
290.2896595251807
 72
     1
 10
322.9655911878268
 20
290.2896595251807
 11
322.8492213417503
 21
290.0544694819966
 72
     1
 10
322.8492213417503
 20
290.0544694819966
 11
323.7826857639682
 21
290.0544694819966
 72
     1
 10
323.7826857639682
 20
290.0544694819966
 11
323.6633593883444
 21
289.8133041253153
 72
     1
 10
323.6633593883444
 20
289.8133041253153
 11
322.7298949661264
 21
289.8133041253153
 72
     1
 10
322.7298949661264
 20
289.8133041253153
 11
322.6135201935101
 21
289.5781041253154
 72
     1
 10
322.6135201935101
 20
289.5781041253154
 11
323.546984615728
 21
289.5781041253154
 72
     1
 10
323.546984615728
 20
289.5781041253154
 11
323.3981579065192
 21
289.2773169253153
 72
     1
 10
323.3981579065192
 20
289.2773169253153
 11
321.6220747580353
 21
289.2773169253153
 72
     1
 10
321.6220747580353
 20
289.2773169253153
 11
322.2718066572954
 21
290.5904618558728
 97
       12
330
EEC
330
EC0
330
EC3
330
EC2
330
EC4
330
EC7
330
EC6
330
EC9
330
EC5
330
EC8
330
EC1
330
EBF
 75
     0
 76
     1
 98
        1
 10
249.6216776785864
 20
199.7923658077615
450
        0
451
        0
460
0.0
461
0.0
452
        0
462
0.0
453
        0
470

  0
HATCH
  5
EEF
330
18
100
AcDbEntity
  8
中心線
 48
0.5
100
AcDbHatch
 10
0.0
 20
0.0
 30
0.0
210
0.0
220
0.0
230
1.0
  2
SOLID
 70
     1
 71
     1
 91
        1
 92
        5
 93
        8
 72
     1
 10
328.0979441666108
 20
290.1018868036559
 11
328.3415634671515
 21
290.5904618558728
 72
     1
 10
328.3415634671515
 20
290.5904618558728
 11
327.0265271250453
 21
290.5904618558728
 72
     4
 94
        3
 73
     0
 74
     0
 95
       26
 96
       22
 40
0.0
 40
0.0
 40
0.0
 40
0.0
 40
0.2382195346591896
 40
0.397689067266058
 40
0.5126795869787669
 40
0.5985392873135731
 40
0.7099038249249733
 40
0.7911890807494741
 40
0.9379713068543702
 40
1.057449928673087
 40
1.138714535893316
 40
1.218398644003506
 40
1.36093802187036
 40
1.461730374800257
 40
1.516014844108008
 40
1.593124329220501
 40
1.648806818593631
 40
1.729472362005518
 40
1.775122082164342
 40
1.874460993765092
 40
1.919820003751207
 40
1.919820003751207
 40
1.919820003751207
 40
1.919820003751207
 10
327.0265271250451
 20
290.5904618558728
 10
326.9456717342865
 20
290.5856378846077
 10
326.8106899202205
 20
290.5775846381109
 10
326.6624807095088
 20
290.4875491342527
 10
326.5538939650985
 20
290.4352064489101
 10
326.4764500306743
 20
290.3640510274906
 10
326.4196833128068
 20
290.2905526749693
 10
326.3481182081092
 20
290.2029799268439
 10
326.2897589102034
 20
290.1010050053793
 10
326.2600400676701
 20
289.9886108643161
 10
326.2337153990164
 20
289.899032081757
 10
326.2141925840435
 20
289.7992082188647
 10
326.2191597408564
 20
289.6913633307423
 10
326.2262729367409
 20
289.5912025197386
 10
326.258031626665
 20
289.5197026968119
 10
326.2941991490549
 20
289.4687997498825
 10
326.3384857849098
 20
289.4127357971839
 10
326.3869450492272
 20
289.3756048228535
 10
326.4270248163378
 20
289.308339567713
 10
326.4971830966003
 20
289.2997560360368
 10
326.5417784906761
 20
289.2826722461598
 10
326.5557579791376
 20
289.2773169253153
 72
     1
 10
326.5557579791374
 20
289.2773169253153
 11
327.6867869941422
 21
289.2773169253153
 72
     1
 10
327.6867869941422
 20
289.2773169253153
 11
327.930403714821
 21
289.7658868036559
 72
     1
 10
327.930403714821
 20
289.7658868036559
 11
327.0907226939489
 21
289.7658868036559
 72
     4
 94
        3
 73
     0
 74
     0
 95
       16
 96
       12
 40
0.0
 40
0.0
 40
0.0
 40
0.0
 40
0.0719416665231651
 40
0.1446253590759065
 40
0.1879779149910977
 40
0.2295440936104405
 40
0.2751936323958134
 40
0.3070718656052443
 40
0.3373215422372259
 40
0.3986635435212919
 40
0.5242542460842631
 40
0.5242542460842631
 40
0.5242542460842631
 40
0.5242542460842631
 10
327.0907226939489
 20
289.7658868036559
 10
327.0653949552772
 20
289.7733385957445
 10
327.0144782407081
 20
289.7883190397438
 10
327.0102169228605
 20
289.8609387288812
 10
327.0160223519222
 20
289.9126861998403
 10
327.0403355017995
 20
289.9503613805565
 10
327.06983156966
 20
289.9777750315919
 10
327.0808142639118
 20
290.0134770257742
 10
327.1130968930358
 20
290.0404364980907
 10
327.1703426444269
 20
290.0857516050664
 10
327.2336465356383
 20
290.095402710352
 10
327.2761772432597
 20
290.1018868036559
 72
     1
 10
327.2761772432596
 20
290.101886803656
 11
328.0979441666108
 21
290.1018868036559
 97
        8
330
ED9
330
ED6
330
ED2
330
ED8
330
ED5
330
ED7
330
ED4
330
ED3
 75
     0
 76
     1
 47
0.0514683685270805
 98
        1
 10
327.4864440222521
 20
290.2981403995259
450
        0
451
        0
460
0.0
461
0.0
452
        0
462
0.0
453
        0
470

  0
HATCH
  5
EF0
330
18
100
AcDbEntity
  8
中心線
 48
0.5
100
AcDbHatch
 10
0.0
 20
0.0
 30
0.0
210
0.0
220
0.0
230
1.0
  2
SOLID
 70
     1
 71
     1
 91
        1
 92
        5
 93
        8
 72
     4
 94
        3
 73
     0
 74
     0
 95
       26
 96
       22
 40
0.0
 40
0.0
 40
0.0
 40
0.0
 40
0.2382195346591896
 40
0.397689067266058
 40
0.5126795869787176
 40
0.5985392873135238
 40
0.7099038249250041
 40
0.7911890807494602
 40
0.9379713068544059
 40
1.057449928673177
 40
1.138714535893296
 40
1.218398644003487
 40
1.36093802187034
 40
1.461730374800238
 40
1.51601484410804
 40
1.593124329220486
 40
1.648806818593696
 40
1.729472362005543
 40
1.775122082164332
 40
1.874460993765135
 40
1.919820003751196
 40
1.919820003751196
 40
1.919820003751196
 40
1.919820003751196
 10
331.257596895973
 20
290.5904618558728
 10
331.1767415052143
 20
290.5856378846077
 10
331.0417596911484
 20
290.577584638111
 10
330.8935504804366
 20
290.4875491342526
 10
330.7849637360264
 20
290.4352064489101
 10
330.7075198016022
 20
290.3640510274906
 10
330.6507530837347
 20
290.2905526749693
 10
330.579187979037
 20
290.2029799268438
 10
330.5208286811311
 20
290.1010050053793
 10
330.4911098385979
 20
289.9886108643159
 10
330.4647851699443
 20
289.8990320817571
 10
330.4452623549713
 20
289.7992082188645
 10
330.4502295117842
 20
289.6913633307424
 10
330.4573427076688
 20
289.5912025197386
 10
330.4891013975927
 20
289.5197026968118
 10
330.5252689199829
 20
289.4687997498826
 10
330.5695555558376
 20
289.4127357971837
 10
330.6180148201552
 20
289.3756048228537
 10
330.6580945872657
 20
289.3083395677129
 10
330.7282528675282
 20
289.2997560360368
 10
330.772848261604
 20
289.2826722461598
 10
330.7868277500654
 20
289.2773169253153
 72
     1
 10
330.7868277500654
 20
289.2773169253153
 11
331.9178567650699
 21
289.2773169253153
 72
     1
 10
331.9178567650699
 20
289.2773169253153
 11
332.1614734857488
 21
289.7658868036559
 72
     1
 10
332.1614734857488
 20
289.7658868036559
 11
331.3217924648767
 21
289.7658868036559
 72
     4
 94
        3
 73
     0
 74
     0
 95
       16
 96
       12
 40
0.0
 40
0.0
 40
0.0
 40
0.0
 40
0.0719416665231652
 40
0.1446253590759511
 40
0.1879779149910863
 40
0.229544093610429
 40
0.2751936323958108
 40
0.3070718656052417
 40
0.3373215422371831
 40
0.3986635435213285
 40
0.5242542460842448
 40
0.5242542460842448
 40
0.5242542460842448
 40
0.5242542460842448
 10
331.3217924648767
 20
289.7658868036558
 10
331.296464726205
 20
289.7733385957445
 10
331.2455480116359
 20
289.7883190397438
 10
331.2412866937883
 20
289.8609387288811
 10
331.2470921228501
 20
289.9126861998403
 10
331.2714052727273
 20
289.9503613805563
 10
331.3009013405879
 20
289.9777750315921
 10
331.3118840348395
 20
290.0134770257741
 10
331.3441666639636
 20
290.0404364980907
 10
331.4014124153547
 20
290.0857516050663
 10
331.4647163065661
 20
290.0954027103519
 10
331.5072470141875
 20
290.1018868036559
 72
     1
 10
331.5072470141876
 20
290.1018868036559
 11
332.3290139375387
 21
290.1018868036559
 72
     1
 10
332.3290139375387
 20
290.1018868036559
 11
332.5726332380792
 21
290.5904618558728
 72
     1
 10
332.5726332380792
 20
290.5904618558728
 11
331.2575968959729
 21
290.5904618558728
 97
        8
330
EDB
330
EDD
330
EDA
330
EDE
330
EDF
330
EDC
330
EE0
330
EE1
 75
     0
 76
     1
 47
0.0514683685270805
 98
        1
 10
331.4845143256578
 20
290.3500205526937
450
        0
451
        0
460
0.0
461
0.0
452
        0
462
0.0
453
        0
470

  0
HATCH
  5
EF1
330
18
100
AcDbEntity
  8
中心線
 48
0.5
100
AcDbHatch
 10
0.0
 20
0.0
 30
0.0
210
0.0
220
0.0
230
1.0
  2
SOLID
 70
     1
 71
     1
 91
        1
 92
        7
 72
     0
 73
     1
 93
        4
 10
319.7382858023705
 20
288.7442532772581
 10
319.6452347669485
 20
288.5385830709668
 10
331.8245273355315
 20
288.5385830709667
 10
331.9270811429177
 20
288.7442532772581
 97
        4
330
EED
330
EBE
330
EB6
330
EE3
 75
     0
 76
     1
 47
0.0514683685270805
 98
        1
 10
327.4345210632587
 20
288.6898568130533
450
        0
451
        0
460
0.0
461
0.0
452
        0
462
0.0
453
        0
470

  0
HATCH
  5
EF2
330
18
100
AcDbEntity
  8
中心線
 48
0.5
100
AcDbHatch
 10
0.0
 20
0.0
 30
0.0
210
0.0
220
0.0
230
1.0
  2
SOLID
 70
     1
 71
     1
 91
        1
 92
        7
 72
     0
 73
     1
 93
       11
 10
331.8245273355315
 20
288.5385830709668
 10
332.5806110780358
 20
288.5385830709668
 10
332.8476603672013
 20
289.0741466330862
 10
333.1147096563671
 20
288.5385830709668
 10
333.870776856367
 20
288.5385830709668
 10
333.3592103405322
 20
289.5645224634198
 10
334.6021190858634
 20
290.5904618558728
 10
333.8460518858635
 20
290.5904618558728
 10
333.4920388027845
 20
290.3664384470511
 10
333.6037441097056
 20
290.5904618558728
 10
332.8476603672014
 20
290.5904618558728
 97
       11
330
EEA
330
EE5
330
EE4
330
EE2
330
EE3
330
EB6
330
EE8
330
EE6
330
EEB
330
EE7
330
EE9
 75
     0
 76
     1
 47
0.0514683685270805
 98
        1
 10
332.7825891207975
 20
289.7101658724313
450
        0
451
        0
460
0.0
461
0.0
452
        0
462
0.0
453
        0
470

  0
HATCH
  5
EF3
330
18
100
AcDbEntity
  8
中心線
 48
0.5
100
AcDbHatch
 10
0.0
 20
0.0
 30
0.0
210
0.0
220
0.0
230
1.0
  2
SOLID
 70
     1
 71
     1
 91
        2
 92
        5
 93
        6
 72
     1
 10
318.691433811012
 20
288.5385830709668
 11
319.6452347669485
 21
288.5385830709667
 72
     1
 10
319.6452347669485
 20
288.5385830709667
 11
319.9794589177769
 21
289.2773169253153
 72
     1
 10
319.9794589177769
 20
289.2773169253153
 11
320.8710671859491
 21
289.2773169253153
 72
     4
 94
        3
 73
     0
 74
     0
 95
       18
 96
       14
 40
0.108740278791501
 40
0.108740278791501
 40
0.108740278791501
 40
0.108740278791501
 40
0.6623149649549278
 40
1.384304701649787
 40
2.097394834876493
 40
2.774073369849618
 40
3.428974823686337
 40
4.005208313035923
 40
4.455173659284313
 40
4.720999734343524
 40
5.086034088486724
 40
5.569973738255373
 40
6.060470601257719
 40
6.060470601257719
 40
6.060470601257719
 40
6.060470601257719
 10
320.8710671859491
 20
289.2773169253153
 10
320.9338171028438
 20
289.2777842049465
 10
321.0784074598973
 20
289.278860925555
 10
321.2806882380046
 20
289.3869237620504
 10
321.4725082110976
 20
289.5245879423921
 10
321.627006150179
 20
289.696584973194
 10
321.7232630210551
 20
289.8932341107147
 10
321.7381729061022
 20
290.0817042462864
 10
321.7290707875913
 20
290.2307817804429
 10
321.6640315790483
 20
290.3346925227457
 10
321.5964153851235
 20
290.4401512999184
 10
321.4724301495763
 20
290.5315036097098
 10
321.3708422017258
 20
290.5715295010251
 10
321.3191826640898
 20
290.5904618558728
 72
     1
 10
321.3191826640899
 20
290.5904618558728
 11
319.7066843511046
 21
290.5904618558728
 72
     1
 10
319.7066843511046
 20
290.5904618558728
 11
318.691433811012
 21
288.5385830709668
 97
        6
330
EB8
330
EB5
330
EB7
330
EB6
330
EBE
330
EB9
 92
       20
 93
        4
 72
     1
 10
320.1858234100871
 20
289.733443259774
 11
320.3438212064445
 21
290.0826649446594
 72
     1
 10
320.3438212064445
 20
290.0826649446594
 11
320.7498082055423
 21
290.0826649446594
 72
     4
 94
        3
 73
     0
 74
     0
 95
       15
 96
       11
 40
0.0
 40
0.0
 40
0.0
 40
0.0
 40
0.1539705029175028
 40
0.2241725832587281
 40
0.3038566179396687
 40
0.3581410872474193
 40
0.443992538467216
 40
0.4954152125469665
 40
0.5836396705646186
 40
0.6130478420065743
 40
0.6130478420065743
 40
0.6130478420065743
 40
0.6130478420065743
 10
320.7498082055419
 20
290.0826649446594
 10
320.8076365406011
 20
290.0829298293018
 10
320.8918314156593
 20
290.0833154867715
 10
320.9378721720238
 20
289.979166182842
 10
320.9172345097903
 20
289.9121102782046
 10
320.8912912863663
 20
289.8432647639568
 10
320.8454437348238
 20
289.7964831986875
 10
320.7839096052288
 20
289.7514246650506
 10
320.725756912173
 20
289.745970127791
 10
320.6879351132004
 20
289.7359486343368
 10
320.6784796589311
 20
289.7334432597741
 72
     1
 10
320.6784796589311
 20
289.7334432597741
 11
320.1858234100871
 21
289.733443259774
 97
        4
330
EBA
330
EBC
330
EBB
330
EBD
 75
     0
 76
     1
 47
0.0514683685270805
 98
        2
 10
319.7153029044116
 20
289.9522730989838
 10
319.7153029044116
 20
289.9522730989838
450
        0
451
        0
460
0.0
461
0.0
452
        0
462
0.0
453
        0
470

  0
LINE
  5
EF4
102
{ACAD_REACTORS
330
EF7
102
}
330
18
100
AcDbEntity
  8
中心線
 48
0.5
100
AcDbLine
 10
325.6127875537484
 20
290.5904618558728
 30
0.0
 11
326.1961385641317
 21
289.2773169253153
 31
0.0
  0
LINE
  5
EF5
102
{ACAD_REACTORS
330
EF7
102
}
330
18
100
AcDbEntity
  8
中心線
 48
0.5
100
AcDbLine
 10
325.0365119276087
 20
290.239452878921
 30
0.0
 11
325.2357193133341
 21
289.7910296071021
 31
0.0
  0
LINE
  5
EF6
102
{ACAD_REACTORS
330
EF7
102
}
330
18
100
AcDbEntity
  8
中心線
 48
0.5
100
AcDbLine
 10
325.3528644189347
 20
289.5273315954061
 30
0.0
 11
325.4639308420036
 21
289.2773169253153
 31
0.0
  0
HATCH
  5
EF7
330
18
100
AcDbEntity
  8
中心線
 48
0.5
100
AcDbHatch
 10
0.0
 20
0.0
 30
0.0
210
0.0
220
0.0
230
1.0
  2
SOLID
 70
     1
 71
     1
 91
        2
 92
        7
 72
     0
 73
     1
 93
        8
 10
325.6127875537484
 20
290.5904618558728
 10
324.5623840709769
 20
290.5904618558727
 10
323.6154497408779
 20
289.2773169253152
 10
324.3426969925695
 20
289.2773169253153
 10
324.5229874301504
 20
289.5273315954061
 10
325.3528644189346
 20
289.5273315954061
 10
325.4639308420036
 20
289.2773169253153
 10
326.1961385641317
 20
289.2773169253153
 97
        8
330
ED0
330
ECA
330
ECF
330
ECE
330
ECC
330
EF6
330
ED1
330
EF4
 92
       22
 72
     0
 73
     1
 93
        3
 10
325.2357193133341
 20
289.7910296071022
 10
324.7131451912955
 20
289.7910296071022
 10
325.0365119276087
 20
290.2394528789212
 97
        3
330
ECD
330
ECB
330
EF5
 75
     0
 76
     1
 47
0.0128389261915577
 98
        2
 10
325.5305326612527
 20
290.2754199390638
 10
325.5305326612527
 20
290.2754199390638
450
        0
451
        0
460
0.0
461
0.0
452
        0
462
0.0
453
        0
470

  0
SPLINE
  5
EF8
102
{ACAD_REACTORS
330
EFF
102
}
330
18
100
AcDbEntity
  8
中心線
 48
0.5
100
AcDbSpline
210
0.0
220
0.0
230
1.0
 70
     8
 71
     3
 72
    38
 73
    34
 74
    32
 42
0.0000000001
 43
0.0000000001
 44
0.0000000001
 40
0.0
 40
0.0
 40
0.0
 40
0.0
 40
0.1807680148264315
 40
0.2375392910068956
 40
0.3104865209606157
 40
0.3712759982447458
 40
0.422566754387306
 40
0.490692583720658
 40
0.5255021974951946
 40
0.5647069597052371
 40
0.622487401681883
 40
0.6879401044674746
 40
0.7303986317551266
 40
0.7765228362185534
 40
0.8277951442290254
 40
0.9056034697002209
 40
0.9795294930264187
 40
1.013897332332996
 40
1.053089255536027
 40
1.099518741889647
 40
1.132570569820733
 40
1.160277520290299
 40
1.19983678629386
 40
1.243305643169139
 40
1.286774258016964
 40
1.324809356515675
 40
1.411916492917645
 40
1.446284332224223
 40
1.5150200516612
 40
1.575779369908399
 40
1.69209852953623
 40
1.835624328519098
 40
2.042896467983898
 40
2.042896467983898
 40
2.042896467983898
 40
2.042896467983898
 10
329.0707887871942
 20
290.5959390750451
 30
0.0
 10
329.0105333895685
 20
290.5916824559442
 30
0.0
 10
328.9313544239474
 20
290.586089020157
 30
0.0
 10
328.8308156514378
 20
290.5585443939521
 30
0.0
 10
328.7760108969967
 20
290.5257298744942
 30
0.0
 10
328.7189755956796
 20
290.5016096297937
 30
0.0
 10
328.6703476892945
 20
290.4658923305444
 30
0.0
 10
328.6211615885987
 20
290.4474875503511
 30
0.0
 10
328.5867199752229
 20
290.4143004419785
 30
0.0
 10
328.5468566170899
 20
290.3940283238035
 30
0.0
 10
328.5151127172546
 20
290.3486534297891
 30
0.0
 10
328.479632040723
 20
290.3062295481307
 30
0.0
 10
328.4384699923157
 20
290.2752620065531
 30
0.0
 10
328.4046877467564
 20
290.2427370275908
 30
0.0
 10
328.3736972338319
 20
290.1925412124068
 30
0.0
 10
328.355355661261
 20
290.1258458377213
 30
0.0
 10
328.3036538468516
 20
290.0837367834362
 30
0.0
 10
328.2958691723685
 20
290.03310913576
 30
0.0
 10
328.2672713221728
 20
290.0032396755693
 30
0.0
 10
328.2548359767169
 20
289.9646824935844
 30
0.0
 10
328.2500999985931
 20
289.9293573042635
 30
0.0
 10
328.2444156955506
 20
289.8963660228353
 30
0.0
 10
328.2295466353181
 20
289.8616606520975
 30
0.0
 10
328.2343999478795
 20
289.8187903731625
 30
0.0
 10
328.2330173848373
 20
289.7772776591359
 30
0.0
 10
328.2338310248106
 20
289.7212342025246
 30
0.0
 10
328.2308944854646
 20
289.6666690056051
 30
0.0
 10
328.2543122359796
 20
289.6072891294366
 30
0.0
 10
328.2681700835825
 20
289.5543601847701
 30
0.0
 10
328.3061220535261
 20
289.4810736425186
 30
0.0
 10
328.371588406344
 20
289.3965168188097
 30
0.0
 10
328.4960781523615
 20
289.2938808555168
 30
0.0
 10
328.6157786829208
 20
289.2834689147996
 30
0.0
 10
328.686504825651
 20
289.2773169253153
 30
0.0
 11
329.0707887871942
 21
290.5959390750451
 31
0.0
 11
328.8913321502469
 21
290.5742045255937
 31
0.0
 11
328.8369513641187
 21
290.5579039765464
 31
0.0
 11
328.7716946771107
 21
290.5253023943968
 31
0.0
 11
328.7173138909825
 21
290.4981345706237
 31
0.0
 11
328.6738094329773
 21
290.4709665048232
 31
0.0
 11
328.6139906964092
 21
290.4383651647011
 31
0.0
 11
328.5868000897235
 21
290.4166308572772
 31
0.0
 11
328.554171532598
 21
290.3948963078258
 31
0.0
 11
328.5161050250327
 21
290.3514276929779
 31
0.0
 11
328.4726005670273
 21
290.302525561781
 31
0.0
 11
328.4399720099017
 21
290.2753574959805
 31
0.0
 11
328.4073438800193
 21
290.2427561558584
 31
0.0
 11
328.3801532733337
 21
290.1992875410106
 31
0.0
 11
328.3475251434513
 21
290.1286508603623
 31
0.0
 11
328.3040202582029
 21
290.0688814544396
 31
0.0
 11
328.2931443573231
 21
290.03627987229
 31
0.0
 11
328.2713921283204
 21
290.0036785321678
 31
0.0
 11
328.2550778497577
 21
289.9602096752925
 31
0.0
 11
328.2496394720747
 21
289.9276083351704
 31
0.0
 11
328.2442015216348
 21
289.9004402693699
 31
0.0
 11
328.233325620755
 21
289.8624054128987
 31
0.0
 11
328.233325620755
 21
289.8189365560233
 31
0.0
 11
328.233325620755
 21
289.7754679411755
 31
0.0
 11
328.233325620755
 21
289.7374328426768
 31
0.0
 11
328.238763571195
 21
289.6504956129811
 31
0.0
 11
328.2496394720747
 21
289.6178940308315
 31
0.0
 11
328.2713921283204
 21
289.5526911085598
 31
0.0
 11
328.298582307763
 21
289.4983552189863
 31
0.0
 11
328.3692773724539
 21
289.4059844729414
 31
0.0
 11
328.4834768951502
 21
289.3190470012184
 31
0.0
 11
328.686504825651
 21
289.2773169253153
 31
0.0
  0
SPLINE
  5
EF9
102
{ACAD_REACTORS
330
EFF
102
}
330
18
100
AcDbEntity
  8
中心線
 48
0.5
100
AcDbSpline
210
0.0
220
0.0
230
1.0
 70
     8
 71
     3
 72
    25
 73
    21
 74
     0
 42
0.0000000001
 43
0.0000000001
 40
0.0
 40
0.0
 40
0.0
 40
0.0
 40
0.4087168505087288
 40
0.6887487002771746
 40
0.9415836120477687
 40
1.17452070575514
 40
1.41154617586699
 40
1.599156012919487
 40
1.80099909059943
 40
2.178735911501585
 40
2.521686161369157
 40
2.762704659361267
 40
3.06256558063785
 40
3.222432137207705
 40
3.399493810628493
 40
3.567459719866414
 40
3.743172740007509
 40
3.995988754699505
 40
4.17170091132118
 40
4.337226830236035
 40
4.337226830236035
 40
4.337226830236035
 40
4.337226830236035
 10
329.8212426103795
 20
290.5959390750451
 30
0.0
 10
329.8704626608051
 20
290.594357685589
 30
0.0
 10
329.9534057685236
 20
290.591692809083
 30
0.0
 10
330.0424554271447
 20
290.5220901197075
 30
0.0
 10
330.1105936479041
 20
290.4643841573925
 30
0.0
 10
330.1589590027647
 20
290.3946203510583
 30
0.0
 10
330.2013525914071
 20
290.3304762473812
 30
0.0
 10
330.2292867521763
 20
290.2627548327151
 30
0.0
 10
330.267282729851
 20
290.1814953371782
 30
0.0
 10
330.2830111874983
 20
290.0727822047472
 30
0.0
 10
330.2723847441616
 20
289.9604171517016
 30
0.0
 10
330.2446546886641
 20
289.8608158679981
 30
0.0
 10
330.2155680899641
 20
289.784404102854
 30
0.0
 10
330.1812860710468
 20
289.7178829208634
 30
0.0
 10
330.1404175237427
 20
289.6748104503643
 30
0.0
 10
330.1120645682037
 20
289.6200442240168
 30
0.0
 10
330.0576021674864
 20
289.5752483911434
 30
0.0
 10
330.0134520076798
 20
289.5199766206894
 30
0.0
 10
329.9633507710401
 20
289.4725362723508
 30
0.0
 10
329.9351034717362
 20
289.4432661491291
 30
0.0
 10
329.9202108143425
 20
289.4309594051835
 30
0.0
  0
LINE
  5
EFA
102
{ACAD_REACTORS
330
EFF
102
}
330
18
100
AcDbEntity
  8
中心線
 48
0.5
100
AcDbLine
 10
329.0707887871942
 20
290.5959390750451
 30
0.0
 11
329.8212426103795
 21
290.5959390750451
 31
0.0
  0
LINE
  5
EFB
102
{ACAD_REACTORS
330
EFF
102
}
330
18
100
AcDbEntity
  8
中心線
 48
0.5
100
AcDbLine
 10
328.686504825651
 20
289.2773169253153
 30
0.0
 11
329.4369586488364
 21
289.2773169253153
 31
0.0
  0
SPLINE
  5
EFC
102
{ACAD_REACTORS
330
EFF
102
}
330
18
100
AcDbEntity
  8
中心線
 48
0.5
100
AcDbSpline
210
0.0
220
0.0
230
1.0
 70
     8
 71
     3
 72
    11
 73
     7
 74
     0
 42
0.0000000001
 43
0.0000000001
 40
0.1647869275458134
 40
0.1647869275458134
 40
0.1647869275458134
 40
0.1647869275458134
 40
0.2895635144633836
 40
0.5387013147903714
 40
0.7953622617455423
 40
0.8850764140209602
 40
0.8850764140209602
 40
0.8850764140209602
 40
0.8850764140209602
 10
329.6869761074544
 20
289.3065933722239
 30
0.0
 10
329.6729975646536
 20
289.3027024395074
 30
0.0
 10
329.6296565532193
 20
289.2957748497235
 30
0.0
 10
329.5569577860812
 20
289.2862624553501
 30
0.0
 10
329.4878612439849
 20
289.2763359247656
 30
0.0
 10
329.4474305491563
 20
289.2771151096723
 30
0.0
 10
329.4369586488364
 20
289.2773169253153
 30
0.0
  0
SPLINE
  5
EFD
102
{ACAD_REACTORS
330
EFF
102
}
330
18
100
AcDbEntity
  8
中心線
 48
0.5
100
AcDbSpline
210
0.0
220
0.0
230
1.0
 70
     8
 71
     3
 72
     9
 73
     5
 74
     3
 42
0.0000000001
 43
0.0000000001
 44
0.0000000001
 40
0.0
 40
0.0
 40
0.0
 40
0.0
 40
0.1135793343552172
 40
0.2662938392177403
 40
0.2662938392177403
 40
0.2662938392177403
 40
0.2662938392177403
 10
329.6869761074544
 20
289.3065933722239
 30
0.0
 10
329.7234610757724
 20
289.3177557119471
 30
0.0
 10
329.8090023614498
 20
289.343926514201
 30
0.0
 10
329.8796790586866
 20
289.3992388319755
 30
0.0
 10
329.9202108143425
 20
289.4309594051835
 30
0.0
 11
329.6869761074544
 21
289.3065933722239
 31
0.0
 11
329.793726871679
 21
289.3453817664936
 31
0.0
 11
329.9202108143425
 21
289.4309594051835
 31
0.0
  0
ELLIPSE
  5
EFE
102
{ACAD_REACTORS
330
EFF
102
}
330
18
100
AcDbEntity
  8
中心線
 48
0.5
100
AcDbEllipse
 10
329.2432471818249
 20
289.9182430828261
 30
0.0
 11
0.1782847090673272
 21
0.1567790921840611
 31
0.0
210
0.0
220
0.0
230
1.0
 40
0.6788083417438792
 41
0.0
 42
6.283185307179586
  0
HATCH
  5
EFF
330
18
100
AcDbEntity
  8
中心線
 48
0.5
100
AcDbHatch
 10
0.0
 20
0.0
 30
0.0
210
0.0
220
0.0
230
1.0
  2
SOLID
 70
     1
 71
     1
 91
        2
 92
        5
 93
        6
 72
     4
 94
        3
 73
     0
 74
     0
 95
       38
 96
       34
 40
0.0
 40
0.0
 40
0.0
 40
0.0
 40
0.1807680148264315
 40
0.2375392910068956
 40
0.3104865209606157
 40
0.3712759982447458
 40
0.422566754387306
 40
0.490692583720658
 40
0.5255021974951946
 40
0.5647069597052371
 40
0.622487401681883
 40
0.6879401044674746
 40
0.7303986317551266
 40
0.7765228362185534
 40
0.8277951442290254
 40
0.9056034697002209
 40
0.9795294930264187
 40
1.013897332332996
 40
1.053089255536027
 40
1.099518741889647
 40
1.132570569820733
 40
1.160277520290299
 40
1.19983678629386
 40
1.243305643169139
 40
1.286774258016964
 40
1.324809356515675
 40
1.411916492917645
 40
1.446284332224223
 40
1.5150200516612
 40
1.575779369908399
 40
1.69209852953623
 40
1.835624328519098
 40
2.042896467983898
 40
2.042896467983898
 40
2.042896467983898
 40
2.042896467983898
 10
329.0707887871942
 20
290.5959390750451
 10
329.0105333895684
 20
290.5916824559442
 10
328.9313544239472
 20
290.586089020157
 10
328.8308156514379
 20
290.5585443939521
 10
328.7760108969967
 20
290.5257298744942
 10
328.7189755956797
 20
290.5016096297937
 10
328.6703476892944
 20
290.4658923305444
 10
328.6211615885987
 20
290.447487550351
 10
328.5867199752229
 20
290.4143004419785
 10
328.5468566170899
 20
290.3940283238034
 10
328.5151127172546
 20
290.3486534297891
 10
328.4796320407229
 20
290.3062295481307
 10
328.4384699923158
 20
290.2752620065532
 10
328.4046877467563
 20
290.2427370275908
 10
328.3736972338321
 20
290.1925412124069
 10
328.355355661261
 20
290.1258458377213
 10
328.3036538468516
 20
290.0837367834362
 10
328.2958691723685
 20
290.03310913576
 10
328.2672713221728
 20
290.0032396755693
 10
328.2548359767169
 20
289.9646824935843
 10
328.2500999985931
 20
289.9293573042636
 10
328.2444156955506
 20
289.8963660228353
 10
328.2295466353181
 20
289.8616606520975
 10
328.2343999478795
 20
289.8187903731624
 10
328.2330173848373
 20
289.777277659136
 10
328.2338310248106
 20
289.7212342025245
 10
328.2308944854646
 20
289.6666690056049
 10
328.2543122359796
 20
289.6072891294366
 10
328.2681700835825
 20
289.5543601847701
 10
328.3061220535261
 20
289.4810736425186
 10
328.371588406344
 20
289.3965168188096
 10
328.4960781523615
 20
289.293880855517
 10
328.6157786829208
 20
289.2834689147997
 10
328.686504825651
 20
289.2773169253153
 72
     1
 10
328.686504825651
 20
289.2773169253152
 11
329.4369586488368
 21
289.2773169253153
 72
     4
 94
        3
 73
     0
 74
     0
 95
       11
 96
        7
 40
0.1647869275458135
 40
0.1647869275458135
 40
0.1647869275458135
 40
0.1647869275458135
 40
0.2545010798212315
 40
0.5111620267764023
 40
0.7602998271033902
 40
0.8850764140209603
 40
0.8850764140209603
 40
0.8850764140209603
 40
0.8850764140209603
 10
329.4369586488364
 20
289.2773169253153
 10
329.4474305491563
 20
289.2771151096723
 10
329.4878612439849
 20
289.2763359247656
 10
329.5569577860812
 20
289.2862624553501
 10
329.6296565532193
 20
289.2957748497235
 10
329.6729975646536
 20
289.3027024395074
 10
329.6869761074544
 20
289.3065933722239
 72
     4
 94
        3
 73
     0
 74
     0
 95
        9
 96
        5
 40
0.0
 40
0.0
 40
0.0
 40
0.0
 40
0.1135793343552172
 40
0.2662938392177403
 40
0.2662938392177403
 40
0.2662938392177403
 40
0.2662938392177403
 10
329.6869761074544
 20
289.3065933722239
 10
329.7234610757724
 20
289.3177557119471
 10
329.8090023614498
 20
289.343926514201
 10
329.8796790586865
 20
289.3992388319754
 10
329.9202108143425
 20
289.4309594051835
 72
     4
 94
        3
 73
     0
 74
     0
 95
       25
 96
       21
 40
0.0
 40
0.0
 40
0.0
 40
0.0
 40
0.165525918914855
 40
0.3412380755365305
 40
0.5940540902285263
 40
0.7697671103696209
 40
0.9377330196075423
 40
1.11479469302833
 40
1.274661249598185
 40
1.574522170874768
 40
1.815540668866877
 40
2.15849091873445
 40
2.536227739636605
 40
2.738070817316548
 40
2.925680654369045
 40
3.162706124480894
 40
3.395643218188267
 40
3.648478129958861
 40
3.928509979727306
 40
4.337226830236035
 40
4.337226830236035
 40
4.337226830236035
 40
4.337226830236035
 10
329.9202108143425
 20
289.4309594051835
 10
329.9351034717362
 20
289.4432661491291
 10
329.9633507710401
 20
289.4725362723508
 10
330.0134520076798
 20
289.5199766206894
 10
330.0576021674864
 20
289.5752483911434
 10
330.1120645682037
 20
289.6200442240168
 10
330.1404175237427
 20
289.6748104503643
 10
330.1812860710468
 20
289.7178829208634
 10
330.2155680899641
 20
289.784404102854
 10
330.2446546886641
 20
289.8608158679981
 10
330.2723847441616
 20
289.9604171517016
 10
330.2830111874983
 20
290.0727822047472
 10
330.267282729851
 20
290.1814953371782
 10
330.2292867521763
 20
290.2627548327151
 10
330.2013525914071
 20
290.3304762473812
 10
330.1589590027647
 20
290.3946203510583
 10
330.1105936479041
 20
290.4643841573925
 10
330.0424554271447
 20
290.5220901197075
 10
329.9534057685236
 20
290.591692809083
 10
329.8704626608051
 20
290.594357685589
 10
329.8212426103795
 20
290.5959390750451
 72
     1
 10
329.8212426103794
 20
290.5959390750451
 11
329.070788787194
 21
290.5959390750451
 97
        6
330
EF9
330
EFA
330
EF8
330
EFB
330
EFC
330
EFD
 92
       20
 93
        1
 72
     3
 10
329.2432471818249
 20
289.9182430828261
 11
0.1782847090673272
 21
0.1567790921840611
 40
0.678808341743879
 50
0.0
 51
360.0
 73
     1
 97
        1
330
EFE
 75
     0
 76
     1
 47
0.088756267210375
 98
        2
 10
329.2956784575935
 20
290.2317303531501
 10
329.2956784575935
 20
290.2317303531501
450
        0
451
        0
460
0.0
461
0.0
452
        0
462
0.0
453
        0
470

  0
TEXT
  5
F31
330
18
100
AcDbEntity
  8
文字
100
AcDbText
 10
321.7146348068656
 20
334.7838084400735
 30
0.0
 40
2.5
  1
φ
  7
STYLE3
100
AcDbText
  0
LINE
  5
F32
330
18
100
AcDbEntity
  8
0
  6
ByBlock
 62
     2
100
AcDbLine
 10
420.5079468550697
 20
305.7254952147663
 30
0.0
 11
455.7845638697827
 21
305.7254952147663
 31
0.0
  0
LINE
  5
F33
330
18
100
AcDbEntity
  8
0
  6
ByBlock
 62
     2
100
AcDbLine
 10
420.5079468550697
 20
256.7254952147662
 30
0.0
 11
455.7845638697827
 21
256.7254952147663
 31
0.0
  0
LINE
  5
F34
330
18
100
AcDbEntity
  8
0
  6
ByBlock
 62
     2
100
AcDbLine
 10
454.5345638697827
 20
303.2254952147663
 30
0.0
 11
454.5345638697827
 21
259.2254952147663
 31
0.0
  0
INSERT
  5
F35
330
18
100
AcDbEntity
  8
0
  6
ByBlock
 62
     2
100
AcDbBlockReference
  2
_OPEN
 10
454.5345638697827
 20
305.7254952147663
 30
0.0
 41
2.5
 42
2.5
 43
2.5
 50
90.0
  0
INSERT
  5
F36
330
18
100
AcDbEntity
  8
0
  6
ByBlock
 62
     2
100
AcDbBlockReference
  2
_OPEN
 10
454.5345638697827
 20
256.7254952147663
 30
0.0
 41
2.5
 42
2.5
 43
2.5
 50
270.0
  0
MTEXT
  5
F37
330
18
100
AcDbEntity
  8
0
  6
ByBlock
 62
     6
100
AcDbMText
 10
452.5397204333327
 20
281.2254952147663
 30
0.0
 40
2.5
 41
0.0
 71
     5
 72
     1
  1
\A1;49
  7
STYLE3
 11
0.0000000000000001
 21
1.0
 31
0.0
 73
     1
 44
1.0
  0
POINT
  5
F3A
330
18
100
AcDbEntity
  8
DEFPOINTS
  6
ByBlock
 62
     0
100
AcDbPoint
 10
454.5345638697827
 20
256.7254952147663
 30
0.0
  0
ARC
  5
F7B
330
18
100
AcDbEntity
  8
外形線
100
AcDbCircle
 10
434.0079468550697
 20
281.2254952147663
 30
0.0
 40
8.0
100
AcDbArc
 50
270.0
 51
90.0
  0
CIRCLE
  5
F7C
330
18
100
AcDbEntity
  8
外形線
100
AcDbCircle
 10
434.0079468550697
 20
281.2254952147663
 30
0.0
 40
3.25
  0
ARC
  5
F7D
330
18
100
AcDbEntity
  8
外形線
100
AcDbCircle
 10
434.0079468550697
 20
281.2254952147663
 30
0.0
 40
7.5
100
AcDbArc
 50
270.0
 51
90.0
  0
LINE
  5
F7E
330
18
100
AcDbEntity
  8
外形線
100
AcDbLine
 10
434.0079468550697
 20
289.2254952147663
 30
0.0
 11
424.1767319557826
 21
289.2254952147663
 31
0.0
  0
LINE
  5
F7F
330
18
100
AcDbEntity
  8
外形線
100
AcDbLine
 10
434.0079468550697
 20
273.2254952147663
 30
0.0
 11
424.1767319557826
 21
273.2254952147663
 31
0.0
  0
LINE
  5
F8E
330
18
100
AcDbEntity
  8
外形線
100
AcDbLine
 10
420.5079468550697
 20
304.3254952147663
 30
0.0
 11
420.7079468550697
 21
304.3254952147662
 31
0.0
  0
LINE
  5
F8F
330
18
100
AcDbEntity
  8
外形線
100
AcDbLine
 10
420.5079468550697
 20
258.1254952147663
 30
0.0
 11
420.7079468550697
 21
258.1254952147663
 31
0.0
  0
ARC
  5
F90
330
18
100
AcDbEntity
  8
外形線
100
AcDbCircle
 10
434.0079468550697
 20
281.2254952147663
 30
0.0
 40
8.0
100
AcDbArc
 50
270.0
 51
90.0
  0
LINE
  5
F96
330
18
100
AcDbEntity
  8
外形線
100
AcDbLine
 10
434.0079468550697
 20
288.7254952147663
 30
0.0
 11
423.0079468550697
 21
288.7254952147663
 31
0.0
  0
LINE
  5
F97
330
18
100
AcDbEntity
  8
外形線
100
AcDbLine
 10
434.0079468550697
 20
273.7254952147663
 30
0.0
 11
423.0079468550697
 21
273.7254952147663
 31
0.0
  0
LINE
  5
F9A
330
18
100
AcDbEntity
  8
中心線
 48
0.5
100
AcDbLine
 10
434.0079468550697
 20
293.160463470344
 30
0.0
 11
434.0079468550699
 21
247.1802627051118
 31
0.0
  0
LINE
  5
FA4
330
18
100
AcDbEntity
  8
想像線
 48
0.5
100
AcDbLine
 10
429.5079468550697
 20
273.2254952147663
 30
0.0
 11
429.5079468550697
 21
289.2254952147663
 31
0.0
  0
LINE
  5
FA5
330
18
100
AcDbEntity
  8
想像線
 48
0.5
100
AcDbLine
 10
424.5079468550697
 20
273.2239094713134
 30
0.0
 11
424.5079468550697
 21
289.2270809582192
 31
0.0
  0
LINE
  5
FD6
330
18
100
AcDbEntity
  8
0
  6
ByBlock
 62
     2
100
AcDbLine
 10
416.5079468550698
 20
248.4302627051118
 30
0.0
 11
431.5079468550697
 21
248.4302627051118
 31
0.0
  0
INSERT
  5
FD7
330
18
100
AcDbEntity
  8
0
  6
ByBlock
 62
     2
100
AcDbBlockReference
  2
_OPEN
 10
414.0079468550697
 20
248.4302627051118
 30
0.0
 41
2.5
 42
2.5
 43
2.5
 50
180.0
  0
INSERT
  5
FD8
330
18
100
AcDbEntity
  8
0
  6
ByBlock
 62
     2
100
AcDbBlockReference
  2
_OPEN
 10
434.0079468550697
 20
248.4302627051118
 30
0.0
 41
2.5
 42
2.5
 43
2.5
  0
MTEXT
  5
FD9
330
18
100
AcDbEntity
  8
0
  6
ByBlock
 62
     6
100
AcDbMText
 10
424.0079468550698
 20
250.3052627051118
 30
0.0
 40
2.5
 41
0.0
 71
     5
 72
     1
  1
\A1;20
  7
STYLE3
 73
     1
 44
1.0
  0
POINT
  5
FDC
330
18
100
AcDbEntity
  8
DEFPOINTS
  6
ByBlock
 62
     0
100
AcDbPoint
 10
434.0079468550697
 20
248.4302627051118
 30
0.0
  0
LINE
  5
FDD
330
18
100
AcDbEntity
  8
0
  6
ByBlock
 62
     2
100
AcDbLine
 10
423.0079468550697
 20
288.7254952147663
 30
0.0
 11
423.0079468550697
 21
260.1910496994125
 31
0.0
  0
LINE
  5
FDF
330
18
100
AcDbEntity
  8
0
  6
ByBlock
 62
     2
100
AcDbLine
 10
425.5079468550697
 20
261.4410496994125
 30
0.0
 11
431.5079468550697
 21
261.4410496994125
 31
0.0
  0
INSERT
  5
FE0
330
18
100
AcDbEntity
  8
0
  6
ByBlock
 62
     2
100
AcDbBlockReference
  2
_OPEN
 10
423.0079468550697
 20
261.4410496994125
 30
0.0
 41
2.5
 42
2.5
 43
2.5
 50
180.0
  0
INSERT
  5
FE1
330
18
100
AcDbEntity
  8
0
  6
ByBlock
 62
     2
100
AcDbBlockReference
  2
_OPEN
 10
434.0079468550697
 20
261.4410496994125
 30
0.0
 41
2.5
 42
2.5
 43
2.5
  0
MTEXT
  5
FE2
330
18
100
AcDbEntity
  8
0
  6
ByBlock
 62
     6
100
AcDbMText
 10
428.5079468550697
 20
263.3160496994125
 30
0.0
 40
2.5
 41
0.0
 71
     5
 72
     1
  1
\A1;11
  7
STYLE3
 73
     1
 44
1.0
  0
POINT
  5
FE3
330
18
100
AcDbEntity
  8
DEFPOINTS
  6
ByBlock
 62
     0
100
AcDbPoint
 10
423.0079468550697
 20
288.7254952147663
 30
0.0
  0
ARC
  5
1008
330
18
100
AcDbEntity
  8
外形線
100
AcDbCircle
 10
273.3829468550664
 20
281.2254952147662
 30
0.0
 40
149.1250000000032
100
AcDbArc
 50
351.0887943333476
 51
356.2059438278885
  0
ARC
  5
100B
330
18
100
AcDbEntity
  8
外形線
100
AcDbCircle
 10
273.3829468550664
 20
281.2254952147662
 30
0.0
 40
149.1250000000032
100
AcDbArc
 50
3.794056172111559
 51
8.911205666652444
  0
ARC
  5
100C
330
18
100
AcDbEntity
  8
外形線
100
AcDbCircle
 10
424.1767319557826
 20
291.2254952147663
 30
0.0
 40
2.0
100
AcDbArc
 50
183.7940561721114
 51
270.0
  0
ARC
  5
100D
330
18
100
AcDbEntity
  8
外形線
100
AcDbCircle
 10
424.1767319557826
 20
271.2254952147663
 30
0.0
 40
2.0
100
AcDbArc
 50
90.0
 51
176.2059438278884
  0
ARC
  5
100F
330
18
100
AcDbEntity
  8
外形線
100
AcDbCircle
 10
273.3829468550654
 20
281.2254952147663
 30
0.0
 40
149.1250000000042
100
AcDbArc
 50
356.2059438278885
 51
3.794056172111511
  0
TEXT
  5
10AC
330
18
100
AcDbEntity
  8
文字
100
AcDbText
 10
320.0959039645625
 20
286.6221705506215
 30
0.0
 40
1.0
  1
MADE  IN  JAPAN
  7
STYLE3
100
AcDbText
  0
TEXT
  5
10AD
330
18
100
AcDbEntity
  8
文字
100
AcDbText
 10
323.7209378323774
 20
284.5274884363345
 30
0.0
 40
1.0
  1
NO.107
  7
STYLE3
100
AcDbText
  0
TEXT
  5
10B0
330
18
100
AcDbEntity
  8
文字
100
AcDbText
 10
330.6284049105818
 20
266.8738249781605
 30
0.0
 40
1.0
  1
S
 50
16.39944465498526
  7
STYLE3
100
AcDbText
  0
TEXT
  5
10B1
330
18
100
AcDbEntity
  8
文字
100
AcDbText
 10
331.4560158263563
 20
267.1891518110257
 30
0.0
 40
1.0
  1
H
 50
17.98926626832552
  7
STYLE3
100
AcDbText
  0
TEXT
  5
10B2
330
18
100
AcDbEntity
  8
文字
100
AcDbText
 10
332.3372022792465
 20
267.5664434831101
 30
0.0
 40
1.0
  1
O
 50
18.16037479932605
  7
STYLE3
100
AcDbText
  0
TEXT
  5
10B3
330
18
100
AcDbEntity
  8
文字
100
AcDbText
 10
333.2664937332243
 20
268.0296491365127
 30
0.0
 40
1.0
  1
C
 50
22.08665243367003
  7
STYLE3
100
AcDbText
  0
TEXT
  5
10B4
330
18
100
AcDbEntity
  8
文字
100
AcDbText
 10
334.2027394418017
 20
268.4852690282162
 30
0.0
 40
1.0
  1
K
 50
27.54483122969781
  7
STYLE3
100
AcDbText
  0
TEXT
  5
10B5
330
18
100
AcDbEntity
  8
文字
100
AcDbText
 10
335.5605262190497
 20
269.4540032494534
 30
0.0
 40
1.0
  1
P
 50
39.63997745584267
  7
STYLE3
100
AcDbText
  0
TEXT
  5
10B6
330
18
100
AcDbEntity
  8
文字
100
AcDbText
 10
336.2800689249294
 20
270.1472196990273
 30
0.0
 40
1.0
  1
R
 50
42.46143137675836
  7
STYLE3
100
AcDbText
  0
TEXT
  5
10B7
330
18
100
AcDbEntity
  8
文字
100
AcDbText
 10
337.0312032231341
 20
270.8688031563525
 30
0.0
 40
1.0
  1
O
 50
44.1372220943741
  7
STYLE3
100
AcDbText
  0
TEXT
  5
10B8
330
18
100
AcDbEntity
  8
文字
100
AcDbText
 10
337.7819909145801
 20
271.6891692428279
 30
0.0
 40
1.0
  1
O
 50
44.04900242382645
  7
STYLE3
100
AcDbText
  0
TEXT
  5
10B9
330
18
100
AcDbEntity
  8
文字
100
AcDbText
 10
338.5719312593425
 20
272.495501311686
 30
0.0
 40
1.0
  1
F
 50
51.69099391972214
  7
STYLE3
100
AcDbText
  0
LINE
  5
10CA
330
18
100
AcDbEntity
  8
0
  6
ByBlock
 62
     2
100
AcDbLine
 10
420.5079468550697
 20
305.7254952147663
 30
0.0
 11
420.5079468550697
 21
334.2443007435194
 31
0.0
  0
LINE
  5
10CB
330
18
100
AcDbEntity
  8
0
  6
ByBlock
 62
     2
100
AcDbLine
 10
416.5079468550697
 20
332.9943007435194
 30
0.0
 11
418.0079468550697
 21
332.9943007435194
 31
0.0
  0
INSERT
  5
10CC
330
18
100
AcDbEntity
  8
0
  6
ByBlock
 62
     2
100
AcDbBlockReference
  2
_OPEN
 10
414.0079468550696
 20
332.9943007435194
 30
0.0
 41
2.5
 42
2.5
 43
2.5
 50
180.0
  0
INSERT
  5
10CD
330
18
100
AcDbEntity
  8
0
  6
ByBlock
 62
     2
100
AcDbBlockReference
  2
_OPEN
 10
420.5079468550697
 20
332.9943007435194
 30
0.0
 41
2.5
 42
2.5
 43
2.5
  0
MTEXT
  5
10CE
330
18
100
AcDbEntity
  8
0
  6
ByBlock
 62
     6
100
AcDbMText
 10
417.2579468550696
 20
334.8693007435195
 30
0.0
 40
2.5
 41
0.0
 71
     5
 72
     1
  1
\A1;6.5
  7
STYLE3
 73
     1
 44
1.0
  0
POINT
  5
10CF
330
18
100
AcDbEntity
  8
DEFPOINTS
  6
ByBlock
 62
     0
100
AcDbPoint
 10
414.0079468550696
 20
305.7254952147663
 30
0.0
  0
POINT
  5
10D0
330
18
100
AcDbEntity
  8
DEFPOINTS
  6
ByBlock
 62
     0
100
AcDbPoint
 10
420.5079468550697
 20
305.7254952147663
 30
0.0
  0
POINT
  5
10D1
330
18
100
AcDbEntity
  8
DEFPOINTS
  6
ByBlock
 62
     0
100
AcDbPoint
 10
420.5079468550697
 20
332.9943007435194
 30
0.0
  0
LINE
  5
10D2
330
18
100
AcDbEntity
  8
0
  6
ByBlock
 62
     2
100
AcDbLine
 10
399.5079468550697
 20
281.2254952147663
 30
0.0
 11
399.5079468550697
 21
334.2443007435194
 31
0.0
  0
LINE
  5
10D4
330
18
100
AcDbEntity
  8
0
  6
ByBlock
 62
     2
100
AcDbLine
 10
402.0079468550696
 20
332.9943007435194
 30
0.0
 11
411.5079468550696
 21
332.9943007435194
 31
0.0
  0
INSERT
  5
10D5
330
18
100
AcDbEntity
  8
0
  6
ByBlock
 62
     2
100
AcDbBlockReference
  2
_OPEN
 10
399.5079468550697
 20
332.9943007435194
 30
0.0
 41
2.5
 42
2.5
 43
2.5
 50
180.0
  0
INSERT
  5
10D6
330
18
100
AcDbEntity
  8
0
  6
ByBlock
 62
     2
100
AcDbBlockReference
  2
_OPEN
 10
414.0079468550696
 20
332.9943007435194
 30
0.0
 41
2.5
 42
2.5
 43
2.5
  0
MTEXT
  5
10D7
330
18
100
AcDbEntity
  8
0
  6
ByBlock
 62
     6
100
AcDbMText
 10
406.7579468550697
 20
334.8693007435195
 30
0.0
 40
2.5
 41
0.0
 71
     5
 72
     1
  1
\A1;14.5
  7
STYLE3
 73
     1
 44
1.0
  0
POINT
  5
10D8
330
18
100
AcDbEntity
  8
DEFPOINTS
  6
ByBlock
 62
     0
100
AcDbPoint
 10
399.5079468550697
 20
281.2254952147663
 30
0.0
  0
POINT
  5
10D9
330
18
100
AcDbEntity
  8
DEFPOINTS
  6
ByBlock
 62
     0
100
AcDbPoint
 10
414.0079468550696
 20
322.7254952147663
 30
0.0
  0
POINT
  5
10DA
330
18
100
AcDbEntity
  8
DEFPOINTS
  6
ByBlock
 62
     0
100
AcDbPoint
 10
414.0079468550696
 20
332.9943007435194
 30
0.0
  0
CIRCLE
  5
111B
330
18
100
AcDbEntity
  8
針
100
AcDbCircle
 10
326.3740604659464
 20
281.2254952147663
 30
0.0
 40
1.9
  0
LINE
  5
1121
330
18
100
AcDbEntity
  8
針
100
AcDbLine
 10
313.5155964450057
 20
299.0767697637215
 30
0.0
 11
325.0380475497948
 21
284.0851402080959
 31
0.0
  0
ARC
  5
1122
330
18
100
AcDbEntity
  8
針
100
AcDbCircle
 10
327.4650985329196
 20
285.8484959649734
 30
0.0
 40
3.0
100
AcDbArc
 50
216.0
 51
245.4722791770396
  0
LINE
  5
1124
330
18
100
AcDbEntity
  8
針
100
AcDbLine
 10
313.442784915512
 20
299.0238690910152
 30
0.0
 11
313.5155964450057
 21
299.0767697637215
 31
0.0
  0
ARC
  5
1126
330
18
100
AcDbEntity
  8
針
100
AcDbCircle
 10
321.6401761734199
 20
281.6164421484675
 30
0.0
 40
3.0
100
AcDbArc
 50
6.527720822960354
 51
36.00000000000001
  0
LINE
  5
1127
330
18
100
AcDbEntity
  8
針
100
AcDbLine
 10
313.3699733860183
 20
298.9709684183089
 30
0.0
 11
324.0672271565447
 21
283.3797979053449
 31
0.0
  0
LINE
  5
1128
330
18
100
AcDbEntity
  8
針
100
AcDbLine
 10
313.4427849155119
 20
299.0238690910152
 30
0.0
 11
313.3699733860183
 21
298.9709684183089
 31
0.0
  0
CIRCLE
  5
1129
330
18
100
AcDbEntity
  8
針
100
AcDbCircle
 10
326.3740604659464
 20
281.2254952147663
 30
0.0
 40
0.475
  0
CIRCLE
  5
112B
330
18
100
AcDbEntity
  8
針
100
AcDbCircle
 10
326.3740604659464
 20
281.2254952147663
 30
0.0
 40
1.5
  0
HATCH
  5
1137
330
18
100
AcDbEntity
  8
針
100
AcDbHatch
 10
0.0
 20
0.0
 30
0.0
210
0.0
220
0.0
230
1.0
  2
SOLID
 70
     1
 71
     0
 91
        2
 92
        7
 72
     1
 73
     1
 93
        5
 10
313.5155964450057
 20
299.0767697637215
 42
0.0
 10
313.442784915512
 20
299.0238690910152
 42
0.0
 10
313.3699733860183
 20
298.9709684183089
 42
0.0
 10
317.0499740922135
 20
293.607393829081
 42
-0.0085634322047721
 10
317.4794762511998
 20
293.9194454134547
 42
0.0
 97
        0
 92
        7
 72
     1
 73
     1
 93
        6
 10
317.4794762511998
 20
293.9194454134547
 42
0.0085634322047721
 10
317.0499740922135
 20
293.607393829081
 42
0.0
 10
324.067227156545
 20
283.3797979053445
 42
-0.1293106770632391
 10
324.6207270817793
 20
281.9574938786756
 42
-0.2805221108582334
 10
326.2196981792288
 20
283.119214382024
 42
-0.1293106770632486
 10
325.038047549795
 20
284.0851402080957
 42
0.0
 97
        0
 75
     0
 76
     1
 47
0.0423559757596284
 98
        2
 10
316.8626307644934
 20
294.2478456003202
 10
319.5547169903481
 20
290.7588547118124
450
        0
451
        0
460
0.0
461
0.0
452
        0
462
0.0
453
        0
470

  0
CIRCLE
  5
11EF
330
18
100
AcDbEntity
  8
針
100
AcDbCircle
 10
326.3740604659465
 20
281.2254952147663
 30
0.0
 40
0.0000000000000568
  0
LINE
  5
124D
330
18
100
AcDbEntity
  8
目盛
100
AcDbLine
 10
320.654193061155
 20
303.5029079207249
 30
0.0
 11
321.0769658693352
 21
301.8563165468062
 31
0.0
  0
LINE
  5
124E
330
18
100
AcDbEntity
  8
目盛
100
AcDbLine
 10
319.2666695953227
 20
303.0997950895548
 30
0.0
 11
320.101015480135
 21
300.5319424955579
 31
0.0
  0
LINE
  5
124F
330
18
100
AcDbEntity
  8
目盛
100
AcDbLine
 10
324.9298785167724
 20
304.1801099686165
 30
0.0
 11
325.0366223999722
 21
302.4834645302885
 31
0.0
  0
LINE
  5
1250
330
18
100
AcDbEntity
  8
目盛
100
AcDbLine
 10
323.4913960939676
 20
304.0441333449993
 30
0.0
 11
323.7044625910269
 21
302.3575383527647
 31
0.0
  0
LINE
  5
1251
330
18
100
AcDbEntity
  8
目盛
100
AcDbLine
 10
322.064290230475
 20
303.8181019815262
 30
0.0
 11
322.3828384652707
 21
302.1482136552874
 31
0.0
  0
LINE
  5
1252
330
18
100
AcDbEntity
  8
目盛
100
AcDbLine
 10
314.0500441814297
 20
300.6450375013127
 30
0.0
 11
314.9609497328939
 21
299.2096800279593
 31
0.0
  0
LINE
  5
1253
330
18
100
AcDbEntity
  8
目盛
100
AcDbLine
 10
312.8549996632196
 20
299.83288608539
 30
0.0
 11
314.4420198444092
 21
297.6485402005778
 31
0.0
  0
LINE
  5
1254
330
18
100
AcDbEntity
  8
目盛
100
AcDbLine
 10
317.907195754199
 20
302.6103543901961
 30
0.0
 11
318.533007493763
 21
301.0297343641862
 31
0.0
  0
LINE
  5
1255
330
18
100
AcDbEntity
  8
目盛
100
AcDbLine
 10
316.5811367599499
 20
302.0365174214847
 30
0.0
 11
317.3049615556105
 21
300.4983114322926
 31
0.0
  0
LINE
  5
1256
330
18
100
AcDbEntity
  8
目盛
100
AcDbLine
 10
315.2937259616071
 20
301.3805488557753
 30
0.0
 11
316.11270720758
 21
299.8908274997007
 31
0.0
  0
LINE
  5
1257
330
18
100
AcDbEntity
  8
目盛
100
AcDbLine
 10
308.6522558821034
 20
295.8862469789863
 30
0.0
 11
309.9621283948222
 21
294.8026261964135
 31
0.0
  0
LINE
  5
1258
330
18
100
AcDbEntity
  8
目盛
100
AcDbLine
 10
307.7666695953227
 20
294.7445560174931
 30
0.0
 11
309.951015480135
 21
293.1575358363035
 31
0.0
  0
LINE
  5
1259
330
18
100
AcDbEntity
  8
目盛
100
AcDbLine
 10
311.7133087017267
 20
298.9472997986095
 30
0.0
 11
312.7969294842994
 21
297.6374272858907
 31
0.0
  0
LINE
  5
125A
330
18
100
AcDbEntity
  8
目盛
100
AcDbLine
 10
310.6294770295867
 20
297.9917736454588
 30
0.0
 11
311.7932071096654
 21
296.7525269788424
 31
0.0
  0
LINE
  5
125B
330
18
100
AcDbEntity
  8
目盛
100
AcDbLine
 10
309.6077820352541
 20
296.9700786511263
 30
0.0
 11
310.8470287018705
 21
295.8063485710475
 31
0.0
  0
LINE
  5
125C
330
18
100
AcDbEntity
  8
目盛
100
AcDbLine
 10
304.9892012905167
 20
289.6923599265141
 30
0.0
 11
306.5698213165267
 21
289.0665481869501
 31
0.0
  0
LINE
  5
125D
330
18
100
AcDbEntity
  8
目盛
100
AcDbLine
 10
304.4997605911579
 20
288.33288608539
 30
0.0
 11
307.0676131851549
 21
287.4985402005777
 31
0.0
  0
LINE
  5
125E
330
18
100
AcDbEntity
  8
目盛
100
AcDbLine
 10
306.9545181794002
 20
293.5495114992833
 30
0.0
 11
308.3898756527536
 21
292.638605947819
 31
0.0
  0
LINE
  5
125F
330
18
100
AcDbEntity
  8
目盛
100
AcDbLine
 10
306.2190068249377
 20
292.3058297191058
 30
0.0
 11
307.7087281810122
 21
291.4868484731329
 31
0.0
  0
LINE
  5
1260
330
18
100
AcDbEntity
  8
目盛
100
AcDbLine
 10
305.563038259228
 20
291.0184189207632
 30
0.0
 11
307.1012442484203
 21
290.2945941251025
 31
0.0
  0
LINE
  5
1261
330
18
100
AcDbEntity
  8
目盛
100
AcDbLine
 10
303.4194457120963
 20
282.6696771639407
 30
0.0
 11
305.1160911504243
 21
282.5629332807408
 31
0.0
  0
LINE
  5
1262
330
18
100
AcDbEntity
  8
目盛
100
AcDbLine
 10
303.3740604659465
 20
281.2254952147663
 30
0.0
 11
306.0740604659465
 21
281.2254952147663
 31
0.0
  0
LINE
  5
1263
330
18
100
AcDbEntity
  8
目盛
100
AcDbLine
 10
304.0966477599881
 20
286.9453626195581
 30
0.0
 11
305.7432391339067
 21
286.5225898113778
 31
0.0
  0
LINE
  5
1264
330
18
100
AcDbEntity
  8
目盛
100
AcDbLine
 10
303.7814536991867
 20
285.5352654502381
 30
0.0
 11
305.4513420254254
 21
285.2167172154424
 31
0.0
  0
LINE
  5
1265
330
18
100
AcDbEntity
  8
目盛
100
AcDbLine
 10
303.5554223357135
 20
284.1081595867455
 30
0.0
 11
305.2420173279482
 21
283.8950930896861
 31
0.0
  0
LINE
  5
1266
330
18
100
AcDbEntity
  8
目盛
100
AcDbLine
 10
304.0966477599878
 20
275.5056278099748
 30
0.0
 11
305.7432391339065
 21
275.928400618155
 31
0.0
  0
LINE
  5
1267
330
18
100
AcDbEntity
  8
目盛
100
AcDbLine
 10
304.4997605911579
 20
274.1181043441425
 30
0.0
 11
307.0676131851548
 21
274.9524502289548
 31
0.0
  0
LINE
  5
1268
330
18
100
AcDbEntity
  8
目盛
100
AcDbLine
 10
303.4194457120962
 20
279.7813132655922
 30
0.0
 11
305.1160911504242
 21
279.888057148792
 31
0.0
  0
LINE
  5
1269
330
18
100
AcDbEntity
  8
目盛
100
AcDbLine
 10
303.5554223357135
 20
278.3428308427874
 30
0.0
 11
305.242017327948
 21
278.5558973398468
 31
0.0
  0
LINE
  5
126A
330
18
100
AcDbEntity
  8
目盛
100
AcDbLine
 10
303.7814536991865
 20
276.9157249792948
 30
0.0
 11
305.4513420254253
 21
277.2342732140905
 31
0.0
  0
LINE
  5
126B
330
18
100
AcDbEntity
  8
目盛
100
AcDbLine
 10
306.9545181794
 20
268.9014789302496
 30
0.0
 11
308.3898756527535
 21
269.8123844817138
 31
0.0
  0
LINE
  5
126C
330
18
100
AcDbEntity
  8
目盛
100
AcDbLine
 10
307.7666695953227
 20
267.7064344120394
 30
0.0
 11
309.9510154801351
 21
269.2934545932291
 31
0.0
  0
LINE
  5
126D
330
18
100
AcDbEntity
  8
目盛
100
AcDbLine
 10
304.9892012905167
 20
272.7586305030188
 30
0.0
 11
306.5698213165267
 21
273.3844422425828
 31
0.0
  0
LINE
  5
126E
330
18
100
AcDbEntity
  8
目盛
100
AcDbLine
 10
305.563038259228
 20
271.4325715087698
 30
0.0
 11
307.1012442484202
 21
272.1563963044304
 31
0.0
  0
LINE
  5
126F
330
18
100
AcDbEntity
  8
目盛
100
AcDbLine
 10
306.2190068249375
 20
270.145160710427
 30
0.0
 11
307.7087281810121
 21
270.9641419563999
 31
0.0
  0
LINE
  5
1270
330
18
100
AcDbEntity
  8
目盛
100
AcDbLine
 10
311.7133087017264
 20
263.5036906309233
 30
0.0
 11
312.7969294842992
 21
264.8135631436421
 31
0.0
  0
LINE
  5
1271
330
18
100
AcDbEntity
  8
目盛
100
AcDbLine
 10
312.8549996632195
 20
262.6181043441425
 30
0.0
 11
314.4420198444092
 21
264.8024502289548
 31
0.0
  0
LINE
  5
1272
330
18
100
AcDbEntity
  8
目盛
100
AcDbLine
 10
308.6522558821032
 20
266.5647434505465
 30
0.0
 11
309.962128394822
 21
267.6483642331193
 31
0.0
  0
LINE
  5
1273
330
18
100
AcDbEntity
  8
目盛
100
AcDbLine
 10
309.6077820352539
 20
265.4809117784065
 30
0.0
 11
310.8470287018703
 21
266.6446418584853
 31
0.0
  0
LINE
  5
1274
330
18
100
AcDbEntity
  8
目盛
100
AcDbLine
 10
310.6294770295864
 20
264.4592167840739
 30
0.0
 11
311.7932071096652
 21
265.6984634506904
 31
0.0
  0
LINE
  5
1275
330
18
100
AcDbEntity
  8
目盛
100
AcDbLine
 10
317.9071957541986
 20
259.8406360393366
 30
0.0
 11
318.5330074937626
 21
261.4212560653466
 31
0.0
  0
LINE
  5
1276
330
18
100
AcDbEntity
  8
目盛
100
AcDbLine
 10
319.2666695953227
 20
259.3511953399778
 30
0.0
 11
320.101015480135
 21
261.9190479339747
 31
0.0
  0
LINE
  5
1277
330
18
100
AcDbEntity
  8
目盛
100
AcDbLine
 10
314.0500441814294
 20
261.80595292822
 30
0.0
 11
314.9609497328937
 21
263.2413104015735
 31
0.0
  0
LINE
  5
1278
330
18
100
AcDbEntity
  8
目盛
100
AcDbLine
 10
315.2937259616069
 20
261.0704415737575
 30
0.0
 11
316.1127072075798
 21
262.560162929832
 31
0.0
  0
LINE
  5
1279
330
18
100
AcDbEntity
  8
目盛
100
AcDbLine
 10
316.5811367599496
 20
260.4144730080479
 30
0.0
 11
317.3049615556103
 21
261.9526789972401
 31
0.0
  0
LINE
  5
127A
330
18
100
AcDbEntity
  8
目盛
100
AcDbLine
 10
324.9298785167721
 20
258.2708804609161
 30
0.0
 11
325.036622399972
 21
259.9675258992442
 31
0.0
  0
LINE
  5
127B
330
18
100
AcDbEntity
  8
目盛
100
AcDbLine
 10
326.3740604659465
 20
258.2254952147664
 30
0.0
 11
326.3740604659465
 21
260.9254952147663
 31
0.0
  0
LINE
  5
127C
330
18
100
AcDbEntity
  8
目盛
100
AcDbLine
 10
320.6541930611547
 20
258.9480825088079
 30
0.0
 11
321.076965869335
 21
260.5946738827265
 31
0.0
  0
LINE
  5
127D
330
18
100
AcDbEntity
  8
目盛
100
AcDbLine
 10
322.0642902304748
 20
258.6328884480066
 30
0.0
 11
322.3828384652704
 21
260.3027767742453
 31
0.0
  0
LINE
  5
127E
330
18
100
AcDbEntity
  8
目盛
100
AcDbLine
 10
323.4913960939673
 20
258.4068570845333
 30
0.0
 11
323.7044625910266
 21
260.093452076768
 31
0.0
  0
LINE
  5
127F
330
18
100
AcDbEntity
  8
目盛
100
AcDbLine
 10
332.0939278707379
 20
258.9480825088077
 30
0.0
 11
331.6711550625578
 21
260.5946738827264
 31
0.0
  0
LINE
  5
1280
330
18
100
AcDbEntity
  8
目盛
100
AcDbLine
 10
333.4814513365703
 20
259.3511953399778
 30
0.0
 11
332.6471054517579
 21
261.9190479339747
 31
0.0
  0
LINE
  5
1281
330
18
100
AcDbEntity
  8
目盛
100
AcDbLine
 10
327.8182424151206
 20
258.2708804609161
 30
0.0
 11
327.7114985319208
 21
259.9675258992442
 31
0.0
  0
LINE
  5
1282
330
18
100
AcDbEntity
  8
目盛
100
AcDbLine
 10
329.2567248379254
 20
258.4068570845334
 30
0.0
 11
329.0436583408661
 21
260.0934520767679
 31
0.0
  0
LINE
  5
1283
330
18
100
AcDbEntity
  8
目盛
100
AcDbLine
 10
330.683830701418
 20
258.6328884480064
 30
0.0
 11
330.3652824666223
 21
260.3027767742452
 31
0.0
  0
LINE
  5
1284
330
18
100
AcDbEntity
  8
目盛
100
AcDbLine
 10
338.6980767504632
 20
261.8059529282198
 30
0.0
 11
337.787171198999
 21
263.2413104015732
 31
0.0
  0
LINE
  5
1285
330
18
100
AcDbEntity
  8
目盛
100
AcDbLine
 10
339.8931212686733
 20
262.6181043441425
 30
0.0
 11
338.3061010874836
 21
264.8024502289548
 31
0.0
  0
LINE
  5
1286
330
18
100
AcDbEntity
  8
目盛
100
AcDbLine
 10
334.8409251776939
 20
259.8406360393365
 30
0.0
 11
334.21511343813
 21
261.4212560653464
 31
0.0
  0
LINE
  5
1287
330
18
100
AcDbEntity
  8
目盛
100
AcDbLine
 10
336.166984171943
 20
260.4144730080478
 30
0.0
 11
335.4431593762824
 21
261.9526789972399
 31
0.0
  0
LINE
  5
1288
330
18
100
AcDbEntity
  8
目盛
100
AcDbLine
 10
337.4543949702858
 20
261.0704415737572
 30
0.0
 11
336.6354137243128
 21
262.5601629298318
 31
0.0
  0
LINE
  5
1289
330
18
100
AcDbEntity
  8
目盛
100
AcDbLine
 10
344.0958650497895
 20
266.5647434505463
 30
0.0
 11
342.7859925370707
 21
267.6483642331191
 31
0.0
  0
LINE
  5
128A
330
18
100
AcDbEntity
  8
目盛
100
AcDbLine
 10
344.9814513365702
 20
267.7064344120394
 30
0.0
 11
342.7971054517579
 21
269.2934545932291
 31
0.0
  0
LINE
  5
128B
330
18
100
AcDbEntity
  8
目盛
100
AcDbLine
 10
341.0348122301662
 20
263.5036906309231
 30
0.0
 11
339.9511914475935
 21
264.8135631436419
 31
0.0
  0
LINE
  5
128C
330
18
100
AcDbEntity
  8
目盛
100
AcDbLine
 10
342.1186439023062
 20
264.4592167840738
 30
0.0
 11
340.9549138222275
 21
265.6984634506902
 31
0.0
  0
LINE
  5
128D
330
18
100
AcDbEntity
  8
目盛
100
AcDbLine
 10
343.1403388966388
 20
265.4809117784063
 30
0.0
 11
341.9010922300224
 21
266.6446418584851
 31
0.0
  0
LINE
  5
128E
330
18
100
AcDbEntity
  8
目盛
100
AcDbLine
 10
347.7589196413761
 20
272.7586305030185
 30
0.0
 11
346.1782996153662
 21
273.3844422425825
 31
0.0
  0
LINE
  5
128F
330
18
100
AcDbEntity
  8
目盛
100
AcDbLine
 10
348.248360340735
 20
274.1181043441425
 30
0.0
 11
345.6805077467381
 21
274.9524502289549
 31
0.0
  0
LINE
  5
1290
330
18
100
AcDbEntity
  8
目盛
100
AcDbLine
 10
345.7936027524927
 20
268.9014789302492
 30
0.0
 11
344.3582452791393
 21
269.8123844817136
 31
0.0
  0
LINE
  5
1291
330
18
100
AcDbEntity
  8
目盛
100
AcDbLine
 10
346.5291141069552
 20
270.1451607104268
 30
0.0
 11
345.0393927508807
 21
270.9641419563997
 31
0.0
  0
LINE
  5
1292
330
18
100
AcDbEntity
  8
目盛
100
AcDbLine
 10
347.1850826726648
 20
271.4325715087694
 30
0.0
 11
345.6468766834726
 21
272.1563963044301
 31
0.0
  0
LINE
  5
1293
330
18
100
AcDbEntity
  8
目盛
100
AcDbLine
 10
349.3286752197967
 20
279.7813132655918
 30
0.0
 11
347.6320297814686
 21
279.8880571487917
 31
0.0
  0
LINE
  5
1294
330
18
100
AcDbEntity
  8
目盛
100
AcDbLine
 10
349.3740604659465
 20
281.2254952147663
 30
0.0
 11
346.6740604659465
 21
281.2254952147663
 31
0.0
  0
LINE
  5
1295
330
18
100
AcDbEntity
  8
目盛
100
AcDbLine
 10
348.6514731719049
 20
275.5056278099745
 30
0.0
 11
347.0048817979863
 21
275.9284006181547
 31
0.0
  0
LINE
  5
1296
330
18
100
AcDbEntity
  8
目盛
100
AcDbLine
 10
348.9666672327063
 20
276.9157249792945
 30
0.0
 11
347.2967789064675
 21
277.2342732140902
 31
0.0
  0
LINE
  5
1297
330
18
100
AcDbEntity
  8
目盛
100
AcDbLine
 10
349.1926985961795
 20
278.3428308427871
 30
0.0
 11
347.5061036039448
 21
278.5558973398464
 31
0.0
  0
LINE
  5
1298
330
18
100
AcDbEntity
  8
目盛
100
AcDbLine
 10
348.6514731719051
 20
286.9453626195577
 30
0.0
 11
347.0048817979864
 21
286.5225898113775
 31
0.0
  0
LINE
  5
1299
330
18
100
AcDbEntity
  8
目盛
100
AcDbLine
 10
348.248360340735
 20
288.33288608539
 30
0.0
 11
345.6805077467381
 21
287.4985402005777
 31
0.0
  0
LINE
  5
129A
330
18
100
AcDbEntity
  8
目盛
100
AcDbLine
 10
349.3286752197967
 20
282.6696771639404
 30
0.0
 11
347.6320297814687
 21
282.5629332807405
 31
0.0
  0
LINE
  5
129B
330
18
100
AcDbEntity
  8
目盛
100
AcDbLine
 10
349.1926985961795
 20
284.1081595867452
 30
0.0
 11
347.5061036039449
 21
283.8950930896857
 31
0.0
  0
LINE
  5
129C
330
18
100
AcDbEntity
  8
目盛
100
AcDbLine
 10
348.9666672327064
 20
285.5352654502377
 30
0.0
 11
347.2967789064676
 21
285.216717215442
 31
0.0
  0
LINE
  5
129D
330
18
100
AcDbEntity
  8
目盛
100
AcDbLine
 10
345.793602752493
 20
293.549511499283
 30
0.0
 11
344.3582452791395
 21
292.6386059478188
 31
0.0
  0
LINE
  5
129E
330
18
100
AcDbEntity
  8
目盛
100
AcDbLine
 10
344.9814513365703
 20
294.7445560174931
 30
0.0
 11
342.7971054517579
 21
293.1575358363034
 31
0.0
  0
LINE
  5
129F
330
18
100
AcDbEntity
  8
目盛
100
AcDbLine
 10
347.7589196413763
 20
289.6923599265138
 30
0.0
 11
346.1782996153663
 21
289.0665481869498
 31
0.0
  0
LINE
  5
12A0
330
18
100
AcDbEntity
  8
目盛
100
AcDbLine
 10
347.1850826726649
 20
291.0184189207628
 30
0.0
 11
345.6468766834727
 21
290.2945941251022
 31
0.0
  0
LINE
  5
12A1
330
18
100
AcDbEntity
  8
目盛
100
AcDbLine
 10
346.5291141069555
 20
292.3058297191055
 30
0.0
 11
345.0393927508809
 21
291.4868484731326
 31
0.0
  0
LINE
  5
12A2
330
18
100
AcDbEntity
  8
目盛
100
AcDbLine
 10
341.0348122301666
 20
298.9472997986093
 30
0.0
 11
339.9511914475937
 21
297.6374272858905
 31
0.0
  0
LINE
  5
12A3
330
18
100
AcDbEntity
  8
目盛
100
AcDbLine
 10
339.8931212686734
 20
299.8328860853901
 30
0.0
 11
338.3061010874837
 21
297.6485402005777
 31
0.0
  0
LINE
  5
12A4
330
18
100
AcDbEntity
  8
目盛
100
AcDbLine
 10
344.0958650497897
 20
295.886246978986
 30
0.0
 11
342.7859925370709
 21
294.8026261964132
 31
0.0
  0
LINE
  5
12A5
330
18
100
AcDbEntity
  8
目盛
100
AcDbLine
 10
343.140338896639
 20
296.970078651126
 30
0.0
 11
341.9010922300227
 21
295.8063485710472
 31
0.0
  0
LINE
  5
12A6
330
18
100
AcDbEntity
  8
目盛
100
AcDbLine
 10
342.1186439023065
 20
297.9917736454586
 30
0.0
 11
340.9549138222277
 21
296.7525269788422
 31
0.0
  0
LINE
  5
12A7
330
18
100
AcDbEntity
  8
目盛
100
AcDbLine
 10
334.8409251776943
 20
302.610354390196
 30
0.0
 11
334.2151134381302
 21
301.029734364186
 31
0.0
  0
LINE
  5
12A8
330
18
100
AcDbEntity
  8
目盛
100
AcDbLine
 10
333.4814513365703
 20
303.0997950895548
 30
0.0
 11
332.6471054517579
 21
300.5319424955579
 31
0.0
  0
LINE
  5
12A9
330
18
100
AcDbEntity
  8
目盛
100
AcDbLine
 10
338.6980767504635
 20
300.6450375013125
 30
0.0
 11
337.7871711989992
 21
299.2096800279591
 31
0.0
  0
LINE
  5
12AA
330
18
100
AcDbEntity
  8
目盛
100
AcDbLine
 10
337.4543949702859
 20
301.380548855775
 30
0.0
 11
336.6354137243131
 21
299.8908274997006
 31
0.0
  0
LINE
  5
12AB
330
18
100
AcDbEntity
  8
目盛
100
AcDbLine
 10
336.1669841719433
 20
302.0365174214846
 30
0.0
 11
335.4431593762827
 21
300.4983114322925
 31
0.0
  0
LINE
  5
12F9
330
18
100
AcDbEntity
  8
0
  6
ByBlock
 62
     2
100
AcDbLine
 10
303.3740604659465
 20
281.2254952147663
 30
0.0
 11
303.3740604659465
 21
334.0758898756364
 31
0.0
  0
LINE
  5
12FA
330
18
100
AcDbEntity
  8
0
  6
ByBlock
 62
     2
100
AcDbLine
 10
349.3740604659465
 20
281.2254952147663
 30
0.0
 11
349.3740604659465
 21
334.0758898756364
 31
0.0
  0
LINE
  5
12FB
330
18
100
AcDbEntity
  8
0
  6
ByBlock
 62
     2
100
AcDbLine
 10
305.8740604659464
 20
332.8258898756364
 30
0.0
 11
346.8740604659465
 21
332.8258898756364
 31
0.0
  0
INSERT
  5
12FC
330
18
100
AcDbEntity
  8
0
  6
ByBlock
 62
     2
100
AcDbBlockReference
  2
_OPEN
 10
303.3740604659465
 20
332.8258898756364
 30
0.0
 41
2.5
 42
2.5
 43
2.5
 50
180.0
  0
INSERT
  5
12FD
330
18
100
AcDbEntity
  8
0
  6
ByBlock
 62
     2
100
AcDbBlockReference
  2
_OPEN
 10
349.3740604659465
 20
332.8258898756364
 30
0.0
 41
2.5
 42
2.5
 43
2.5
  0
MTEXT
  5
12FE
330
18
100
AcDbEntity
  8
0
  6
ByBlock
 62
     6
100
AcDbMText
 10
326.3740604659465
 20
334.7008898756364
 30
0.0
 40
2.5
 41
0.0
 71
     5
 72
     1
  1
\A1;46
  7
STYLE3
 73
     1
 44
1.0
  0
POINT
  5
12FF
330
18
100
AcDbEntity
  8
DEFPOINTS
  6
ByBlock
 62
     0
100
AcDbPoint
 10
303.3740604659465
 20
281.2254952147663
 30
0.0
  0
POINT
  5
1300
330
18
100
AcDbEntity
  8
DEFPOINTS
  6
ByBlock
 62
     0
100
AcDbPoint
 10
349.3740604659465
 20
281.2254952147663
 30
0.0
  0
POINT
  5
1301
330
18
100
AcDbEntity
  8
DEFPOINTS
  6
ByBlock
 62
     0
100
AcDbPoint
 10
349.3740604659465
 20
332.8258898756364
 30
0.0
  0
LINE
  5
1302
330
18
100
AcDbEntity
  8
0
  6
ByBlock
 62
     2
100
AcDbLine
 10
403.7079468550698
 20
307.6254952147662
 30
0.0
 11
374.1651250731256
 21
307.6254952147662
 31
0.0
  0
LINE
  5
1303
330
18
100
AcDbEntity
  8
0
  6
ByBlock
 62
     2
100
AcDbLine
 10
403.7079468550698
 20
254.8254952147663
 30
0.0
 11
374.1651250731256
 21
254.8254952147663
 31
0.0
  0
LINE
  5
1304
330
18
100
AcDbEntity
  8
0
  6
ByBlock
 62
     2
100
AcDbLine
 10
375.4151250731256
 20
305.1254952147663
 30
0.0
 11
375.4151250731256
 21
257.3254952147663
 31
0.0
  0
INSERT
  5
1305
330
18
100
AcDbEntity
  8
0
  6
ByBlock
 62
     2
100
AcDbBlockReference
  2
_OPEN
 10
375.4151250731256
 20
307.6254952147662
 30
0.0
 41
2.5
 42
2.5
 43
2.5
 50
90.0
  0
INSERT
  5
1306
330
18
100
AcDbEntity
  8
0
  6
ByBlock
 62
     2
100
AcDbBlockReference
  2
_OPEN
 10
375.4151250731256
 20
254.8254952147663
 30
0.0
 41
2.5
 42
2.5
 43
2.5
 50
270.0
  0
MTEXT
  5
1307
330
18
100
AcDbEntity
  8
0
  6
ByBlock
 62
     6
100
AcDbMText
 10
373.5401250731256
 20
281.2254952147663
 30
0.0
 40
2.5
 41
0.0
 71
     5
 72
     1
  1
\A1;φ53
  7
STYLE3
 11
0.0000000000000001
 21
1.0
 31
0.0
 73
     1
 44
1.0
  0
POINT
  5
1308
330
18
100
AcDbEntity
  8
DEFPOINTS
  6
ByBlock
 62
     0
100
AcDbPoint
 10
403.7079468550698
 20
307.6254952147662
 30
0.0
  0
POINT
  5
1309
330
18
100
AcDbEntity
  8
DEFPOINTS
  6
ByBlock
 62
     0
100
AcDbPoint
 10
403.7079468550698
 20
254.8254952147663
 30
0.0
  0
POINT
  5
130A
330
18
100
AcDbEntity
  8
DEFPOINTS
  6
ByBlock
 62
     0
100
AcDbPoint
 10
375.4151250731256
 20
254.8254952147663
 30
0.0
  0
LINE
  5
130B
102
{ACAD_REACTORS
330
130E
102
}
330
18
100
AcDbEntity
  8
外形線
100
AcDbLine
 10
338.212849403414
 20
282.7650785480995
 30
0.0
 11
337.2128494034139
 21
282.7650785480995
 31
0.0
  0
LINE
  5
130C
102
{ACAD_REACTORS
330
130E
102
}
330
18
100
AcDbEntity
  8
外形線
100
AcDbLine
 10
338.212849403414
 20
282.5859118814328
 30
0.0
 11
337.2128494034139
 21
282.5859118814329
 31
0.0
  0
TEXT
  5
130D
330
18
100
AcDbEntity
  8
文字
100
AcDbText
 10
332.4425957862002
 20
280.1892049803537
 30
0.0
 40
1.0
  1
0.01mm
  7
STYLE3
100
AcDbText
  0
HATCH
  5
130E
330
18
100
AcDbEntity
  8
外形線
100
AcDbHatch
 10
0.0
 20
0.0
 30
0.0
210
0.0
220
0.0
230
1.0
  2
SOLID
 70
     1
 71
     1
 91
        2
 92
        1
 93
        7
 72
     1
 10
336.0461827367472
 20
282.6754952147662
 11
337.2128494034139
 21
282.250863274789
 72
     1
 10
337.2128494034139
 20
282.250863274789
 11
337.2128494034139
 21
282.5859118814329
 72
     1
 10
337.2128494034139
 20
282.5859118814329
 11
338.212849403414
 21
282.5859118814328
 72
     1
 10
338.212849403414
 20
282.5859118814328
 11
338.212849403414
 21
282.7650785480995
 72
     1
 10
338.212849403414
 20
282.7650785480995
 11
337.2128494034139
 21
282.7650785480995
 72
     1
 10
337.2128494034139
 20
282.7650785480995
 11
337.2128494034139
 21
283.1001271547434
 72
     1
 10
337.2128494034139
 20
283.1001271547434
 11
336.0461827367472
 21
282.6754952147662
 97
        7
330
1317
330
131A
330
130C
330
1333
330
130B
330
1316
330
131D
 92
        1
 93
        4
 72
     1
 10
336.0461827367472
 20
283.4254952147662
 11
336.0461827367472
 21
281.9254952147662
 72
     1
 10
336.0461827367472
 20
281.9254952147662
 11
335.8795160700806
 21
281.9254952147662
 72
     1
 10
335.8795160700806
 20
281.9254952147662
 11
335.8795160700806
 21
283.4254952147662
 72
     1
 10
335.8795160700806
 20
283.4254952147662
 11
336.0461827367472
 21
283.4254952147662
 97
        4
330
131C
330
1329
330
131B
330
1313
 75
     0
 76
     1
 98
        1
 10
243.7166260302669
 20
214.0133444075852
450
        0
451
        0
460
0.0
461
0.0
452
        0
462
0.0
453
        0
470

  0
LINE
  5
130F
102
{ACAD_REACTORS
330
1311
102
}
330
18
100
AcDbEntity
  8
外形線
100
AcDbLine
 10
332.7128494034139
 20
282.7650785480995
 30
0.0
 11
333.712849403414
 21
282.7650785480995
 31
0.0
  0
LINE
  5
1310
102
{ACAD_REACTORS
330
1311
102
}
330
18
100
AcDbEntity
  8
外形線
100
AcDbLine
 10
332.7128494034139
 20
282.5859118814328
 30
0.0
 11
333.712849403414
 21
282.5859118814329
 31
0.0
  0
HATCH
  5
1311
330
18
100
AcDbEntity
  8
外形線
100
AcDbHatch
 10
0.0
 20
0.0
 30
0.0
210
0.0
220
0.0
230
1.0
  2
SOLID
 70
     1
 71
     1
 91
        2
 92
        1
 93
        7
 72
     1
 10
334.8795160700807
 20
282.6754952147662
 11
333.712849403414
 21
282.250863274789
 72
     1
 10
333.712849403414
 20
282.250863274789
 11
333.712849403414
 21
282.5859118814329
 72
     1
 10
333.712849403414
 20
282.5859118814329
 11
332.7128494034139
 21
282.5859118814328
 72
     1
 10
332.7128494034139
 20
282.5859118814328
 11
332.7128494034139
 21
282.7650785480995
 72
     1
 10
332.7128494034139
 20
282.7650785480995
 11
333.712849403414
 21
282.7650785480995
 72
     1
 10
333.712849403414
 20
282.7650785480995
 11
333.712849403414
 21
283.1001271547434
 72
     1
 10
333.712849403414
 20
283.1001271547434
 11
334.8795160700807
 21
282.6754952147662
 97
        7
330
1325
330
1322
330
1310
330
1312
330
130F
330
131F
330
1326
 92
        1
 93
        4
 72
     1
 10
334.8795160700807
 20
283.4254952147662
 11
334.8795160700807
 21
281.9254952147662
 72
     1
 10
334.8795160700807
 20
281.9254952147662
 11
335.0461827367472
 21
281.9254952147662
 72
     1
 10
335.0461827367472
 20
281.9254952147662
 11
335.0461827367472
 21
283.4254952147662
 72
     1
 10
335.0461827367472
 20
283.4254952147662
 11
334.8795160700807
 21
283.4254952147662
 97
        4
330
1327
330
1332
330
1328
330
131E
 75
     0
 76
     1
 98
        1
 10
427.2090727765609
 20
214.0133444075852
450
        0
451
        0
460
0.0
461
0.0
452
        0
462
0.0
453
        0
470

  0
LINE
  5
1312
102
{ACAD_REACTORS
330
1311
102
}
330
18
100
AcDbEntity
  8
外形線
100
AcDbLine
 10
332.7128494034139
 20
282.7650785480995
 30
0.0
 11
332.7128494034139
 21
282.5859118814328
 31
0.0
  0
LINE
  5
1313
102
{ACAD_REACTORS
330
130E
102
}
330
18
100
AcDbEntity
  8
外形線
100
AcDbLine
 10
335.8795160700806
 20
283.4254952147662
 30
0.0
 11
336.0461827367472
 21
283.4254952147662
 31
0.0
  0
POINT
  5
1314
330
18
100
AcDbEntity
  8
DEFPOINTS
  6
ByBlock
 62
     0
100
AcDbPoint
 10
337.2128494034139
 20
283.1001271547434
 30
0.0
  0
POINT
  5
1315
330
18
100
AcDbEntity
  8
DEFPOINTS
  6
ByBlock
 62
     0
100
AcDbPoint
 10
337.2128494034139
 20
283.1001271547434
 30
0.0
  0
LINE
  5
1316
102
{ACAD_REACTORS
330
130E
102
}
330
18
100
AcDbEntity
  8
外形線
100
AcDbLine
 10
337.2128494034139
 20
283.1001271547434
 30
0.0
 11
337.2128494034139
 21
282.7650785480995
 31
0.0
  0
LINE
  5
1317
102
{ACAD_REACTORS
330
130E
102
}
330
18
100
AcDbEntity
  8
外形線
100
AcDbLine
 10
336.0461827367472
 20
282.6754952147662
 30
0.0
 11
337.2128494034139
 21
282.250863274789
 31
0.0
  0
POINT
  5
1318
330
18
100
AcDbEntity
  8
DEFPOINTS
  6
ByBlock
 62
     0
100
AcDbPoint
 10
337.2128494034139
 20
282.250863274789
 30
0.0
  0
POINT
  5
1319
330
18
100
AcDbEntity
  8
DEFPOINTS
  6
ByBlock
 62
     0
100
AcDbPoint
 10
337.2128494034139
 20
282.250863274789
 30
0.0
  0
LINE
  5
131A
102
{ACAD_REACTORS
330
130E
102
}
330
18
100
AcDbEntity
  8
外形線
100
AcDbLine
 10
337.2128494034139
 20
282.5859118814329
 30
0.0
 11
337.2128494034139
 21
282.250863274789
 31
0.0
  0
LINE
  5
131B
102
{ACAD_REACTORS
330
130E
102
}
330
18
100
AcDbEntity
  8
外形線
100
AcDbLine
 10
335.8795160700806
 20
283.4254952147662
 30
0.0
 11
335.8795160700806
 21
281.9254952147662
 31
0.0
  0
LINE
  5
131C
102
{ACAD_REACTORS
330
130E
102
}
330
18
100
AcDbEntity
  8
外形線
100
AcDbLine
 10
336.0461827367472
 20
283.4254952147662
 30
0.0
 11
336.0461827367472
 21
281.9254952147662
 31
0.0
  0
LINE
  5
131D
102
{ACAD_REACTORS
330
130E
102
}
330
18
100
AcDbEntity
  8
外形線
100
AcDbLine
 10
336.0461827367472
 20
282.6754952147662
 30
0.0
 11
337.2128494034139
 21
283.1001271547434
 31
0.0
  0
LINE
  5
131E
102
{ACAD_REACTORS
330
1311
102
}
330
18
100
AcDbEntity
  8
外形線
100
AcDbLine
 10
335.0461827367472
 20
283.4254952147662
 30
0.0
 11
334.8795160700807
 21
283.4254952147662
 31
0.0
  0
LINE
  5
131F
102
{ACAD_REACTORS
330
1311
102
}
330
18
100
AcDbEntity
  8
外形線
100
AcDbLine
 10
333.712849403414
 20
283.1001271547434
 30
0.0
 11
333.712849403414
 21
282.7650785480995
 31
0.0
  0
POINT
  5
1320
330
18
100
AcDbEntity
  8
DEFPOINTS
  6
ByBlock
 62
     0
100
AcDbPoint
 10
333.712849403414
 20
283.1001271547434
 30
0.0
  0
POINT
  5
1321
330
18
100
AcDbEntity
  8
DEFPOINTS
  6
ByBlock
 62
     0
100
AcDbPoint
 10
333.712849403414
 20
283.1001271547434
 30
0.0
  0
LINE
  5
1322
102
{ACAD_REACTORS
330
1311
102
}
330
18
100
AcDbEntity
  8
外形線
100
AcDbLine
 10
333.712849403414
 20
282.5859118814329
 30
0.0
 11
333.712849403414
 21
282.250863274789
 31
0.0
  0
POINT
  5
1323
330
18
100
AcDbEntity
  8
DEFPOINTS
  6
ByBlock
 62
     0
100
AcDbPoint
 10
333.712849403414
 20
282.250863274789
 30
0.0
  0
POINT
  5
1324
330
18
100
AcDbEntity
  8
DEFPOINTS
  6
ByBlock
 62
     0
100
AcDbPoint
 10
333.712849403414
 20
282.250863274789
 30
0.0
  0
LINE
  5
1325
102
{ACAD_REACTORS
330
1311
102
}
330
18
100
AcDbEntity
  8
外形線
100
AcDbLine
 10
334.8795160700807
 20
282.6754952147662
 30
0.0
 11
333.712849403414
 21
282.250863274789
 31
0.0
  0
LINE
  5
1326
102
{ACAD_REACTORS
330
1311
102
}
330
18
100
AcDbEntity
  8
外形線
100
AcDbLine
 10
334.8795160700807
 20
282.6754952147662
 30
0.0
 11
333.712849403414
 21
283.1001271547434
 31
0.0
  0
LINE
  5
1327
102
{ACAD_REACTORS
330
1311
102
}
330
18
100
AcDbEntity
  8
外形線
100
AcDbLine
 10
334.8795160700807
 20
283.4254952147662
 30
0.0
 11
334.8795160700807
 21
281.9254952147662
 31
0.0
  0
LINE
  5
1328
102
{ACAD_REACTORS
330
1311
102
}
330
18
100
AcDbEntity
  8
外形線
100
AcDbLine
 10
335.0461827367472
 20
283.4254952147662
 30
0.0
 11
335.0461827367472
 21
281.9254952147662
 31
0.0
  0
LINE
  5
1329
102
{ACAD_REACTORS
330
130E
102
}
330
18
100
AcDbEntity
  8
外形線
100
AcDbLine
 10
335.8795160700806
 20
281.9254952147662
 30
0.0
 11
336.0461827367472
 21
281.9254952147662
 31
0.0
  0
POINT
  5
132A
330
18
100
AcDbEntity
  8
DEFPOINTS
  6
ByBlock
 62
     0
100
AcDbPoint
 10
336.0461827367472
 20
281.9254952147662
 30
0.0
  0
POINT
  5
132B
330
18
100
AcDbEntity
  8
DEFPOINTS
  6
ByBlock
 62
     0
100
AcDbPoint
 10
335.8795160700806
 20
281.9254952147662
 30
0.0
  0
POINT
  5
132C
330
18
100
AcDbEntity
  8
DEFPOINTS
  6
ByBlock
 62
     0
100
AcDbPoint
 10
336.0461827367472
 20
281.9254952147662
 30
0.0
  0
POINT
  5
132D
330
18
100
AcDbEntity
  8
DEFPOINTS
  6
ByBlock
 62
     0
100
AcDbPoint
 10
335.8795160700806
 20
281.9254952147662
 30
0.0
  0
POINT
  5
132E
330
18
100
AcDbEntity
  8
DEFPOINTS
  6
ByBlock
 62
     0
100
AcDbPoint
 10
335.0461827367472
 20
281.9254952147662
 30
0.0
  0
POINT
  5
132F
330
18
100
AcDbEntity
  8
DEFPOINTS
  6
ByBlock
 62
     0
100
AcDbPoint
 10
334.8795160700807
 20
281.9254952147662
 30
0.0
  0
POINT
  5
1330
330
18
100
AcDbEntity
  8
DEFPOINTS
  6
ByBlock
 62
     0
100
AcDbPoint
 10
335.0461827367472
 20
281.9254952147662
 30
0.0
  0
POINT
  5
1331
330
18
100
AcDbEntity
  8
DEFPOINTS
  6
ByBlock
 62
     0
100
AcDbPoint
 10
334.8795160700807
 20
281.9254952147662
 30
0.0
  0
LINE
  5
1332
102
{ACAD_REACTORS
330
1311
102
}
330
18
100
AcDbEntity
  8
外形線
100
AcDbLine
 10
335.0461827367472
 20
281.9254952147662
 30
0.0
 11
334.8795160700807
 21
281.9254952147662
 31
0.0
  0
LINE
  5
1333
102
{ACAD_REACTORS
330
130E
102
}
330
18
100
AcDbEntity
  8
外形線
100
AcDbLine
 10
338.212849403414
 20
282.7650785480995
 30
0.0
 11
338.212849403414
 21
282.5859118814328
 31
0.0
  0
LINE
  5
1334
330
18
100
AcDbEntity
  8
ﾊｯﾁﾝｸ
100
AcDbLine
 10
323.8740604659464
 20
224.6183663192867
 30
0.0
 11
324.2811893614261
 21
225.0254952147663
 31
0.0
  0
LINE
  5
1335
330
18
100
AcDbEntity
  8
ﾊｯﾁﾝｸ
100
AcDbLine
 10
323.8740604659465
 20
223.2713279011262
 30
0.0
 11
325.6282277795865
 21
225.0254952147662
 31
0.0
  0
LINE
  5
1336
330
18
100
AcDbEntity
  8
ﾊｯﾁﾝｸ
100
AcDbLine
 10
323.8752661977468
 20
221.9254952147663
 30
0.0
 11
326.3740604659465
 21
224.4242894829659
 31
0.0
  0
LINE
  5
1337
330
18
100
AcDbEntity
  8
ﾊｯﾁﾝｸ
100
AcDbLine
 10
325.2223046159072
 20
221.9254952147663
 30
0.0
 11
326.3740604659465
 21
223.0772510648055
 31
0.0
  0
LINE
  5
1338
330
18
100
AcDbEntity
  8
ﾊｯﾁﾝｸ
100
AcDbLine
 10
323.9681083901319
 20
221.9254952147663
 30
0.0
 11
323.8740604659464
 21
222.0195431389517
 31
0.0
  0
LINE
  5
1339
330
18
100
AcDbEntity
  8
ﾊｯﾁﾝｸ
100
AcDbLine
 10
325.3151468082923
 20
221.9254952147662
 30
0.0
 11
323.8740604659464
 21
223.3665815571121
 31
0.0
  0
LINE
  5
133A
330
18
100
AcDbEntity
  8
ﾊｯﾁﾝｸ
100
AcDbLine
 10
326.3740604659465
 20
222.2136199752724
 30
0.0
 11
323.8740604659464
 21
224.7136199752724
 31
0.0
  0
LINE
  5
133B
330
18
100
AcDbEntity
  8
ﾊｯﾁﾝｸ
100
AcDbLine
 10
326.3740604659465
 20
223.5606583934328
 30
0.0
 11
324.909223644613
 21
225.0254952147662
 31
0.0
  0
LINE
  5
133C
330
18
100
AcDbEntity
  8
ﾊｯﾁﾝｸ
100
AcDbLine
 10
326.3740604659465
 20
224.9076968115931
 30
0.0
 11
326.2562620627734
 21
225.0254952147663
 31
0.0
  0
TEXT
  5
133D
330
18
100
AcDbEntity
  8
文字
100
AcDbText
 10
332.0786789315983
 20
248.9555802066039
 30
0.0
 40
1.0
  1
0
  7
STYLE3
100
AcDbText
  0
TEXT
  5
133E
330
18
100
AcDbEntity
  8
文字
100
AcDbText
 10
330.8881367279809
 20
247.5438020047927
 30
0.0
 40
1.0
  1
-0.03
  7
STYLE3
100
AcDbText
  0
HATCH
  5
133F
330
18
100
AcDbEntity
  8
針
100
AcDbHatch
 10
0.0
 20
0.0
 30
0.0
210
0.0
220
0.0
230
1.0
  2
SOLID
 70
     1
 71
     0
 91
        2
 92
        7
 72
     1
 73
     1
 93
        5
 10
323.5267347555906
 20
270.1095924977317
 42
0.31735696877887
 10
324.2739333057227
 20
271.1347984834512
 42
0.0
 10
323.91260262844
 20
271.4015065335434
 42
0.0
 10
323.8844681742559
 20
271.3919835461916
 42
-0.4142135623731173
 10
323.4145202088856
 20
270.4411160949428
 42
0.0
 97
        0
 92
        7
 72
     1
 73
     1
 93
        4
 10
323.5267347555906
 20
270.1095924977317
 42
0.0
 10
323.4145202088856
 20
270.4411160949428
 42
-0.4142135623730728
 10
322.4636527576369
 20
270.9110640603131
 42
0.0
 10
322.1321291604258
 20
270.7988495136081
 42
0.4142135623730844
 97
        0
 75
     0
 76
     1
 47
0.0161501285364394
 98
        2
 10
323.8356074777725
 20
270.4551940008487
 10
323.1568124068553
 20
270.2424844588981
450
        0
451
        0
460
0.0
461
0.0
452
        0
462
0.0
453
        0
470

  0
HATCH
  5
1340
330
18
100
AcDbEntity
  8
針
100
AcDbHatch
 10
0.0
 20
0.0
 30
0.0
210
0.0
220
0.0
230
1.0
  2
SOLID
 70
     1
 71
     0
 91
        4
 92
        7
 72
     1
 73
     1
 93
        4
 10
322.0861430162482
 20
271.314114155495
 42
0.0
 10
322.4322985684249
 20
271.2623808615997
 42
-0.4142135623730951
 10
323.2849175242935
 20
271.8932857007738
 42
0.0
 10
323.3366508181889
 20
272.2394412529505
 42
0.4142135623730996
 97
        0
 92
        7
 72
     1
 73
     1
 93
        5
 10
322.4322985684249
 20
271.2623808615997
 42
0.0
 10
322.0861430162482
 20
271.314114155495
 42
0.3173569687788799
 10
322.6564350975768
 20
270.1809240000274
 42
0.0
 10
323.058813107786
 20
270.3803857237481
 42
0.0
 10
323.0632034075991
 20
270.4097619057309
 42
-0.4142135623730839
 97
        0
 92
        7
 72
     1
 73
     1
 93
        4
 10
323.3366508181889
 20
272.2394412529505
 42
0.0
 10
323.2849175242935
 20
271.8932857007738
 42
-0.4142135623730951
 10
323.9158223634678
 20
271.0406667449051
 42
0.0
 10
324.2619779156445
 20
270.9889334510098
 42
0.4142135623730996
 97
        0
 92
        7
 72
     1
 73
     1
 93
        4
 10
323.9158223634678
 20
271.0406667449051
 42
-0.1036385141593389
 10
323.808930533359
 20
270.7522244199529
 42
0.0
 10
324.2599321712372
 20
270.9757892316711
 42
0.003023315109616
 10
324.2619779156445
 20
270.9889334510098
 42
0.0
 97
        0
 75
     0
 76
     1
 47
0.0223982890607777
 98
        4
 10
322.6700049649473
 20
272.003278991321
 10
322.3426499776847
 20
270.873639790218
 10
323.6014403151385
 20
272.0227274621276
 10
323.9873117718679
 20
270.9678130154145
450
        0
451
        0
460
0.0
461
0.0
452
        0
462
0.0
453
        0
470

  0
CIRCLE
  5
1341
330
18
100
AcDbEntity
  8
針
100
AcDbCircle
 10
323.1740604659464
 20
271.1515238032524
 30
0.0
 40
1.1
  0
CIRCLE
  5
1342
330
18
100
AcDbEntity
  8
針
100
AcDbCircle
 10
323.1740604659464
 20
271.1515238032524
 30
0.0
 40
0.75
  0
HATCH
  5
1343
330
18
100
AcDbEntity
  8
針
100
AcDbHatch
 10
0.0
 20
0.0
 30
0.0
210
0.0
220
0.0
230
1.0
  2
SOLID
 70
     1
 71
     0
 91
        1
 92
        7
 72
     1
 73
     1
 93
        7
 10
323.2740604659465
 20
275.8515238032525
 42
0.0
 10
323.1740604659464
 20
275.8515238032523
 42
0.0
 10
323.0740604659463
 20
275.8515238032523
 42
0.0
 10
323.029152108308
 20
272.6088931485819
 42
-0.2935495917910092
 10
322.7307189317712
 20
272.1582254889938
 42
-0.2104432563350663
 10
323.6174013205042
 20
272.1582257882906
 42
-0.2935491884945053
 10
323.3189688235848
 20
272.6088931485819
 42
0.0
 97
        0
 75
     0
 76
     1
 47
0.0140573597042523
 98
        1
 10
323.2326621818438
 20
274.0460838485526
450
        0
451
        0
460
0.0
461
0.0
452
        0
462
0.0
453
        0
470

  0
LINE
  5
1344
330
18
100
AcDbEntity
  8
針
100
AcDbLine
 10
323.3189688235848
 20
272.6088931485819
 30
0.0
 11
323.2740604659464
 21
275.8515238032523
 31
0.0
  0
LINE
  5
1345
330
18
100
AcDbEntity
  8
針
100
AcDbLine
 10
323.029152108308
 20
272.6088931485819
 30
0.0
 11
323.0740604659463
 21
275.8515238032523
 31
0.0
  0
CIRCLE
  5
1346
330
18
100
AcDbEntity
  8
針
 62
     4
100
AcDbCircle
 10
323.1740604659464
 20
271.1515238032524
 30
0.0
 40
0.4
  0
ARC
  5
1347
330
18
100
AcDbEntity
  8
針
100
AcDbCircle
 10
323.8189208792919
 20
272.6158171643305
 30
0.0
 40
0.5
100
AcDbArc
 50
180.7934591207347
 51
246.2317787024804
  0
ARC
  5
1348
330
18
100
AcDbEntity
  8
針
100
AcDbCircle
 10
322.5292000526008
 20
272.6158171643305
 30
0.0
 40
0.5
100
AcDbArc
 50
293.7682212975196
 51
359.2065408792653
  0
LINE
  5
1349
330
18
100
AcDbEntity
  8
文字
100
AcDbLine
 10
323.2740604659464
 20
275.8515238032523
 30
0.0
 11
323.0740604659463
 21
275.8515238032523
 31
0.0
  0
LINE
  5
134A
330
18
100
AcDbEntity
  8
0
  6
ByBlock
 62
     2
100
AcDbLine
 10
414.0079468550699
 20
216.2254952147663
 30
0.0
 11
374.1651250731256
 21
216.2254952147663
 31
0.0
  0
LINE
  5
134B
330
18
100
AcDbEntity
  8
0
  6
ByBlock
 62
     2
100
AcDbLine
 10
375.4151250731256
 20
252.3254952147663
 30
0.0
 11
375.4151250731256
 21
218.7254952147663
 31
0.0
  0
INSERT
  5
134C
330
18
100
AcDbEntity
  8
0
  6
ByBlock
 62
     2
100
AcDbBlockReference
  2
_OPEN
 10
375.4151250731256
 20
254.8254952147663
 30
0.0
 41
2.5
 42
2.5
 43
2.5
 50
90.0
  0
INSERT
  5
134D
330
18
100
AcDbEntity
  8
0
  6
ByBlock
 62
     2
100
AcDbBlockReference
  2
_OPEN
 10
375.4151250731256
 20
216.2254952147663
 30
0.0
 41
2.5
 42
2.5
 43
2.5
 50
270.0
  0
MTEXT
  5
134E
330
18
100
AcDbEntity
  8
0
  6
ByBlock
 62
     6
100
AcDbMText
 10
373.5401250731256
 20
235.5254952147663
 30
0.0
 40
2.5
 41
0.0
 71
     5
 72
     1
  1
\A1;38.5
  7
STYLE3
 11
0.0000000000000001
 21
1.0
 31
0.0
 73
     1
 44
1.0
  0
POINT
  5
134F
330
18
100
AcDbEntity
  8
DEFPOINTS
  6
ByBlock
 62
     0
100
AcDbPoint
 10
403.7079468550698
 20
254.8254952147663
 30
0.0
  0
POINT
  5
1350
330
18
100
AcDbEntity
  8
DEFPOINTS
  6
ByBlock
 62
     0
100
AcDbPoint
 10
414.0079468550699
 20
216.2254952147663
 30
0.0
  0
POINT
  5
1351
330
18
100
AcDbEntity
  8
DEFPOINTS
  6
ByBlock
 62
     0
100
AcDbPoint
 10
375.4151250731256
 20
216.2254952147663
 30
0.0
  0
LINE
  5
1352
330
18
100
AcDbEntity
  8
ﾊｯﾁﾝｸ
100
AcDbLine
 10
411.5079468550698
 20
224.6183663192867
 30
0.0
 11
411.9150757505495
 21
225.0254952147663
 31
0.0
  0
LINE
  5
1353
330
18
100
AcDbEntity
  8
ﾊｯﾁﾝｸ
100
AcDbLine
 10
411.5079468550698
 20
223.2713279011263
 30
0.0
 11
413.2621141687097
 21
225.0254952147663
 31
0.0
  0
LINE
  5
1354
330
18
100
AcDbEntity
  8
ﾊｯﾁﾝｸ
100
AcDbLine
 10
411.5091525868701
 20
221.9254952147663
 30
0.0
 11
414.0079468550698
 21
224.424289482966
 31
0.0
  0
LINE
  5
1355
330
18
100
AcDbEntity
  8
ﾊｯﾁﾝｸ
100
AcDbLine
 10
412.8561910050305
 20
221.9254952147663
 30
0.0
 11
414.0079468550697
 21
223.0772510648055
 31
0.0
  0
LINE
  5
1356
330
18
100
AcDbEntity
  8
ﾊｯﾁﾝｸ
100
AcDbLine
 10
411.6019947792552
 20
221.9254952147663
 30
0.0
 11
411.5079468550698
 21
222.0195431389517
 31
0.0
  0
LINE
  5
1357
330
18
100
AcDbEntity
  8
ﾊｯﾁﾝｸ
100
AcDbLine
 10
412.9490331974156
 20
221.9254952147663
 30
0.0
 11
411.5079468550698
 21
223.3665815571121
 31
0.0
  0
LINE
  5
1358
330
18
100
AcDbEntity
  8
ﾊｯﾁﾝｸ
100
AcDbLine
 10
414.0079468550697
 20
222.2136199752724
 30
0.0
 11
411.5079468550698
 21
224.7136199752723
 31
0.0
  0
LINE
  5
1359
330
18
100
AcDbEntity
  8
ﾊｯﾁﾝｸ
100
AcDbLine
 10
414.0079468550697
 20
223.5606583934328
 30
0.0
 11
412.5431100337363
 21
225.0254952147663
 31
0.0
  0
LINE
  5
135A
330
18
100
AcDbEntity
  8
ﾊｯﾁﾝｸ
100
AcDbLine
 10
414.0079468550697
 20
224.9076968115932
 30
0.0
 11
413.8901484518967
 21
225.0254952147662
 31
0.0
  0
LINE
  5
135B
330
18
100
AcDbEntity
  8
ﾊｯﾁﾝｸ
  6
Continuous
100
AcDbLine
 10
322.3740604659465
 20
314.991989011064
 30
0.0
 11
322.6075666696487
 21
315.2254952147662
 31
0.0
  0
LINE
  5
135C
330
18
100
AcDbEntity
  8
ﾊｯﾁﾝｸ
  6
Continuous
100
AcDbLine
 10
322.3740604659465
 20
313.2242220580976
 30
0.0
 11
324.375333622615
 21
315.2254952147662
 31
0.0
  0
LINE
  5
135D
330
18
100
AcDbEntity
  8
ﾊｯﾁﾝｸ
  6
Continuous
100
AcDbLine
 10
322.3740604659465
 20
311.4564551051313
 30
0.0
 11
326.1431005755814
 21
315.2254952147662
 31
0.0
  0
LINE
  5
135E
330
18
100
AcDbEntity
  8
ﾊｯﾁﾝｸ
  6
Continuous
100
AcDbLine
 10
322.3740604659465
 20
309.6886881521649
 30
0.0
 11
326.3740604659465
 21
313.6886881521649
 31
0.0
  0
LINE
  5
135F
330
18
100
AcDbEntity
  8
ﾊｯﾁﾝｸ
  6
Continuous
100
AcDbLine
 10
323.6786344815141
 20
309.2254952147662
 30
0.0
 11
326.3740604659465
 21
311.9209211991986
 31
0.0
  0
LINE
  5
1360
330
18
100
AcDbEntity
  8
ﾊｯﾁﾝｸ
  6
Continuous
100
AcDbLine
 10
325.4464014344805
 20
309.2254952147662
 30
0.0
 11
326.3740604659465
 21
310.1531542462321
 31
0.0
  0
LINE
  5
1361
330
18
100
AcDbEntity
  8
ﾊｯﾁﾝｸ
  6
Continuous
100
AcDbLine
 10
322.4256061122655
 20
309.2254952147661
 30
0.0
 11
322.3740604659465
 21
309.2770408610851
 31
0.0
  0
LINE
  5
1362
330
18
100
AcDbEntity
  8
ﾊｯﾁﾝｸ
  6
Continuous
100
AcDbLine
 10
324.1933730652318
 20
309.2254952147662
 30
0.0
 11
322.3740604659464
 21
311.0448078140515
 31
0.0
  0
LINE
  5
1363
330
18
100
AcDbEntity
  8
ﾊｯﾁﾝｸ
  6
Continuous
100
AcDbLine
 10
325.9611400181981
 20
309.2254952147662
 30
0.0
 11
322.3740604659464
 21
312.8125747670178
 31
0.0
  0
LINE
  5
1364
330
18
100
AcDbEntity
  8
ﾊｯﾁﾝｸ
  6
Continuous
100
AcDbLine
 10
326.3740604659465
 20
310.5803417199842
 30
0.0
 11
322.3740604659465
 21
314.5803417199842
 31
0.0
  0
LINE
  5
1365
330
18
100
AcDbEntity
  8
ﾊｯﾁﾝｸ
  6
Continuous
100
AcDbLine
 10
326.3740604659465
 20
312.3481086729506
 30
0.0
 11
323.4966739241309
 21
315.2254952147662
 31
0.0
  0
LINE
  5
1366
330
18
100
AcDbEntity
  8
ﾊｯﾁﾝｸ
  6
Continuous
100
AcDbLine
 10
326.3740604659465
 20
314.1158756259169
 30
0.0
 11
325.2644408770973
 21
315.2254952147661
 31
0.0
  0
LINE
  5
1367
330
18
100
AcDbEntity
  8
ﾊｯﾁﾝｸ
  6
Continuous
100
AcDbLine
 10
410.0079468550696
 20
314.9919890110641
 30
0.0
 11
410.2414530587719
 21
315.2254952147662
 31
0.0
  0
LINE
  5
1368
330
18
100
AcDbEntity
  8
ﾊｯﾁﾝｸ
  6
Continuous
100
AcDbLine
 10
410.0079468550696
 20
313.2242220580977
 30
0.0
 11
412.0092200117381
 21
315.2254952147662
 31
0.0
  0
LINE
  5
1369
330
18
100
AcDbEntity
  8
ﾊｯﾁﾝｸ
  6
Continuous
100
AcDbLine
 10
410.0079468550696
 20
311.4564551051313
 30
0.0
 11
413.7769869647046
 21
315.2254952147662
 31
0.0
  0
LINE
  5
136A
330
18
100
AcDbEntity
  8
ﾊｯﾁﾝｸ
  6
Continuous
100
AcDbLine
 10
410.0079468550696
 20
309.6886881521649
 30
0.0
 11
414.0079468550696
 21
313.6886881521649
 31
0.0
  0
LINE
  5
136B
330
18
100
AcDbEntity
  8
ﾊｯﾁﾝｸ
  6
Continuous
100
AcDbLine
 10
411.3125208706373
 20
309.2254952147662
 30
0.0
 11
414.0079468550696
 21
311.9209211991986
 31
0.0
  0
LINE
  5
136C
330
18
100
AcDbEntity
  8
ﾊｯﾁﾝｸ
  6
Continuous
100
AcDbLine
 10
413.0802878236037
 20
309.2254952147662
 30
0.0
 11
414.0079468550696
 21
310.1531542462322
 31
0.0
  0
LINE
  5
136D
330
18
100
AcDbEntity
  8
ﾊｯﾁﾝｸ
  6
Continuous
100
AcDbLine
 10
410.0594925013886
 20
309.2254952147663
 30
0.0
 11
410.0079468550696
 21
309.2770408610852
 31
0.0
  0
LINE
  5
136E
330
18
100
AcDbEntity
  8
ﾊｯﾁﾝｸ
  6
Continuous
100
AcDbLine
 10
411.8272594543549
 20
309.2254952147662
 30
0.0
 11
410.0079468550696
 21
311.0448078140515
 31
0.0
  0
LINE
  5
136F
330
18
100
AcDbEntity
  8
ﾊｯﾁﾝｸ
  6
Continuous
100
AcDbLine
 10
413.5950264073214
 20
309.2254952147662
 30
0.0
 11
410.0079468550696
 21
312.812574767018
 31
0.0
  0
LINE
  5
1370
330
18
100
AcDbEntity
  8
ﾊｯﾁﾝｸ
  6
Continuous
100
AcDbLine
 10
414.0079468550696
 20
310.5803417199843
 30
0.0
 11
410.0079468550696
 21
314.5803417199843
 31
0.0
  0
LINE
  5
1371
330
18
100
AcDbEntity
  8
ﾊｯﾁﾝｸ
  6
Continuous
100
AcDbLine
 10
414.0079468550696
 20
312.3481086729506
 30
0.0
 11
411.1305603132541
 21
315.2254952147662
 31
0.0
  0
LINE
  5
1372
330
18
100
AcDbEntity
  8
ﾊｯﾁﾝｸ
  6
Continuous
100
AcDbLine
 10
414.0079468550696
 20
314.1158756259171
 30
0.0
 11
412.8983272662205
 21
315.2254952147662
 31
0.0
  0
LINE
  5
1373
330
18
100
AcDbEntity
  8
外形線
 62
     2
100
AcDbLine
 10
436.4589245007396
 20
286.5865149078804
 30
0.0
 11
440.2901645045793
 21
296.2407854019421
 31
0.0
  0
LINE
  5
1374
330
18
100
AcDbEntity
  8
外形線
 62
     2
100
AcDbLine
 10
440.2901645045793
 20
296.2407854019421
 30
0.0
 11
449.8264674816309
 21
296.2407854019421
 31
0.0
  0
LINE
  5
1375
330
18
100
AcDbEntity
  8
外形線
 62
     2
100
AcDbLine
 10
436.8578813562796
 20
286.4663294739514
 30
0.0
 11
435.7378118971651
 21
284.1927737746402
 31
0.0
  0
LINE
  5
1376
330
18
100
AcDbEntity
  8
外形線
 62
     2
100
AcDbLine
 10
435.7378118971651
 20
284.1927737746402
 30
0.0
 11
436.0599676451995
 21
286.7067003418096
 31
0.0
  0
LINE
  5
1377
330
18
100
AcDbEntity
  8
外形線
 62
     2
100
AcDbLine
 10
435.7378118971651
 20
284.1927737746402
 30
0.0
 11
436.4589245007397
 21
286.5865149078804
 31
0.0
  0
LINE
  5
1378
330
18
100
AcDbEntity
  8
0
  6
ByBlock
 62
     2
100
AcDbLine
 10
424.5079468550697
 20
289.2270809582192
 30
0.0
 11
424.5079468550697
 21
297.4907854019421
 31
0.0
  0
LINE
  5
1379
330
18
100
AcDbEntity
  8
0
  6
ByBlock
 62
     2
100
AcDbLine
 10
429.5079468550697
 20
289.2254952147663
 30
0.0
 11
429.5079468550697
 21
297.4907854019421
 31
0.0
  0
LINE
  5
137A
330
18
100
AcDbEntity
  8
0
  6
ByBlock
 62
     2
100
AcDbLine
 10
422.0079468550697
 20
296.2407854019421
 30
0.0
 11
419.5079468550696
 21
296.2407854019421
 31
0.0
  0
LINE
  5
137B
330
18
100
AcDbEntity
  8
0
  6
ByBlock
 62
     2
100
AcDbLine
 10
432.0079468550697
 20
296.2407854019421
 30
0.0
 11
434.5079468550697
 21
296.2407854019421
 31
0.0
  0
LINE
  5
137C
330
18
100
AcDbEntity
  8
0
  6
ByBlock
 62
     2
100
AcDbLine
 10
424.5079468550697
 20
296.2407854019421
 30
0.0
 11
429.5079468550697
 21
296.2407854019421
 31
0.0
  0
INSERT
  5
137D
330
18
100
AcDbEntity
  8
0
  6
ByBlock
 62
     2
100
AcDbBlockReference
  2
_OPEN
 10
424.5079468550697
 20
296.2407854019421
 30
0.0
 41
2.5
 42
2.5
 43
2.5
  0
INSERT
  5
137E
330
18
100
AcDbEntity
  8
0
  6
ByBlock
 62
     2
100
AcDbBlockReference
  2
_OPEN
 10
429.5079468550697
 20
296.2407854019421
 30
0.0
 41
2.5
 42
2.5
 43
2.5
 50
180.0
  0
MTEXT
  5
137F
330
18
100
AcDbEntity
  8
0
  6
ByBlock
 62
     6
100
AcDbMText
 10
427.0079468550696
 20
298.1157854019421
 30
0.0
 40
2.5
 41
0.0
 71
     5
 72
     1
  1
\A1;5
  7
STYLE3
 73
     1
 44
1.0
  0
POINT
  5
1380
330
18
100
AcDbEntity
  8
DEFPOINTS
  6
ByBlock
 62
     0
100
AcDbPoint
 10
424.5079468550697
 20
289.2270809582192
 30
0.0
  0
POINT
  5
1381
330
18
100
AcDbEntity
  8
DEFPOINTS
  6
ByBlock
 62
     0
100
AcDbPoint
 10
429.5079468550697
 20
289.2254952147663
 30
0.0
  0
POINT
  5
1382
330
18
100
AcDbEntity
  8
DEFPOINTS
  6
ByBlock
 62
     0
100
AcDbPoint
 10
429.5079468550697
 20
296.2407854019421
 30
0.0
  0
TEXT
  5
1383
330
18
100
AcDbEntity
  8
外形線
 62
     6
100
AcDbText
 10
439.9217347019372
 20
296.6405889874476
 30
0.0
 40
2.5
  1
φ6.5
  7
STYLE3
100
AcDbText
  0
ARC
  5
1504
330
18
100
AcDbEntity
  8
外形線
100
AcDbCircle
 10
326.3740604659465
 20
217.4254952147663
 30
0.0
 40
1.199999999999999
100
AcDbArc
 50
189.59406822686
 51
350.4059317731399
  0
ARC
  5
1505
330
18
100
AcDbEntity
  8
外形線
100
AcDbCircle
 10
414.0079468550699
 20
217.4254952147663
 30
0.0
 40
1.199999999999999
100
AcDbArc
 50
189.59406822686
 51
350.4059317731399
  0
TEXT
  5
1532
330
18
100
AcDbEntity
  8
文字
100
AcDbText
 10
324.3381864355989
 20
355.0691593788087
 30
0.0
 40
4.0
  1
Model No.107 Dial Gauge
  7
STYLE3
100
AcDbText
  0
LINE
  5
1533
330
18
100
AcDbEntity
  8
外形線
100
AcDbLine
 10
323.7298434355988
 20
351.6786173788086
 30
0.0
 11
399.6026554355989
 21
351.6786173788086
 31
0.0
  0
LINE
  5
1534
330
18
100
AcDbEntity
  8
外形線
100
AcDbLine
 10
323.7298434355988
 20
352.6786173788086
 30
0.0
 11
399.6026554355989
 21
352.6786173788086
 31
0.0
  0
LINE
  5
1536
330
18
100
AcDbEntity
  8
外形線
100
AcDbLine
 10
351.0389154355989
 20
192.4063493788086
 30
0.0
 11
491.8303334355988
 21
192.4063493788086
 31
0.0
  0
LINE
  5
1537
330
18
100
AcDbEntity
  8
外形線
100
AcDbLine
 10
351.0389154355989
 20
181.6261433788086
 30
0.0
 11
491.8303334355988
 21
181.6261433788086
 31
0.0
  0
TEXT
  5
1538
330
18
100
AcDbEntity
  8
0
  6
Continuous
100
AcDbText
 10
352.4963824355989
 20
183.5241333788086
 30
0.0
 40
2.1
  1
Design and specifications are subject to change without notice for future improvement.
  7
STYLE3
100
AcDbText
  0
TEXT
  5
1539
330
18
100
AcDbEntity
  8
0
  6
Continuous
100
AcDbText
 10
352.7878764355989
 20
187.4532813788086
 30
0.0
 40
3.5
  1
仕様及び外観は予告なく変更される場合がございますのでご了承下さい。
  7
STYLE3
100
AcDbText
  0
TEXT
  5
153A
330
18
100
AcDbEntity
  8
0
  6
Continuous
100
AcDbText
 10
352.2048914355989
 20
173.7595053788086
 30
0.0
 40
2.1
  1
3RD Angle Projection
  7
STYLE3
100
AcDbText
  0
TEXT
  5
153B
330
18
100
AcDbEntity
  8
0
  6
Continuous
100
AcDbText
 10
354.8283344355989
 20
177.2557883788086
 30
0.0
 40
3.0
  1
三　　角　　法
  7
STYLE3
100
AcDbText
  0
LINE
  5
153C
330
18
100
AcDbEntity
  8
外形線
100
AcDbLine
 10
351.0389154355989
 20
172.0113653788086
 30
0.0
 11
351.0389154355989
 21
192.4063493788086
 31
0.0
  0
LINE
  5
153D
330
18
100
AcDbEntity
  8
外形線
100
AcDbLine
 10
453.0616824355989
 20
181.6261433788086
 30
0.0
 11
453.0616824355989
 21
172.0113653788086
 31
0.0
  0
LINE
  5
153E
330
18
100
AcDbEntity
  8
外形線
100
AcDbLine
 10
423.3293324355988
 20
181.6261433788086
 30
0.0
 11
423.3293324355988
 21
172.0113653788086
 31
0.0
  0
LINE
  5
153F
330
18
100
AcDbEntity
  8
外形線
100
AcDbLine
 10
403.7992604355988
 20
181.6261433788086
 30
0.0
 11
403.7992604355988
 21
172.0113653788086
 31
0.0
  0
LINE
  5
1540
330
18
100
AcDbEntity
  8
外形線
100
AcDbLine
 10
386.3096434355989
 20
181.6261433788086
 30
0.0
 11
386.3096434355989
 21
172.0113653788086
 31
0.0
  0
TEXT
  5
1541
330
18
100
AcDbEntity
  8
0
  6
Continuous
100
AcDbText
 10
387.7671124355988
 20
177.2617433788086
 30
0.0
 40
3.0
  1
単位
  7
STYLE3
100
AcDbText
  0
TEXT
  5
1542
330
18
100
AcDbEntity
  8
0
  6
Continuous
100
AcDbText
 10
387.9388334355989
 20
173.7595063788086
 30
0.0
 40
2.1
  1
Unit
  7
STYLE3
100
AcDbText
  0
TEXT
  5
1543
330
18
100
AcDbEntity
  8
0
  6
Continuous
100
AcDbText
 10
405.0850084355988
 20
176.9703853788086
 30
0.0
 40
3.0
  1
尺 度
  7
STYLE3
100
AcDbText
  0
TEXT
  5
1544
330
18
100
AcDbEntity
  8
0
  6
Continuous
100
AcDbText
 10
395.8091604355989
 20
175.5076493788086
 30
0.0
 40
2.399999999999999
  1
mm
  7
STYLE3
100
AcDbText
  0
TEXT
  5
1545
330
18
100
AcDbEntity
  8
0
  6
Continuous
100
AcDbText
 10
405.5482234355988
 20
174.0508633788086
 30
0.0
 40
2.1
  1
Scale
  7
STYLE3
100
AcDbText
  0
TEXT
  5
1546
330
18
100
AcDbEntity
  8
0
  6
Continuous
100
AcDbText
 10
415.1675124355988
 20
175.7990063788086
 30
0.0
 40
2.399999999999999
  1
1/1
  7
STYLE3
100
AcDbText
  0
TEXT
  5
1547
330
18
100
AcDbEntity
  8
0
  6
Continuous
100
AcDbText
 10
425.2612834355988
 20
173.7595073788086
 30
0.0
 40
2.1
  1
Date
  7
STYLE3
100
AcDbText
  0
TEXT
  5
1548
330
18
100
AcDbEntity
  8
0
  6
Continuous
100
AcDbText
 10
424.8779224355988
 20
177.0925903788086
 30
0.0
 40
3.0
  1
日 付
  7
STYLE3
100
AcDbText
  0
TEXT
  5
1549
330
18
100
AcDbEntity
  8
0
  6
Continuous
100
AcDbText
 10
434.0060914355988
 20
175.5076483788086
 30
0.0
 40
2.1
  1
2010.06.07
  7
STYLE3
100
AcDbText
  0
TEXT
  5
154A
330
18
100
AcDbEntity
  8
0
  6
Continuous
100
AcDbText
 10
454.4106454355989
 20
177.5471453788086
 30
0.0
 40
3.0
  1
株式会社　尾崎製作所
  7
STYLE3
100
AcDbText
  0
TEXT
  5
154B
330
18
100
AcDbEntity
  8
0
  6
Continuous
100
AcDbText
 10
455.2851244355988
 20
173.7595063788086
 30
0.0
 40
2.1
  1
OZAKI MFG. CO., LTD.
  7
STYLE3
100
AcDbText
  0
ENDSEC
  0
SECTION
  2
OBJECTS
  0
DICTIONARY
  5
C
330
0
100
AcDbDictionary
281
     1
  3
ACAD_COLOR
350
148C
  3
ACAD_GROUP
350
D
  3
ACAD_IMAGE_DICT
350
E58
  3
ACAD_LAYOUT
350
148F
  3
ACAD_MATERIAL
350
148B
  3
ACAD_MLINESTYLE
350
1B
  3
ACAD_PLOTSETTINGS
350
1490
  3
ACAD_PLOTSTYLENAME
350
1489
  3
ACAD_TABLESTYLE
350
148D
  3
ACDBVARIABLEDICTIONARY
350
1025
  3
CONTENTDICTIONARY
350
1456
  0
DICTIONARY
  5
148C
102
{ACAD_REACTORS
330
C
102
}
330
C
100
AcDbDictionary
281
     1
  0
DICTIONARY
  5
D
102
{ACAD_REACTORS
330
C
102
}
330
C
100
AcDbDictionary
281
     1
  0
DICTIONARY
  5
E58
102
{ACAD_REACTORS
330
C
102
}
330
C
100
AcDbDictionary
281
     1
  3
ROGO01
350
E59
  0
DICTIONARY
  5
148F
102
{ACAD_REACTORS
330
C
102
}
330
C
100
AcDbDictionary
281
     1
  3
Model
350
1491
  3
レイアウト1
350
1492
  0
DICTIONARY
  5
148B
102
{ACAD_REACTORS
330
C
102
}
330
C
100
AcDbDictionary
281
     1
  0
DICTIONARY
  5
1B
102
{ACAD_REACTORS
330
C
102
}
330
C
100
AcDbDictionary
281
     1
  3
STANDARD
350
1C
  0
DICTIONARY
  5
1490
102
{ACAD_REACTORS
330
C
102
}
330
C
100
AcDbDictionary
281
     1
  0
ACDBDICTIONARYWDFLT
  5
1489
102
{ACAD_REACTORS
330
C
102
}
330
C
100
AcDbDictionary
281
     1
  3
Normal
350
148A
100
AcDbDictionaryWithDefault
340
148A
  0
DICTIONARY
  5
148D
102
{ACAD_REACTORS
330
C
102
}
330
C
100
AcDbDictionary
281
     1
  3
Standard
350
148E
  0
DICTIONARY
  5
1025
102
{ACAD_REACTORS
330
C
102
}
330
C
100
AcDbDictionary
281
     1
  3
CTABLESTYLE
350
1499
  3
SORTENTS
350
1026
  0
DICTIONARY
  5
1456
102
{ACAD_REACTORS
330
C
102
}
330
C
100
AcDbDictionary
281
     1
  0
IMAGEDEF
  5
E59
102
{ACAD_REACTORS
330
E58
102
}
330
E58
100
AcDbRasterImageDef
 90
        0
  1
D:\ﾃｽﾄ\rogo01.TIF
 10
3388.0
 20
4668.0
 11
0.0635
 21
0.0635
280
     1
281
     5
  0
LAYOUT
  5
1491
102
{ACAD_REACTORS
330
148F
102
}
330
148F
100
AcDbPlotSettings
  1

  2
C:\Documents and Settings\佐藤\Application Data\Autodesk\AutoCAD LT 2005\R10\jpn\plotters\PEACOCK EPSON LP-6100.pc3
  4

  6

 40
0.0
 41
0.0
 42
0.0
 43
0.0
 44
0.0
 45
0.0
 46
0.0
 47
0.0
 48
0.0
 49
0.0
140
0.0
141
0.0
142
1.0
143
1.0
 70
  1712
 72
     0
 73
     0
 74
     0
  7
AutoCAD LT 98.ctb
 75
     0
147
1.0
 76
     0
 77
     2
 78
   300
148
0.0
149
0.0
100
AcDbLayout
  1
Model
 70
     1
 71
     0
 10
0.0
 20
0.0
 11
12.0
 21
9.0
 12
0.0
 22
0.0
 32
0.0
 14
0.0
 24
0.0
 34
0.0
 15
0.0
 25
0.0
 35
0.0
146
0.0
 13
0.0
 23
0.0
 33
0.0
 16
1.0
 26
0.0
 36
0.0
 17
0.0
 27
1.0
 37
0.0
 76
     0
330
18
  0
LAYOUT
  5
1492
102
{ACAD_REACTORS
330
148F
102
}
330
148F
100
AcDbPlotSettings
  1

  2
C:\Documents and Settings\佐藤\Application Data\Autodesk\AutoCAD LT 2005\R10\jpn\plotters\PEACOCK EPSON LP-6100.pc3
  4

  6

 40
0.0
 41
0.0
 42
0.0
 43
0.0
 44
0.0
 45
0.0
 46
0.0
 47
0.0
 48
0.0
 49
0.0
140
0.0
141
0.0
142
1.0
143
1.0
 70
   688
 72
     0
 73
     0
 74
     5
  7
AutoCAD LT 98.ctb
 75
    16
147
1.0
 76
     0
 77
     2
 78
   300
148
0.0
149
0.0
100
AcDbLayout
  1
レイアウト1
 70
     1
 71
     1
 10
0.0
 20
0.0
 11
420.0
 21
297.0
 12
0.0
 22
0.0
 32
0.0
 14
1.000000000000000E+20
 24
1.000000000000000E+20
 34
1.000000000000000E+20
 15
-1.000000000000000E+20
 25
-1.000000000000000E+20
 35
-1.000000000000000E+20
146
0.0
 13
0.0
 23
0.0
 33
0.0
 16
1.0
 26
0.0
 36
0.0
 17
0.0
 27
1.0
 37
0.0
 76
     0
330
15
  0
MLINESTYLE
  5
1C
102
{ACAD_REACTORS
330
1B
102
}
330
1B
100
AcDbMlineStyle
  2
STANDARD
 70
     0
  3

 62
   256
 51
90.0
 52
90.0
 71
     2
 49
0.5
 62
   256
  6
BYLAYER
 49
-0.5
 62
   256
  6
BYLAYER
  0
ACDBPLACEHOLDER
  5
148A
102
{ACAD_REACTORS
330
1489
102
}
330
1489
  0
ACAD_PROXY_OBJECT
  5
148E
102
{ACAD_REACTORS
330
148D
102
}
330
148D
100
AcDbProxyObject
 90
      499
 91
      505
 95
  2555929
 70
     0
 93
     1849
310
4214DD185B99185C992420000000000000F83F0000000000003E0FC00000000000004901028000000C1008070000C3001FDFF8000000C1003FBFF000000182007F7FE00000030400FEFFC00000060801FDFF8000000C1003FBFF000000182000000000000000C2020B0000001820100E000186003FBFF000000182007F7FE0
310
0000030400FEFFC00000060801FDFF8000000C1003FBFF000000182007F7FE0000003040000000000000012404160000003040201C00030C007F7FE00000030400FEFFC00000060801FDFF8000000C1003FBFF000000182007F7FE00000030400FEFFC000000608050
340
F
340
F
340
F
 94
        0
  0
DICTIONARYVAR
  5
1499
102
{ACAD_REACTORS
330
1025
102
}
330
1025
100
DictionaryVariables
280
     0
  1
STANDARD
  0
DICTIONARYVAR
  5
1026
102
{ACAD_REACTORS
330
1025
102
}
330
1025
100
DictionaryVariables
280
     0
  1
96
  0
ENDSEC
  0
EOF
