  0
SECTION
  2
HEADER
  9
$ACADVER
  1
AC1018
  9
$ACADMAINTVER
 70
     0
  9
$DWGCODEPAGE
  3
ANSI_932
  9
$INSBASE
 10
0.0
 20
0.0
 30
0.0
  9
$EXTMIN
 10
236.4655427980613
 20
171.6339896600951
 30
-0.0000000000112498
  9
$EXTMAX
 10
491.8990686337299
 20
367.055777876885
 30
0.0000000000002956
  9
$LIMMIN
 10
0.0
 20
0.0
  9
$LIMMAX
 10
420.0
 20
297.0
  9
$ORTHOMODE
 70
     0
  9
$REGENMODE
 70
     1
  9
$FILLMODE
 70
     1
  9
$QTEXTMODE
 70
     0
  9
$MIRRTEXT
 70
     1
  9
$LTSCALE
 40
1.0
  9
$ATTMODE
 70
     1
  9
$TEXTSIZE
 40
1.0
  9
$TRACEWID
 40
1.0
  9
$TEXTSTYLE
  7
STYLE3
  9
$CLAYER
  8
外形線
  9
$CELTYPE
  6
BYLAYER
  9
$CECOLOR
 62
   256
  9
$CELTSCALE
 40
1.0
  9
$DISPSILH
 70
     0
  9
$DIMSCALE
 40
1.0
  9
$DIMASZ
 40
2.5
  9
$DIMEXO
 40
0.0
  9
$DIMDLI
 40
3.75
  9
$DIMRND
 40
0.0
  9
$DIMDLE
 40
0.0
  9
$DIMEXE
 40
1.25
  9
$DIMTP
 40
0.0
  9
$DIMTM
 40
0.0
  9
$DIMTXT
 40
2.5
  9
$DIMCEN
 40
2.5
  9
$DIMTSZ
 40
0.0
  9
$DIMTOL
 70
     0
  9
$DIMLIM
 70
     0
  9
$DIMTIH
 70
     0
  9
$DIMTOH
 70
     0
  9
$DIMSE1
 70
     0
  9
$DIMSE2
 70
     0
  9
$DIMTAD
 70
     1
  9
$DIMZIN
 70
     8
  9
$DIMBLK
  1

  9
$DIMASO
 70
     1
  9
$DIMSHO
 70
     1
  9
$DIMPOST
  1

  9
$DIMAPOST
  1

  9
$DIMALT
 70
     0
  9
$DIMALTD
 70
     4
  9
$DIMALTF
 40
0.0394
  9
$DIMLFAC
 40
1.0
  9
$DIMTOFL
 70
     1
  9
$DIMTVP
 40
0.0
  9
$DIMTIX
 70
     0
  9
$DIMSOXD
 70
     0
  9
$DIMSAH
 70
     1
  9
$DIMBLK1
  1
OPEN
  9
$DIMBLK2
  1
OPEN
  9
$DIMSTYLE
  2
STYLE2
  9
$DIMCLRD
 70
     2
  9
$DIMCLRE
 70
     2
  9
$DIMCLRT
 70
     6
  9
$DIMTFAC
 40
1.0
  9
$DIMGAP
 40
0.625
  9
$DIMJUST
 70
     0
  9
$DIMSD1
 70
     0
  9
$DIMSD2
 70
     0
  9
$DIMTOLJ
 70
     1
  9
$DIMTZIN
 70
     0
  9
$DIMALTZ
 70
     0
  9
$DIMALTTZ
 70
     0
  9
$DIMUPT
 70
     0
  9
$DIMDEC
 70
     1
  9
$DIMTDEC
 70
     4
  9
$DIMALTU
 70
     8
  9
$DIMALTTD
 70
     4
  9
$DIMTXSTY
  7
STYLE3
  9
$DIMAUNIT
 70
     0
  9
$DIMADEC
 70
     0
  9
$DIMALTRND
 40
0.0
  9
$DIMAZIN
 70
     0
  9
$DIMDSEP
 70
    46
  9
$DIMATFIT
 70
     3
  9
$DIMFRAC
 70
     0
  9
$DIMLDRBLK
  1

  9
$DIMLUNIT
 70
     2
  9
$DIMLWD
 70
    -2
  9
$DIMLWE
 70
    -2
  9
$DIMTMOVE
 70
     0
  9
$LUNITS
 70
     2
  9
$LUPREC
 70
     4
  9
$SKETCHINC
 40
1.0
  9
$FILLETRAD
 40
0.0
  9
$AUNITS
 70
     0
  9
$AUPREC
 70
     0
  9
$MENU
  1
.
  9
$ELEVATION
 40
0.0
  9
$PELEVATION
 40
0.0
  9
$THICKNESS
 40
0.0
  9
$LIMCHECK
 70
     0
  9
$CHAMFERA
 40
0.2
  9
$CHAMFERB
 40
0.2
  9
$CHAMFERC
 40
20.0
  9
$CHAMFERD
 40
0.0
  9
$SKPOLY
 70
     0
  9
$TDCREATE
 40
2450717.578556713
  9
$TDUCREATE
 40
2450717.203556713
  9
$TDUPDATE
 40
2455355.677232882
  9
$TDUUPDATE
 40
2455355.302232882
  9
$TDINDWG
 40
0.5612280671
  9
$TDUSRTIMER
 40
0.5612280671
  9
$USRTIMER
 70
     1
  9
$ANGBASE
 50
0.0
  9
$ANGDIR
 70
     0
  9
$PDMODE
 70
     0
  9
$PDSIZE
 40
0.0
  9
$PLINEWID
 40
0.0
  9
$SPLFRAME
 70
     0
  9
$SPLINETYPE
 70
     6
  9
$SPLINESEGS
 70
     8
  9
$HANDSEED
  5
1BBD
  9
$SURFTAB1
 70
     6
  9
$SURFTAB2
 70
     6
  9
$SURFTYPE
 70
     6
  9
$SURFU
 70
     6
  9
$SURFV
 70
     6
  9
$UCSBASE
  2

  9
$UCSNAME
  2

  9
$UCSORG
 10
0.0
 20
0.0
 30
0.0
  9
$UCSXDIR
 10
1.0
 20
0.0
 30
0.0
  9
$UCSYDIR
 10
0.0
 20
1.0
 30
0.0
  9
$UCSORTHOREF
  2

  9
$UCSORTHOVIEW
 70
     0
  9
$UCSORGTOP
 10
0.0
 20
0.0
 30
0.0
  9
$UCSORGBOTTOM
 10
0.0
 20
0.0
 30
0.0
  9
$UCSORGLEFT
 10
0.0
 20
0.0
 30
0.0
  9
$UCSORGRIGHT
 10
0.0
 20
0.0
 30
0.0
  9
$UCSORGFRONT
 10
0.0
 20
0.0
 30
0.0
  9
$UCSORGBACK
 10
0.0
 20
0.0
 30
0.0
  9
$PUCSBASE
  2

  9
$PUCSNAME
  2

  9
$PUCSORG
 10
0.0
 20
0.0
 30
0.0
  9
$PUCSXDIR
 10
1.0
 20
0.0
 30
0.0
  9
$PUCSYDIR
 10
0.0
 20
1.0
 30
0.0
  9
$PUCSORTHOREF
  2

  9
$PUCSORTHOVIEW
 70
     0
  9
$PUCSORGTOP
 10
0.0
 20
0.0
 30
0.0
  9
$PUCSORGBOTTOM
 10
0.0
 20
0.0
 30
0.0
  9
$PUCSORGLEFT
 10
0.0
 20
0.0
 30
0.0
  9
$PUCSORGRIGHT
 10
0.0
 20
0.0
 30
0.0
  9
$PUCSORGFRONT
 10
0.0
 20
0.0
 30
0.0
  9
$PUCSORGBACK
 10
0.0
 20
0.0
 30
0.0
  9
$USERI1
 70
     0
  9
$USERI2
 70
     0
  9
$USERI3
 70
     0
  9
$USERI4
 70
     0
  9
$USERI5
 70
     0
  9
$USERR1
 40
0.0
  9
$USERR2
 40
0.0
  9
$USERR3
 40
0.0
  9
$USERR4
 40
0.0
  9
$USERR5
 40
0.0
  9
$WORLDVIEW
 70
     1
  9
$SHADEDGE
 70
     3
  9
$SHADEDIF
 70
    70
  9
$TILEMODE
 70
     1
  9
$MAXACTVP
 70
    48
  9
$PINSBASE
 10
0.0
 20
0.0
 30
0.0
  9
$PLIMCHECK
 70
     0
  9
$PEXTMIN
 10
1.000000000000000E+20
 20
1.000000000000000E+20
 30
1.000000000000000E+20
  9
$PEXTMAX
 10
-1.000000000000000E+20
 20
-1.000000000000000E+20
 30
-1.000000000000000E+20
  9
$PLIMMIN
 10
0.0
 20
0.0
  9
$PLIMMAX
 10
420.0
 20
297.0
  9
$UNITMODE
 70
     0
  9
$VISRETAIN
 70
     1
  9
$PLINEGEN
 70
     0
  9
$PSLTSCALE
 70
     1
  9
$TREEDEPTH
 70
  3020
  9
$CMLSTYLE
  2
STANDARD
  9
$CMLJUST
 70
     0
  9
$CMLSCALE
 40
20.0
  9
$PROXYGRAPHICS
 70
     1
  9
$MEASUREMENT
 70
     1
  9
$CELWEIGHT
370
    -1
  9
$ENDCAPS
280
     0
  9
$JOINSTYLE
280
     0
  9
$LWDISPLAY
290
     0
  9
$INSUNITS
 70
     0
  9
$HYPERLINKBASE
  1

  9
$STYLESHEET
  1

  9
$XEDIT
290
     1
  9
$CEPSNTYPE
380
     0
  9
$PSTYLEMODE
290
     1
  9
$FINGERPRINTGUID
  2
{FA64CEAC-6F73-4C9B-AA83-31092A2EFC26}
  9
$VERSIONGUID
  2
{07669432-6E9A-45A2-838C-F47CC74FF98E}
  9
$EXTNAMES
290
     1
  9
$PSVPSCALE
 40
0.0
  9
$OLESTARTUP
290
     0
  9
$SORTENTS
280
    96
  9
$INDEXCTL
280
     0
  9
$HIDETEXT
280
     0
  9
$XCLIPFRAME
290
     0
  9
$HALOGAP
280
     0
  9
$OBSCOLOR
 70
   257
  9
$OBSLTYPE
280
     0
  9
$INTERSECTIONDISPLAY
280
     0
  9
$INTERSECTIONCOLOR
 70
   257
  9
$DIMASSOC
280
     1
  9
$PROJECTNAME
  1

  0
ENDSEC
  0
SECTION
  2
CLASSES
  0
CLASS
  1
HATCH
  2
AcDbHatch
  3
ObjectDBX Classes
 90
        0
 91
       23
280
     0
281
     1
  0
CLASS
  1
LWPOLYLINE
  2
AcDbPolyline
  3
ObjectDBX Classes
 90
        0
 91
        1
280
     0
281
     1
  0
CLASS
  1
IMAGEDEF
  2
AcDbRasterImageDef
  3
ISM
 90
        0
 91
        1
280
     0
281
     0
  0
CLASS
  1
DICTIONARYVAR
  2
AcDbDictionaryVar
  3
ObjectDBX Classes
 90
        0
 91
        2
280
     0
281
     0
  0
CLASS
  1
ACDBDICTIONARYWDFLT
  2
AcDbDictionaryWithDefault
  3
ObjectDBX Classes
 90
        0
 91
        1
280
     0
281
     0
  0
CLASS
  1
TABLESTYLE
  2
AcDbTableStyle
  3
ObjectDBX Classes
 90
     2047
 91
        1
280
     0
281
     0
  0
ENDSEC
  0
SECTION
  2
TABLES
  0
TABLE
  2
VPORT
  5
8
330
0
100
AcDbSymbolTable
 70
     2
  0
VPORT
  5
1BBC
330
8
100
AcDbSymbolTableRecord
100
AcDbViewportTableRecord
  2
*Active
 70
     0
 10
0.0
 20
0.0
 11
1.0
 21
1.0
 12
364.1823057158956
 22
269.3448837684901
 13
0.0
 23
0.0
 14
10.0
 24
10.0
 15
10.0
 25
10.0
 16
0.0
 26
0.0
 36
1.0
 17
0.0
 27
0.0
 37
0.0
 40
196.9078854655868
 41
1.530456852791878
 42
50.0
 43
0.0
 44
0.0
 50
0.0
 51
0.0
 71
     0
 72
   100
 73
     1
 74
     1
 75
     0
 76
     0
 77
     0
 78
     0
281
     0
 65
     1
110
0.0
120
0.0
130
0.0
111
1.0
121
0.0
131
0.0
112
0.0
122
1.0
132
0.0
 79
     0
146
0.0
  0
ENDTAB
  0
TABLE
  2
LTYPE
  5
5
330
0
100
AcDbSymbolTable
 70
     4
  0
LTYPE
  5
12
330
5
100
AcDbSymbolTableRecord
100
AcDbLinetypeTableRecord
  2
BYBLOCK
 70
     0
  3

 72
    65
 73
     0
 40
0.0
  0
LTYPE
  5
13
330
5
100
AcDbSymbolTableRecord
100
AcDbLinetypeTableRecord
  2
BYLAYER
 70
     0
  3

 72
    65
 73
     0
 40
0.0
  0
LTYPE
  5
14
330
5
100
AcDbSymbolTableRecord
100
AcDbLinetypeTableRecord
  2
CONTINUOUS
 70
     0
  3
Solid line
 72
    65
 73
     0
 40
0.0
  0
LTYPE
  5
22
330
5
100
AcDbSymbolTableRecord
100
AcDbLinetypeTableRecord
  2
CENTER2
 70
     0
  3
Center (.5x) ___ _ ___ _ ___ _ ___ _ ___ _ ___
 72
    65
 73
     4
 40
28.575
 49
19.05
 74
     0
 49
-3.174999999999999
 74
     0
 49
3.174999999999999
 74
     0
 49
-3.174999999999999
 74
     0
  0
LTYPE
  5
24
330
5
100
AcDbSymbolTableRecord
100
AcDbLinetypeTableRecord
  2
PHANTOM2
 70
     0
  3
Phantom (.5x) ___ _ _ ___ _ _ ___ _ _ ___ _ _
 72
    65
 73
     6
 40
31.75
 49
15.875
 74
     0
 49
-3.174999999999999
 74
     0
 49
3.174999999999999
 74
     0
 49
-3.174999999999999
 74
     0
 49
3.174999999999999
 74
     0
 49
-3.174999999999999
 74
     0
  0
ENDTAB
  0
TABLE
  2
LAYER
  5
2
330
0
100
AcDbSymbolTable
 70
    16
  0
LAYER
  5
E
330
2
100
AcDbSymbolTableRecord
100
AcDbLayerTableRecord
  2
0
 70
     0
 62
     7
  6
CONTINUOUS
370
    -3
390
1B4A
  0
LAYER
  5
25
330
2
100
AcDbSymbolTableRecord
100
AcDbLayerTableRecord
  2
外形線
 70
     0
 62
     7
  6
CONTINUOUS
370
    -3
390
1B4A
  0
LAYER
  5
27
330
2
100
AcDbSymbolTableRecord
100
AcDbLayerTableRecord
  2
中心線
 70
     0
 62
     4
  6
CENTER2
370
    -3
390
1B4A
  0
LAYER
  5
29
330
2
100
AcDbSymbolTableRecord
100
AcDbLayerTableRecord
  2
想像線
 70
     0
 62
     1
  6
PHANTOM2
370
    -3
390
1B4A
  0
LAYER
  5
2A
330
2
100
AcDbSymbolTableRecord
100
AcDbLayerTableRecord
  2
ﾊｯﾁﾝｸ
 70
     0
 62
     4
  6
CONTINUOUS
370
    -3
390
1B4A
  0
LAYER
  5
2B
330
2
100
AcDbSymbolTableRecord
100
AcDbLayerTableRecord
  2
文字
 70
     0
 62
     6
  6
CONTINUOUS
370
    -3
390
1B4A
  0
LAYER
  5
2C
330
2
100
AcDbSymbolTableRecord
100
AcDbLayerTableRecord
  2
目盛
 70
     0
 62
    70
  6
CONTINUOUS
370
    -3
390
1B4A
  0
LAYER
  5
2D
330
2
100
AcDbSymbolTableRecord
100
AcDbLayerTableRecord
  2
針
 70
     0
 62
     5
  6
CONTINUOUS
370
    -3
390
1B4A
  0
LAYER
  5
53
330
2
100
AcDbSymbolTableRecord
100
AcDbLayerTableRecord
  2
DEFPOINTS
 70
     0
 62
     7
  6
CONTINUOUS
290
     0
370
    -3
390
1B4A
  0
LAYER
  5
A5
330
2
100
AcDbSymbolTableRecord
100
AcDbLayerTableRecord
  2
C
 70
     0
 62
     7
  6
CONTINUOUS
370
    -3
390
1B4A
  0
LAYER
  5
E00
330
2
100
AcDbSymbolTableRecord
100
AcDbLayerTableRecord
  2
ROGO
 70
     0
 62
     6
  6
CONTINUOUS
370
    -3
390
1B4A
  0
LAYER
  5
17DB
330
2
100
AcDbSymbolTableRecord
100
AcDbLayerTableRecord
  2
寸法線
 70
     0
 62
     2
  6
CONTINUOUS
370
    -3
390
1B4A
  0
ENDTAB
  0
TABLE
  2
STYLE
  5
3
330
0
100
AcDbSymbolTable
 70
     4
  0
STYLE
  5
F
330
3
100
AcDbSymbolTableRecord
100
AcDbTextStyleTableRecord
  2
STANDARD
 70
     0
 40
0.0
 41
1.0
 50
0.0
 71
     0
 42
2.5
  3
txt
  4

  0
STYLE
  5
3F
330
3
100
AcDbSymbolTableRecord
100
AcDbTextStyleTableRecord
  2
STYLE3
 70
     0
 40
0.0
 41
1.0
 50
0.0
 71
     0
 42
1.0
  3
romans.shx
  4
bigfont.shx
  0
ENDTAB
  0
TABLE
  2
VIEW
  5
6
330
0
100
AcDbSymbolTable
 70
     0
  0
ENDTAB
  0
TABLE
  2
UCS
  5
7
330
0
100
AcDbSymbolTable
 70
     0
  0
ENDTAB
  0
TABLE
  2
APPID
  5
9
330
0
100
AcDbSymbolTable
 70
     1
  0
APPID
  5
10
330
9
100
AcDbSymbolTableRecord
100
AcDbRegAppTableRecord
  2
ACAD
 70
     0
  0
ENDTAB
  0
TABLE
  2
DIMSTYLE
  5
A
330
0
100
AcDbSymbolTable
 70
     3
100
AcDbDimStyleTable
 71
     1
340
66
  0
DIMSTYLE
105
1D
330
A
100
AcDbSymbolTableRecord
100
AcDbDimStyleTableRecord
  2
STANDARD
 70
     0
 41
2.5
 42
0.625
 43
3.75
 44
1.25
 73
     0
 74
     0
 77
     1
 78
     8
140
2.5
141
2.5
143
0.0394
147
0.625
171
     4
172
     1
273
     8
274
     4
277
     6
340
F
  0
DIMSTYLE
105
66
330
A
100
AcDbSymbolTableRecord
100
AcDbDimStyleTableRecord
  2
STYLE2
 70
     0
 41
2.5
 42
0.0
 43
3.75
 44
1.25
 73
     0
 74
     0
 77
     1
 78
     8
140
2.5
141
2.5
143
0.0394
147
0.625
171
     4
172
     1
173
     1
176
     2
177
     2
178
     6
271
     1
273
     8
274
     4
340
3F
341
45
343
45
344
45
  0
ENDTAB
  0
TABLE
  2
BLOCK_RECORD
  5
1
330
0
100
AcDbSymbolTable
 70
    12
  0
BLOCK_RECORD
  5
18
330
1
100
AcDbSymbolTableRecord
100
AcDbBlockTableRecord
  2
*MODEL_SPACE
340
1B51
  0
BLOCK_RECORD
  5
15
330
1
100
AcDbSymbolTableRecord
100
AcDbBlockTableRecord
  2
*PAPER_SPACE
340
1B52
  0
BLOCK_RECORD
  5
45
330
1
100
AcDbSymbolTableRecord
100
AcDbBlockTableRecord
  2
_OPEN
340
0
102
{BLKREFS
331
836
331
837
331
875
331
876
331
87E
331
87F
331
F35
331
F36
331
FD7
331
FD8
331
FE0
331
FE1
331
10CC
331
10CD
331
16A7
331
16A8
331
16B0
331
16B1
331
16B9
331
16BA
331
16EB
331
16EC
331
1700
331
1701
331
1708
331
1709
331
1710
331
1711
331
1719
331
171A
331
172E
331
172F
331
174E
331
174F
331
17FA
331
17FB
331
1806
331
1807
331
1812
331
1813
331
181E
331
181F
331
187A
331
187D
331
189A
331
189B
331
18B2
331
18B3
331
18CC
331
18D3
331
18D6
331
18FB
331
18FC
331
18FF
331
191D
331
195A
331
195C
331
1965
331
196E
331
1998
331
1B65
331
1B79
102
}
  0
BLOCK_RECORD
  5
1828
330
1
100
AcDbSymbolTableRecord
100
AcDbBlockTableRecord
  2
A$C5260192C
340
0
102
{BLKREFS
331
1B15
331
1877
102
}
  0
ENDTAB
  0
ENDSEC
  0
SECTION
  2
BLOCKS
  0
BLOCK
  5
19
330
18
100
AcDbEntity
  8
0
100
AcDbBlockBegin
  2
*MODEL_SPACE
 70
     0
 10
0.0
 20
0.0
 30
0.0
  3
*MODEL_SPACE
  1

  0
ENDBLK
  5
1A
330
18
100
AcDbEntity
  8
0
100
AcDbBlockEnd
  0
BLOCK
  5
16
330
15
100
AcDbEntity
 67
     1
  8
0
100
AcDbBlockBegin
  2
*PAPER_SPACE
 70
     0
 10
0.0
 20
0.0
 30
0.0
  3
*PAPER_SPACE
  1

  0
ENDBLK
  5
17
330
15
100
AcDbEntity
 67
     1
  8
0
100
AcDbBlockEnd
  0
BLOCK
  5
46
330
45
100
AcDbEntity
  8
0
100
AcDbBlockBegin
  2
_OPEN
 70
     0
 10
0.0
 20
0.0
 30
0.0
  3
_OPEN
  1

  0
LINE
  5
47
330
45
100
AcDbEntity
  8
0
  6
ByBlock
 62
     0
100
AcDbLine
 10
-1.0
 20
0.1666666666666666
 30
0.0
 11
0.0
 21
0.0
 31
0.0
  0
LINE
  5
48
330
45
100
AcDbEntity
  8
0
  6
ByBlock
 62
     0
100
AcDbLine
 10
0.0
 20
0.0
 30
0.0
 11
-1.0
 21
-0.1666666666666666
 31
0.0
  0
LINE
  5
49
330
45
100
AcDbEntity
  8
0
  6
ByBlock
 62
     0
100
AcDbLine
 10
0.0
 20
0.0
 30
0.0
 11
-1.0
 21
0.0
 31
0.0
  0
ENDBLK
  5
4A
330
45
100
AcDbEntity
  8
0
100
AcDbBlockEnd
  0
BLOCK
  5
1874
330
1828
100
AcDbEntity
  8
0
100
AcDbBlockBegin
  2
A$C5260192C
 70
     0
 10
0.0
 20
0.0
 30
0.0
  3
A$C5260192C
  1

  0
HATCH
  5
1829
330
1828
100
AcDbEntity
  8
ROGO
 62
     4
100
AcDbHatch
 10
0.0
 20
0.0
 30
0.0
210
0.0
220
0.0
230
1.0
  2
SOLID
 70
     1
 71
     1
 91
        1
 92
        7
 72
     0
 73
     1
 93
       11
 10
31.30519714109164
 20
0.0000000707679533
 10
33.10746486550738
 20
0.0000000707679533
 10
33.7440270445822
 20
1.276616493155586
 10
34.38058922365718
 20
0.0000000707678964
 10
36.18281751590433
 20
0.0000000707678964
 10
34.96340256415925
 20
2.445519462708318
 10
37.92610919330253
 20
4.891038854648456
 10
36.12388090105486
 20
4.8910388546484
 10
35.28002417224775
 20
4.35703694912479
 10
35.546294768998
 20
4.8910388546484
 10
33.74402704458214
 20
4.891038854648456
 97
       11
330
182B
330
1871
330
1870
330
186F
330
1863
330
182E
330
1865
330
1866
330
1867
330
1864
330
182A
 75
     0
 76
     1
 47
0.0514683685270805
 98
        1
 10
33.58891749706976
 20
2.792687905275101
450
        0
451
        0
460
0.0
461
0.0
452
        0
462
0.0
453
        0
470

  0
LINE
  5
182A
102
{ACAD_REACTORS
330
1829
102
}
330
1828
100
AcDbEntity
  8
ROGO
 62
     4
100
AcDbLine
 10
34.9634025641592
 20
2.445519462708318
 30
0.0
 11
37.92610919330241
 21
4.8910388546484
 31
0.0
  0
LINE
  5
182B
102
{ACAD_REACTORS
330
1829
102
}
330
1828
100
AcDbEntity
  8
ROGO
 62
     4
100
AcDbLine
 10
36.12388090105486
 20
4.8910388546484
 30
0.0
 11
37.92610919330241
 21
4.8910388546484
 31
0.0
  0
HATCH
  5
182C
330
1828
100
AcDbEntity
  8
ROGO
 62
     4
100
AcDbHatch
 10
0.0
 20
0.0
 30
0.0
210
0.0
220
0.0
230
1.0
  2
SOLID
 70
     1
 71
     1
 91
        1
 92
        7
 72
     0
 73
     1
 93
        4
 10
2.495368546491079
 20
0.4902536681340166
 10
2.273563912378563
 20
0.0000000707678964
 10
31.30519714109164
 20
0.0000000707679533
 10
31.54965341845553
 20
0.4902536681340166
 97
        4
330
182F
330
1837
330
182E
330
1863
 75
     0
 76
     1
 47
0.0514683685270805
 98
        1
 10
20.84079198367431
 20
0.3605894705757464
450
        0
451
        0
460
0.0
461
0.0
452
        0
462
0.0
453
        0
470

  0
HATCH
  5
182D
330
1828
100
AcDbEntity
  8
ROGO
 62
     4
100
AcDbHatch
 10
0.0
 20
0.0
 30
0.0
210
0.0
220
0.0
230
1.0
  2
SOLID
 70
     1
 71
     1
 91
        2
 92
        7
 72
     0
 73
     1
 93
        8
 10
16.49834772504903
 20
4.891038854648684
 10
13.99451357521968
 20
4.8910388546484
 10
11.73731760030495
 20
1.760911075435103
 10
13.47084812835573
 20
1.760911075435046
 10
13.90060427626145
 20
2.356868037877802
 10
15.8787720744047
 20
2.356868037877802
 10
16.14351977139978
 20
1.760911075435046
 10
17.88887451317589
 20
1.760911075435217
 97
        8
330
184E
330
1841
330
1842
330
184D
330
184B
330
1850
330
1830
330
1831
 92
       22
 72
     0
 73
     1
 93
        3
 10
15.59953469496065
 20
2.985441817150388
 10
14.35388104468382
 20
2.985441817150388
 10
15.12468644525597
 20
4.054342977489454
 97
        3
330
184C
330
184A
330
184F
 75
     0
 76
     1
 47
0.0128389261915577
 98
        2
 10
16.30227772699663
 20
4.140077226215055
 10
16.30227772699663
 20
4.140077226215055
450
        0
451
        0
460
0.0
461
0.0
452
        0
462
0.0
453
        0
470

  0
LINE
  5
182E
102
{ACAD_REACTORS
330
1835
330
182C
330
1829
102
}
330
1828
100
AcDbEntity
  8
ROGO
 62
     4
100
AcDbLine
 10
0.0000000440327312
 20
0.0000000707679533
 30
0.0
 11
33.10746486550744
 21
0.0000000707679533
 31
0.0
  0
LINE
  5
182F
102
{ACAD_REACTORS
330
182C
102
}
330
1828
100
AcDbEntity
  8
ROGO
 62
     4
100
AcDbLine
 10
2.461368939606586
 20
0.4902536681340166
 30
0.0
 11
31.54965341845559
 21
0.4902536681340166
 31
0.0
  0
LINE
  5
1830
102
{ACAD_REACTORS
330
182D
102
}
330
1828
100
AcDbEntity
  8
ROGO
 62
     4
100
AcDbLine
 10
17.88887451317589
 20
1.760911075435217
 30
0.0
 11
16.14351977139978
 21
1.760911075435103
 31
0.0
  0
LINE
  5
1831
102
{ACAD_REACTORS
330
182D
102
}
330
1828
100
AcDbEntity
  8
ROGO
 62
     4
100
AcDbLine
 10
16.4983477250492
 20
4.8910388546484
 30
0.0
 11
17.88887451317589
 21
1.760911075435103
 31
0.0
  0
HATCH
  5
1832
330
1828
100
AcDbEntity
  8
ROGO
 62
     4
100
AcDbHatch
 10
0.0
 20
0.0
 30
0.0
210
0.0
220
0.0
230
1.0
  2
SOLID
 70
     1
 71
     1
 91
        1
 92
        1
 93
       12
 72
     1
 10
8.53449174049382
 20
4.8910388546484
 11
12.76811978252721
 21
4.891038854648684
 72
     1
 10
12.76811978252721
 20
4.8910388546484
 11
12.41334550002074
 21
4.174019956398183
 72
     1
 10
12.41334550002074
 20
4.174019956398183
 11
10.18825758253433
 21
4.174019956398183
 72
     1
 10
10.18825758253433
 20
4.174019956398183
 11
9.910868179894748
 21
3.613400278833125
 72
     1
 10
9.910868179894748
 20
3.613400278833125
 11
12.13595609738098
 21
3.613400278833125
 72
     1
 10
12.13595609738098
 20
3.613400278833125
 11
11.85151925081391
 21
3.038537318343969
 72
     1
 10
11.85151925081391
 20
3.038537318343969
 11
9.626431333327786
 21
3.038537318343969
 72
     1
 10
9.626431333327786
 20
3.038537318343969
 11
9.349030187354003
 21
2.477893906836982
 72
     1
 10
9.349030187354287
 20
2.477893906836982
 11
11.57411810484041
 21
2.477893906836982
 72
     1
 10
11.57411810484041
 20
2.477893906836982
 11
11.21936166787515
 21
1.760911075435103
 72
     1
 10
11.21936166787515
 20
1.760911075435103
 11
6.98573362584176
 21
1.760911075435103
 72
     1
 10
6.98573362584176
 20
1.760911075435103
 11
8.53449174049382
 21
4.8910388546484
 97
       12
330
1840
330
1851
330
183F
330
1847
330
1843
330
1849
330
1845
330
1848
330
1844
330
1846
330
1833
330
1834
 75
     0
 76
     1
 98
        1
 10
-164.6407470224872
 20
-211.5432907659344
450
        0
451
        0
460
0.0
461
0.0
452
        0
462
0.0
453
        0
470

  0
LINE
  5
1833
102
{ACAD_REACTORS
330
1832
102
}
330
1828
100
AcDbEntity
  8
ROGO
 62
     4
100
AcDbLine
 10
6.98573362584176
 20
1.760911075435103
 30
0.0
 11
11.21936166787515
 21
1.760911075435103
 31
0.0
  0
LINE
  5
1834
102
{ACAD_REACTORS
330
1832
102
}
330
1828
100
AcDbEntity
  8
ROGO
 62
     4
100
AcDbLine
 10
8.53449174049382
 20
4.8910388546484
 30
0.0
 11
6.98573362584176
 21
1.760911075435103
 31
0.0
  0
HATCH
  5
1835
330
1828
100
AcDbEntity
  8
ROGO
 62
     4
100
AcDbHatch
 10
0.0
 20
0.0
 30
0.0
210
0.0
220
0.0
230
1.0
  2
SOLID
 70
     1
 71
     1
 91
        2
 92
        5
 93
        6
 72
     1
 10
0.0000000440327881
 20
0.0000000707679533
 11
2.273563912378619
 21
0.0000000707679533
 72
     1
 10
2.273563912378619
 20
0.0000000707679533
 11
3.070250001360363
 21
1.76091107543516
 72
     1
 10
3.070250001360363
 20
1.76091107543516
 11
5.195565907806155
 21
1.76091107543516
 72
     4
 94
        3
 73
     0
 74
     0
 95
       18
 96
       14
 40
0.108740278791501
 40
0.108740278791501
 40
0.108740278791501
 40
0.108740278791501
 40
0.6623149649549278
 40
1.384304701649787
 40
2.097394834876493
 40
2.774073369849618
 40
3.428974823686337
 40
4.005208313035923
 40
4.455173659284313
 40
4.720999734343524
 40
5.086034088486724
 40
5.569973738255373
 40
6.060470601257719
 40
6.060470601257719
 40
6.060470601257719
 40
6.060470601257719
 10
5.195565907805757
 20
1.760911075435103
 10
5.345142130083047
 20
1.762024924272395
 10
5.689800425361738
 20
1.764591490238501
 10
6.171974683526514
 20
2.022179574039114
 10
6.629213646579501
 20
2.35032802518333
 10
6.997488525990206
 20
2.760315279085716
 10
7.226934871521621
 20
3.22906546330978
 10
7.262475385203458
 20
3.67831945894818
 10
7.240778774770262
 20
4.033673784324719
 10
7.085745595521586
 20
4.281364571131234
 10
6.9245696872091
 20
4.532745390040645
 10
6.629027572269933
 20
4.750500792296293
 10
6.3868736026659
 20
4.84591002807673
 10
6.263733384055569
 20
4.891038854648684
 72
     1
 10
6.263733384055967
 20
4.8910388546484
 11
2.420040547144708
 21
4.8910388546484
 72
     1
 10
2.420040547144708
 20
4.8910388546484
 11
0.0000000440327881
 21
0.0000000707679533
 97
        6
330
1839
330
1838
330
1836
330
182E
330
1837
330
183E
 92
       20
 93
        4
 72
     1
 10
3.562158559960323
 20
2.848173933552345
 11
3.938776007070998
 21
3.680609464106794
 72
     1
 10
3.938776007070998
 20
3.680609464106794
 11
4.906522334458657
 21
3.68060946410668
 72
     4
 94
        3
 73
     0
 74
     0
 95
       15
 96
       11
 40
0.0
 40
0.0
 40
0.0
 40
0.0
 40
0.2923663550109739
 40
0.425669331585371
 40
0.5769770842444162
 40
0.680054960360229
 40
0.8430736905061507
 40
0.9407174566869015
 40
1.108242162553817
 40
1.164083766816419
 40
1.164083766816419
 40
1.164083766816419
 40
1.164083766816419
 10
4.906522334458145
 20
3.680609464106737
 10
5.044367041300688
 20
3.681240866443545
 10
5.2450613524569
 20
3.682160153516065
 10
5.354808149721861
 20
3.433900710229067
 10
5.305614402442074
 20
3.274060356752727
 10
5.243773852757101
 20
3.109954132369864
 10
5.134487595503799
 20
2.998441477828066
 10
4.98780943079123
 20
2.891035993067191
 10
4.849191555693266
 20
2.878034078197515
 10
4.759036188323591
 20
2.854145964768292
 10
4.73649733569232
 20
2.848173933552345
 72
     1
 10
4.736497335692433
 20
2.848173933552345
 11
3.562158559960323
 21
2.848173933552345
 97
        4
330
183B
330
183C
330
183A
330
183D
 75
     0
 76
     1
 47
0.0514683685270805
 98
        2
 10
2.4405844890166
 20
3.369795989649787
 10
2.4405844890166
 20
3.369795989649787
450
        0
451
        0
460
0.0
461
0.0
452
        0
462
0.0
453
        0
470

  0
LINE
  5
1836
102
{ACAD_REACTORS
330
1835
102
}
330
1828
100
AcDbEntity
  8
ROGO
 62
     4
100
AcDbLine
 10
2.420040547144708
 20
4.8910388546484
 30
0.0
 11
0.0000000440327312
 21
0.0000000707678396
 31
0.0
  0
LINE
  5
1837
102
{ACAD_REACTORS
330
182C
330
1835
102
}
330
1828
100
AcDbEntity
  8
ROGO
 62
     4
100
AcDbLine
 10
3.070250001360363
 20
1.760911075435103
 30
0.0
 11
2.273563912378619
 21
0.0000000707679533
 31
0.0
  0
LINE
  5
1838
102
{ACAD_REACTORS
330
1835
102
}
330
1828
100
AcDbEntity
  8
ROGO
 62
     4
100
AcDbLine
 10
2.420040547144708
 20
4.8910388546484
 30
0.0
 11
6.263733384055569
 21
4.8910388546484
 31
0.0
  0
SPLINE
  5
1839
102
{ACAD_REACTORS
330
1835
102
}
330
1828
100
AcDbEntity
  8
ROGO
 62
     4
100
AcDbSpline
210
0.0
220
0.0
230
1.0
 70
     8
 71
     3
 72
    18
 73
    14
 74
     0
 42
0.0000000001
 43
0.0000000001
 40
0.1087402787915014
 40
0.1087402787915014
 40
0.1087402787915014
 40
0.1087402787915014
 40
0.5992371417938475
 40
1.083176791562496
 40
1.448211145705696
 40
1.714037220764907
 40
2.164002567013297
 40
2.740236056362883
 40
3.395137510199602
 40
4.071816045172726
 40
4.784906178399433
 40
5.506895915094292
 40
6.060470601257719
 40
6.060470601257719
 40
6.060470601257719
 40
6.060470601257719
 10
6.263733384055569
 20
4.891038854648684
 30
0.0
 10
6.3868736026659
 20
4.84591002807673
 30
0.0
 10
6.629027572269933
 20
4.750500792296293
 30
0.0
 10
6.9245696872091
 20
4.532745390040645
 30
0.0
 10
7.085745595521586
 20
4.281364571131234
 30
0.0
 10
7.240778774770262
 20
4.033673784324719
 30
0.0
 10
7.262475385203458
 20
3.67831945894818
 30
0.0
 10
7.226934871521621
 20
3.22906546330978
 30
0.0
 10
6.997488525990206
 20
2.760315279085716
 30
0.0
 10
6.629213646579501
 20
2.35032802518333
 30
0.0
 10
6.171974683526514
 20
2.022179574039114
 30
0.0
 10
5.689800425361738
 20
1.764591490238501
 30
0.0
 10
5.345142130083047
 20
1.762024924272395
 30
0.0
 10
5.195565907805757
 20
1.760911075435103
 30
0.0
  0
SPLINE
  5
183A
102
{ACAD_REACTORS
330
1835
102
}
330
1828
100
AcDbEntity
  8
ROGO
 62
     4
100
AcDbSpline
210
0.0
220
0.0
230
1.0
 70
     8
 71
     3
 72
    15
 73
    11
 74
     9
 42
0.0000000001
 43
0.0000000001
 44
0.0000000001
 40
0.0
 40
0.0
 40
0.0
 40
0.0
 40
0.3670176361697508
 40
0.5343574908356218
 40
0.7242993660318959
 40
0.853696602700978
 40
1.05833967453222
 40
1.180915284331838
 40
1.391214863929486
 40
1.461314768535868
 40
1.461314768535868
 40
1.461314768535868
 40
1.461314768535868
 10
4.906522334458145
 20
3.680609464106737
 30
0.0
 10
5.04436704130062
 20
3.681240866443427
 30
0.0
 10
5.245061352456962
 20
3.682160153516011
 30
0.0
 10
5.354808149721805
 20
3.433900710229088
 30
0.0
 10
5.305614402442158
 20
3.274060356752695
 30
0.0
 10
5.24377385275703
 20
3.109954132369909
 30
0.0
 10
5.134487595503794
 20
2.998441477828037
 30
0.0
 10
4.987809430791313
 20
2.891035993067266
 30
0.0
 10
4.849191555693233
 20
2.878034078197464
 30
0.0
 10
4.759036188323607
 20
2.854145964768319
 30
0.0
 10
4.73649733569232
 20
2.848173933552345
 30
0.0
 11
4.906522334458145
 21
3.680609464106737
 31
0.0
 11
5.26357512516995
 21
3.595666836972043
 31
0.0
 11
5.3315853202119
 21
3.442770661970996
 31
0.0
 11
5.29758071152969
 21
3.255897436116015
 31
0.0
 11
5.24657330966778
 21
3.1369777581275
 31
0.0
 11
5.110552919583881
 21
2.984081583126453
 31
0.0
 11
5.008538115859835
 21
2.916127481418811
 31
0.0
 11
4.804507530734269
 21
2.865162458979227
 31
0.0
 11
4.73649733569232
 21
2.848173933552345
 31
0.0
  0
LINE
  5
183B
102
{ACAD_REACTORS
330
1835
102
}
330
1828
100
AcDbEntity
  8
ROGO
 62
     4
100
AcDbLine
 10
3.938776007070941
 20
3.680609464106737
 30
0.0
 11
3.562158559960323
 21
2.848173933552345
 31
0.0
  0
LINE
  5
183C
102
{ACAD_REACTORS
330
1835
102
}
330
1828
100
AcDbEntity
  8
ROGO
 62
     4
100
AcDbLine
 10
4.906522334458486
 20
3.680609464106737
 30
0.0
 11
3.938776007070941
 21
3.680609464106737
 31
0.0
  0
LINE
  5
183D
102
{ACAD_REACTORS
330
1835
102
}
330
1828
100
AcDbEntity
  8
ROGO
 62
     4
100
AcDbLine
 10
4.736497335692604
 20
2.848173933552345
 30
0.0
 11
3.562158559960323
 21
2.848173933552345
 31
0.0
  0
LINE
  5
183E
102
{ACAD_REACTORS
330
1835
102
}
330
1828
100
AcDbEntity
  8
ROGO
 62
     4
100
AcDbLine
 10
5.195565908542619
 20
1.760911075435103
 30
0.0
 11
3.070250001360363
 21
1.760911075435103
 31
0.0
  0
LINE
  5
183F
102
{ACAD_REACTORS
330
1832
102
}
330
1828
100
AcDbEntity
  8
ROGO
 62
     4
100
AcDbLine
 10
10.18825758253433
 20
4.174019956398183
 30
0.0
 11
12.41334550002074
 21
4.174019956398183
 31
0.0
  0
LINE
  5
1840
102
{ACAD_REACTORS
330
1832
102
}
330
1828
100
AcDbEntity
  8
ROGO
 62
     4
100
AcDbLine
 10
8.53449174049382
 20
4.8910388546484
 30
0.0
 11
12.76811978252721
 21
4.891038854648684
 31
0.0
  0
LINE
  5
1841
102
{ACAD_REACTORS
330
182D
102
}
330
1828
100
AcDbEntity
  8
ROGO
 62
     4
100
AcDbLine
 10
13.99451357521968
 20
4.8910388546484
 30
0.0
 11
11.73731760030495
 21
1.760911075435103
 31
0.0
  0
LINE
  5
1842
102
{ACAD_REACTORS
330
182D
102
}
330
1828
100
AcDbEntity
  8
ROGO
 62
     4
100
AcDbLine
 10
11.73731760030495
 20
1.760911075435103
 30
0.0
 11
13.4708481283555
 21
1.760911075435103
 31
0.0
  0
LINE
  5
1843
102
{ACAD_REACTORS
330
1832
102
}
330
1828
100
AcDbEntity
  8
ROGO
 62
     4
100
AcDbLine
 10
9.910868179894748
 20
3.613400278833125
 30
0.0
 11
12.13595609738098
 21
3.613400278833125
 31
0.0
  0
LINE
  5
1844
102
{ACAD_REACTORS
330
1832
102
}
330
1828
100
AcDbEntity
  8
ROGO
 62
     4
100
AcDbLine
 10
9.349030187354287
 20
2.477893906836982
 30
0.0
 11
11.57411810484041
 21
2.477893906836982
 31
0.0
  0
LINE
  5
1845
102
{ACAD_REACTORS
330
1832
102
}
330
1828
100
AcDbEntity
  8
ROGO
 62
     4
100
AcDbLine
 10
9.626431333327786
 20
3.038537318343969
 30
0.0
 11
11.85151925081391
 21
3.038537318343969
 31
0.0
  0
LINE
  5
1846
102
{ACAD_REACTORS
330
1832
102
}
330
1828
100
AcDbEntity
  8
ROGO
 62
     4
100
AcDbLine
 10
11.57411810484041
 20
2.477893906836982
 30
0.0
 11
11.21936166787515
 21
1.760911075435103
 31
0.0
  0
LINE
  5
1847
102
{ACAD_REACTORS
330
1832
102
}
330
1828
100
AcDbEntity
  8
ROGO
 62
     4
100
AcDbLine
 10
10.18825758253433
 20
4.174019956398183
 30
0.0
 11
9.910868179894748
 21
3.613400278833125
 31
0.0
  0
LINE
  5
1848
102
{ACAD_REACTORS
330
1832
102
}
330
1828
100
AcDbEntity
  8
ROGO
 62
     4
100
AcDbLine
 10
9.626431333327786
 20
3.038537318343969
 30
0.0
 11
9.349030187354003
 21
2.477893906836982
 31
0.0
  0
LINE
  5
1849
102
{ACAD_REACTORS
330
1832
102
}
330
1828
100
AcDbEntity
  8
ROGO
 62
     4
100
AcDbLine
 10
12.13595609738098
 20
3.613400278833125
 30
0.0
 11
11.85151925081391
 21
3.038537318343969
 31
0.0
  0
LINE
  5
184A
102
{ACAD_REACTORS
330
182D
102
}
330
1828
100
AcDbEntity
  8
ROGO
 62
     4
100
AcDbLine
 10
15.12468644525586
 20
4.054342977489284
 30
0.0
 11
14.35388104468382
 21
2.985441817150388
 31
0.0
  0
LINE
  5
184B
102
{ACAD_REACTORS
330
182D
102
}
330
1828
100
AcDbEntity
  8
ROGO
 62
     4
100
AcDbLine
 10
13.90060427626145
 20
2.356868037877802
 30
0.0
 11
15.8787720744047
 21
2.356868037877802
 31
0.0
  0
LINE
  5
184C
102
{ACAD_REACTORS
330
182D
102
}
330
1828
100
AcDbEntity
  8
ROGO
 62
     4
100
AcDbLine
 10
14.35388104468382
 20
2.985441817150388
 30
0.0
 11
15.59953469496065
 21
2.985441817150388
 31
0.0
  0
LINE
  5
184D
102
{ACAD_REACTORS
330
182D
102
}
330
1828
100
AcDbEntity
  8
ROGO
 62
     4
100
AcDbLine
 10
13.90060427626145
 20
2.356868037877802
 30
0.0
 11
13.47084812835578
 21
1.760911075435217
 31
0.0
  0
LINE
  5
184E
102
{ACAD_REACTORS
330
182D
102
}
330
1828
100
AcDbEntity
  8
ROGO
 62
     4
100
AcDbLine
 10
13.99451357521968
 20
4.8910388546484
 30
0.0
 11
16.4983477250492
 21
4.891038854648684
 31
0.0
  0
LINE
  5
184F
102
{ACAD_REACTORS
330
182D
102
}
330
1828
100
AcDbEntity
  8
ROGO
 62
     4
100
AcDbLine
 10
15.12468644525614
 20
4.054342977489284
 30
0.0
 11
15.59953469496065
 21
2.985441817150388
 31
0.0
  0
LINE
  5
1850
102
{ACAD_REACTORS
330
182D
102
}
330
1828
100
AcDbEntity
  8
ROGO
 62
     4
100
AcDbLine
 10
15.8787720744047
 20
2.356868037877802
 30
0.0
 11
16.14351977139978
 21
1.760911075435103
 31
0.0
  0
LINE
  5
1851
102
{ACAD_REACTORS
330
1832
102
}
330
1828
100
AcDbEntity
  8
ROGO
 62
     4
100
AcDbLine
 10
12.76811978252721
 20
4.8910388546484
 30
0.0
 11
12.41334550002074
 21
4.174019956398183
 31
0.0
  0
HATCH
  5
1852
330
1828
100
AcDbEntity
  8
ROGO
 62
     4
100
AcDbHatch
 10
0.0
 20
0.0
 30
0.0
210
0.0
220
0.0
230
1.0
  2
SOLID
 70
     1
 71
     1
 91
        2
 92
        5
 93
        6
 72
     4
 94
        3
 73
     0
 74
     0
 95
       38
 96
       34
 40
0.0
 40
0.0
 40
0.0
 40
0.0
 40
0.3432507174813109
 40
0.451050658195236
 40
0.5895662525824596
 40
0.7049961405144212
 40
0.8023894147780728
 40
0.9317499093329807
 40
0.9978480236196832
 40
1.072291850256752
 40
1.182008041939826
 40
1.306292679428502
 40
1.386914906588859
 40
1.474497692130477
 40
1.571855936222562
 40
1.719602004959564
 40
1.859976177744547
 40
1.925235430116201
 40
1.999654877449353
 40
2.087817346448435
 40
2.150577695187759
 40
2.203188941912056
 40
2.278305916846912
 40
2.360846604837925
 40
2.443386833255809
 40
2.515609648014825
 40
2.681012731610237
 40
2.746271983981783
 40
2.876790566243085
 40
2.992163186792343
 40
3.213035419290946
 40
3.485568884490814
 40
3.879146867041954
 40
3.879146867041954
 40
3.879146867041954
 40
3.879146867041954
 10
24.74114367961869
 20
4.904094836121032
 10
24.59751361292394
 20
4.89394838435993
 10
24.40877566477155
 20
4.88061537874006
 10
24.16912260181022
 20
4.814957584504838
 10
24.03848516772615
 20
4.736738009097052
 10
23.9025308058774
 20
4.679242871872418
 10
23.7866170502221
 20
4.594103975184566
 10
23.66937273350061
 20
4.550232721971894
 10
23.5872746738882
 20
4.471125010849164
 10
23.49225286650005
 20
4.422802606545701
 10
23.41658531421166
 20
4.31464301735815
 10
23.33201045225013
 20
4.213517720834033
 10
23.23389297247292
 20
4.13970076438909
 10
23.15336663999511
 20
4.062171363178379
 10
23.07949492702608
 20
3.942520202174989
 10
23.03577434106273
 20
3.783539239608899
 10
22.91253334781607
 20
3.683164393309027
 10
22.8939771128683
 20
3.562483878386615
 10
22.82580876127213
 20
3.491284405337353
 10
22.79616677785498
 20
3.399376114324866
 10
22.78487768375589
 20
3.315171885358381
 10
22.77132807895231
 20
3.236530964567748
 10
22.73588487888992
 20
3.153804189703407
 10
22.74745366167719
 20
3.051614821360146
 10
22.74415806278023
 20
2.952661464163043
 10
22.74609752659961
 20
2.819071350611523
 10
22.73909773307497
 20
2.689004946910358
 10
22.79491834335829
 20
2.547461850184561
 10
22.82795112803587
 20
2.421295761301394
 10
22.91841678238376
 20
2.246603511873672
 10
23.07446814030357
 20
2.045046428071032
 10
23.37121285078365
 20
1.800394316660401
 10
23.65654156597077
 20
1.775575498785599
 10
23.8251306218508
 20
1.760911075435103
 72
     1
 10
23.82513062185103
 20
1.760911075435103
 11
25.61397837529063
 21
1.760911075435046
 72
     4
 94
        3
 73
     0
 74
     0
 95
       11
 96
        7
 40
0.1647869275458135
 40
0.1647869275458135
 40
0.1647869275458135
 40
0.1647869275458135
 40
0.2545010798212315
 40
0.5111620267764023
 40
0.7602998271033902
 40
0.8850764140209603
 40
0.8850764140209603
 40
0.8850764140209603
 40
0.8850764140209603
 10
25.61397837529103
 20
1.760911075435103
 10
25.63894011814966
 20
1.760430009913989
 10
25.73531427919676
 20
1.758572676222115
 10
25.90001887564347
 20
1.782234427801029
 10
26.07331005260204
 20
1.804909007873675
 10
26.17662150034283
 20
1.821422220331101
 10
26.20994198471249
 20
1.830696989855425
 72
     4
 94
        3
 73
     0
 74
     0
 95
        9
 96
        5
 40
0.0
 40
0.0
 40
0.0
 40
0.0
 40
0.2156697247901238
 40
0.5056511322541886
 40
0.5056511322541886
 40
0.5056511322541886
 40
0.5056511322541886
 10
26.20994198471249
 20
1.830696989855425
 10
26.29691076492736
 20
1.857304524816413
 10
26.50081449888541
 20
1.919687551421588
 10
26.66928569213741
 20
2.051534858119794
 10
26.76590075066321
 20
2.127146807006909
 72
     4
 94
        3
 73
     0
 74
     0
 95
       25
 96
       21
 40
0.0
 40
0.0
 40
0.0
 40
0.0
 40
0.165525918914855
 40
0.3412380755365305
 40
0.5940540902285263
 40
0.7697671103696209
 40
0.9377330196075423
 40
1.11479469302833
 40
1.274661249598185
 40
1.574522170874768
 40
1.815540668866877
 40
2.15849091873445
 40
2.536227739636605
 40
2.738070817316548
 40
2.925680654369045
 40
3.162706124480894
 40
3.395643218188267
 40
3.648478129958861
 40
3.928509979727306
 40
4.337226830236035
 40
4.337226830236035
 40
4.337226830236035
 40
4.337226830236035
 10
26.76590075066321
 20
2.127146807006909
 10
26.80140019899483
 20
2.156482244550545
 10
26.86873294664633
 20
2.226253085274379
 10
26.98815866191171
 20
2.339336073095978
 10
27.09339886689719
 20
2.471086727634144
 10
27.22322023652708
 20
2.577866015744007
 10
27.29080483567543
 20
2.708411610875089
 10
27.38822270040293
 20
2.811082940818266
 10
27.46994033662389
 20
2.969648682351817
 10
27.53927371215241
 20
3.15179048800519
 10
27.60537351196291
 20
3.389208870173547
 10
27.63070363715178
 20
3.657052095826884
 10
27.59321190180703
 20
3.916190282228967
 10
27.50264134675968
 20
4.109887564520988
 10
27.43605502366779
 20
4.271314286249264
 10
27.33500193624218
 20
4.424213814793745
 10
27.21971402149796
 20
4.590508960979377
 10
27.05729376409784
 20
4.728061969383304
 10
26.84502716374527
 20
4.893973063012253
 10
26.64731667534267
 20
4.900325297092251
 10
26.52999143305891
 20
4.904094836121032
 72
     1
 10
26.52999143305863
 20
4.904094836121032
 11
24.74114367961909
 21
4.904094836121032
 97
        6
330
1854
330
185E
330
185D
330
185F
330
1860
330
1853
 92
       20
 93
        1
 72
     3
 10
25.15223068093149
 20
3.288679049376412
 11
0.4249751169687692
 21
0.3737124366286386
 40
0.6788083417438791
 50
0.0
 51
360.0
 73
     1
 97
        1
330
1861
 75
     0
 76
     1
 47
0.088756267210375
 98
        2
 10
25.27721048244774
 20
4.035934885679637
 10
25.27721048244774
 20
4.035934885679637
450
        0
451
        0
460
0.0
461
0.0
452
        0
462
0.0
453
        0
470

  0
SPLINE
  5
1853
102
{ACAD_REACTORS
330
1852
102
}
330
1828
100
AcDbEntity
  8
ROGO
 62
     4
100
AcDbSpline
210
0.0
220
0.0
230
1.0
 70
     8
 71
     3
 72
     9
 73
     5
 74
     3
 42
0.0000000001
 43
0.0000000001
 44
0.0000000001
 40
0.0
 40
0.0
 40
0.0
 40
0.0
 40
0.2707376934082537
 40
0.6347614221189222
 40
0.6347614221189222
 40
0.6347614221189222
 40
0.6347614221189222
 10
26.20994198471249
 20
1.830696989855425
 30
0.0
 10
26.29691076492733
 20
1.857304524816379
 30
0.0
 10
26.50081449888534
 20
1.919687551421489
 30
0.0
 10
26.66928569213739
 20
2.051534858119786
 30
0.0
 10
26.76590075066321
 20
2.127146807006909
 30
0.0
 11
26.20994198471249
 21
1.830696989855425
 31
0.0
 11
26.46440249762032
 21
1.923156418810549
 31
0.0
 11
26.76590075066321
 21
2.127146807006909
 31
0.0
  0
SPLINE
  5
1854
102
{ACAD_REACTORS
330
1852
102
}
330
1828
100
AcDbEntity
  8
ROGO
 62
     4
100
AcDbSpline
210
0.0
220
0.0
230
1.0
 70
     8
 71
     3
 72
    25
 73
    21
 74
     0
 42
0.0000000001
 43
0.0000000001
 40
0.0
 40
0.0
 40
0.0
 40
0.0
 40
0.4087168505087288
 40
0.6887487002771746
 40
0.9415836120477687
 40
1.17452070575514
 40
1.41154617586699
 40
1.599156012919487
 40
1.80099909059943
 40
2.178735911501585
 40
2.521686161369157
 40
2.762704659361267
 40
3.06256558063785
 40
3.222432137207705
 40
3.399493810628493
 40
3.567459719866414
 40
3.743172740007509
 40
3.995988754699505
 40
4.17170091132118
 40
4.337226830236035
 40
4.337226830236035
 40
4.337226830236035
 40
4.337226830236035
 10
26.52999143305891
 20
4.904094836121032
 30
0.0
 10
26.64731667534267
 20
4.900325297092251
 30
0.0
 10
26.84502716374527
 20
4.893973063012253
 30
0.0
 10
27.05729376409784
 20
4.728061969383304
 30
0.0
 10
27.21971402149796
 20
4.590508960979377
 30
0.0
 10
27.33500193624218
 20
4.424213814793745
 30
0.0
 10
27.43605502366779
 20
4.271314286249264
 30
0.0
 10
27.50264134675968
 20
4.109887564520988
 30
0.0
 10
27.59321190180703
 20
3.916190282228967
 30
0.0
 10
27.63070363715178
 20
3.657052095826884
 30
0.0
 10
27.60537351196291
 20
3.389208870173547
 30
0.0
 10
27.53927371215241
 20
3.15179048800519
 30
0.0
 10
27.46994033662389
 20
2.969648682351817
 30
0.0
 10
27.38822270040293
 20
2.811082940818266
 30
0.0
 10
27.29080483567543
 20
2.708411610875089
 30
0.0
 10
27.22322023652708
 20
2.577866015744007
 30
0.0
 10
27.09339886689719
 20
2.471086727634144
 30
0.0
 10
26.98815866191171
 20
2.339336073095978
 30
0.0
 10
26.86873294664633
 20
2.226253085274379
 30
0.0
 10
26.80140019899483
 20
2.156482244550545
 30
0.0
 10
26.76590075066321
 20
2.127146807006909
 30
0.0
  0
HATCH
  5
1855
330
1828
100
AcDbEntity
  8
ROGO
 62
     4
100
AcDbHatch
 10
0.0
 20
0.0
 30
0.0
210
0.0
220
0.0
230
1.0
  2
SOLID
 70
     1
 71
     1
 91
        1
 92
        5
 93
        8
 72
     1
 10
22.42218565687119
 20
3.726428378236505
 11
23.00289805382738
 21
4.891038854648684
 72
     1
 10
23.00289805382738
 20
4.891038854648684
 11
19.86826173965386
 21
4.891038854648684
 72
     4
 94
        3
 73
     0
 74
     0
 95
       26
 96
       22
 40
0.0
 40
0.0
 40
0.0
 40
0.0
 40
0.4523423364930458
 40
0.7551505049418584
 40
0.9734998541494285
 40
1.136534248098697
 40
1.347998413779669
 40
1.502346639649236
 40
1.78106356018612
 40
2.00793512649896
 40
2.162244143837927
 40
2.313552035927847
 40
2.58421243881549
 40
2.775601648311595
 40
2.878679524427258
 40
3.025098602575098
 40
3.130831104239184
 40
3.284002591344982
 40
3.370684404011905
 40
3.559313751485206
 40
3.645443550149729
 40
3.645443550149729
 40
3.645443550149729
 40
3.645443550149729
 10
19.8682617396509
 20
4.8910388546484
 10
19.6755277170588
 20
4.879540012356414
 10
19.35377319014833
 20
4.86034358552979
 10
19.00048867692459
 20
4.645727037741039
 10
18.74165176012781
 20
4.520958408158662
 10
18.55704958497432
 20
4.351346085829106
 10
18.4217354422646
 20
4.176148946808211
 10
18.25114656283233
 20
3.967402840243153
 10
18.11203620623757
 20
3.724326446288728
 10
18.04119575868696
 20
3.456413883877701
 10
17.9784459625954
 20
3.242886017157729
 10
17.93190966332355
 20
3.004937075653458
 10
17.94374981528403
 20
2.747868512768661
 10
17.96070545477141
 20
2.509116392103408
 10
18.03640826201621
 20
2.338683124043257
 10
18.12262035018983
 20
2.217346381601657
 10
18.22818587149055
 20
2.083707411773673
 10
18.3436976370773
 20
1.995198754796149
 10
18.43923529594349
 20
1.834859375042924
 10
18.60647074488815
 20
1.814398913811203
 10
18.7127722494468
 20
1.773676489329545
 10
18.74609498797645
 20
1.760911075435103
 72
     1
 10
18.74609498797656
 20
1.760911075435103
 11
21.44211524939493
 21
1.760911075435103
 72
     1
 10
21.44211524939493
 20
1.760911075435103
 11
22.02282149676552
 21
2.925509218940646
 72
     1
 10
22.02282149676552
 20
2.925509218940646
 11
20.02128394523698
 21
2.925509218940646
 72
     4
 94
        3
 73
     0
 74
     0
 95
       16
 96
       12
 40
0.0
 40
0.0
 40
0.0
 40
0.0
 40
0.1366061837575302
 40
0.2746213610656483
 40
0.3569412113822763
 40
0.4358690053714063
 40
0.5225504736378442
 40
0.5830823461136499
 40
0.6405218395853572
 40
0.7570008857965979
 40
0.9954783554147967
 40
0.9954783554147967
 40
0.9954783554147967
 40
0.9954783554147967
 10
20.02128394523698
 20
2.925509218940646
 10
19.9609105191542
 20
2.943271966127667
 10
19.83954095895558
 20
2.978980670335488
 10
19.82938330684845
 20
3.152083350014265
 10
19.84322163828722
 20
3.27543317422976
 10
19.90117660126202
 20
3.365239049424417
 10
19.97148602350472
 20
3.430584639724088
 10
19.99766533971513
 20
3.515687053907356
 10
20.07461705453051
 20
3.579950023856326
 10
20.21107306368958
 20
3.687967099399145
 10
20.36196978788343
 20
3.710972323004853
 10
20.46334972417037
 20
3.726428378236448
 72
     1
 10
20.46334972417037
 20
3.726428378236448
 11
22.42218565687119
 21
3.726428378236505
 97
        8
330
1859
330
185C
330
185B
330
1858
330
1857
330
185A
330
1856
330
1862
 75
     0
 76
     1
 47
0.0514683685270805
 98
        1
 10
20.96456011660621
 20
4.194235714584465
450
        0
451
        0
460
0.0
461
0.0
452
        0
462
0.0
453
        0
470

  0
LINE
  5
1856
102
{ACAD_REACTORS
330
1855
102
}
330
1828
100
AcDbEntity
  8
ROGO
 62
     4
100
AcDbLine
 10
20.46334972417026
 20
3.726428378236448
 30
0.0
 11
22.42218565687119
 21
3.726428378236448
 31
0.0
  0
LINE
  5
1857
102
{ACAD_REACTORS
330
1855
102
}
330
1828
100
AcDbEntity
  8
ROGO
 62
     4
100
AcDbLine
 10
20.02128394523698
 20
2.925509218940646
 30
0.0
 11
22.02282149676552
 21
2.925509218940646
 31
0.0
  0
LINE
  5
1858
102
{ACAD_REACTORS
330
1855
102
}
330
1828
100
AcDbEntity
  8
ROGO
 62
     4
100
AcDbLine
 10
22.02282149676552
 20
2.925509218940646
 30
0.0
 11
21.44211524939493
 21
1.760911075435103
 31
0.0
  0
LINE
  5
1859
102
{ACAD_REACTORS
330
1855
102
}
330
1828
100
AcDbEntity
  8
ROGO
 62
     4
100
AcDbLine
 10
19.86826173965193
 20
4.891038854648684
 30
0.0
 11
23.00289805382726
 21
4.891038854648684
 31
0.0
  0
SPLINE
  5
185A
102
{ACAD_REACTORS
330
1855
102
}
330
1828
100
AcDbEntity
  8
ROGO
 62
     4
100
AcDbSpline
210
0.0
220
0.0
230
1.0
 70
     8
 71
     3
 72
    16
 73
    12
 74
    10
 42
0.0000000001
 43
0.0000000001
 44
0.0000000001
 40
0.0
 40
0.0
 40
0.0
 40
0.0
 40
0.2993690473575003
 40
0.4455892381251522
 40
0.517695028533184
 40
0.5936827896699466
 40
0.7024970462955727
 40
0.8015778463996074
 40
0.9049168125810419
 40
1.078172056431769
 40
1.249658541759316
 40
1.249658541759316
 40
1.249658541759316
 40
1.249658541759316
 10
20.46334972417037
 20
3.726428378236448
 30
0.0
 10
20.36196978788339
 20
3.710972323004789
 30
0.0
 10
20.21107306368948
 20
3.687967099399052
 30
0.0
 10
20.07461705453046
 20
3.579950023856313
 30
0.0
 10
19.99766533971515
 20
3.515687053907385
 30
0.0
 10
19.9714860235047
 20
3.430584639724063
 30
0.0
 10
19.90117660126201
 20
3.365239049424443
 30
0.0
 10
19.84322163828714
 20
3.275433174229699
 30
0.0
 10
19.82938330684845
 20
3.15208335001435
 30
0.0
 10
19.83954095895547
 20
2.97898067033531
 30
0.0
 10
19.96091051915413
 20
2.943271966127589
 30
0.0
 10
20.02128394523698
 20
2.925509218940646
 30
0.0
 11
20.46334972417037
 21
3.726428378236448
 31
0.0
 11
20.17430712850051
 21
3.648478366022402
 31
0.0
 11
20.05528953159672
 21
3.563536292729054
 31
0.0
 11
20.0042821297348
 21
3.512570716447953
 31
0.0
 11
19.97027654337495
 21
3.444616614740255
 31
0.0
 11
19.902266348333
 21
3.359674541447077
 31
0.0
 11
19.85125894647081
 21
3.274731914312496
 31
0.0
 11
19.83425615329105
 21
3.172801315591925
 31
0.0
 11
19.8682617396509
 21
3.002916061322764
 31
0.0
 11
20.02128394523698
 21
2.925509218940646
 31
0.0
  0
LINE
  5
185B
102
{ACAD_REACTORS
330
1855
102
}
330
1828
100
AcDbEntity
  8
ROGO
 62
     4
100
AcDbLine
 10
18.74609498797616
 20
1.760911075435103
 30
0.0
 11
21.44211524939493
 21
1.760911075435103
 31
0.0
  0
SPLINE
  5
185C
102
{ACAD_REACTORS
330
1855
102
}
330
1828
100
AcDbEntity
  8
ROGO
 62
     4
100
AcDbSpline
210
0.0
220
0.0
230
1.0
 70
     8
 71
     3
 72
    26
 73
    22
 74
    20
 42
0.0000000001
 43
0.0000000001
 44
0.0000000001
 40
0.0
 40
0.0
 40
0.0
 40
0.0
 40
0.5678410399614757
 40
0.9479666470711411
 40
1.222068166045003
 40
1.426730901192431
 40
1.692189210237351
 40
1.885947897017572
 40
2.235830924194645
 40
2.520630678185275
 40
2.714340145135752
 40
2.904282195364426
 40
3.244051596220567
 40
3.484309115780308
 40
3.613706352449166
 40
3.797511304800689
 40
3.930240985086924
 40
4.122522470841556
 40
4.231337159805106
 40
4.468130128747411
 40
4.576251855368279
 40
4.576251855368279
 40
4.576251855368279
 40
4.576251855368279
 10
19.8682617396509
 20
4.8910388546484
 30
0.0
 10
19.6755277170588
 20
4.879540012356416
 30
0.0
 10
19.35377319014831
 20
4.860343585529868
 30
0.0
 10
19.00048867692463
 20
4.645727037741012
 30
0.0
 10
18.7416517601279
 20
4.520958408158605
 30
0.0
 10
18.55704958497432
 20
4.351346085829101
 30
0.0
 10
18.42173544226459
 20
4.176148946808195
 30
0.0
 10
18.25114656283236
 20
3.96740284024323
 30
0.0
 10
18.11203620623754
 20
3.72432644628881
 30
0.0
 10
18.04119575868693
 20
3.456413883877614
 30
0.0
 10
17.97844596259539
 20
3.242886017157717
 30
0.0
 10
17.93190966332349
 20
3.004937075653409
 30
0.0
 10
17.94374981528396
 20
2.747868512768687
 30
0.0
 10
17.96070545477144
 20
2.509116392103442
 30
0.0
 10
18.03640826201615
 20
2.338683124043213
 30
0.0
 10
18.1226203501899
 20
2.217346381601666
 30
0.0
 10
18.22818587149063
 20
2.08370741177377
 30
0.0
 10
18.3436976370772
 20
1.99519875479596
 30
0.0
 10
18.43923529594361
 20
1.834859375043162
 30
0.0
 10
18.60647074488827
 20
1.814398913811202
 30
0.0
 10
18.71277224944685
 20
1.773676489329557
 30
0.0
 10
18.74609498797645
 20
1.760911075435103
 30
0.0
 11
19.8682617396509
 21
4.8910388546484
 31
0.0
 11
19.30717836381353
 21
4.803695325847058
 31
0.0
 11
18.96712738860401
 21
4.633810625418959
 31
0.0
 11
18.72909219479635
 21
4.497902975844965
 31
0.0
 11
18.57606998921028
 21
4.361994772429568
 31
0.0
 11
18.40604499044457
 21
4.158133021147705
 31
0.0
 11
18.28702739354054
 21
4.005236846146544
 31
0.0
 11
18.11700141709707
 21
3.699443942303048
 31
0.0
 11
18.03198940655284
 21
3.427628089313657
 31
0.0
 11
17.9809820046911
 21
3.240754863458391
 31
0.0
 11
17.94697641833107
 21
3.053881637603581
 31
0.0
 11
17.94697641833107
 21
2.714112236747439
 31
0.0
 11
17.9809820046911
 21
2.476273434611812
 31
0.0
 11
18.03198940655284
 21
2.357353756623467
 31
0.0
 11
18.13400421027688
 21
2.204457581621966
 31
0.0
 11
18.21901719849876
 21
2.102526429060674
 31
0.0
 11
18.35503661090445
 21
1.966618779486339
 31
0.0
 11
18.42304680594674
 21
1.881676152351644
 31
0.0
 11
18.64408018425223
 21
1.796734079058296
 31
0.0
 11
18.74609498797645
 21
1.760911075435103
 31
0.0
  0
SPLINE
  5
185D
102
{ACAD_REACTORS
330
1852
102
}
330
1828
100
AcDbEntity
  8
ROGO
 62
     4
100
AcDbSpline
210
0.0
220
0.0
230
1.0
 70
     8
 71
     3
 72
    38
 73
    34
 74
    32
 42
0.0000000001
 43
0.0000000001
 44
0.0000000001
 40
0.0
 40
0.0
 40
0.0
 40
0.0
 40
0.4308945430429002
 40
0.5662195513482404
 40
0.740102986132462
 40
0.8850061320862096
 40
1.00726729068547
 40
1.169658010792484
 40
1.252633268529912
 40
1.346085188737121
 40
1.483815733414743
 40
1.639834553916849
 40
1.74104243481004
 40
1.850988146304279
 40
1.973205330312945
 40
2.158676100023023
 40
2.334892672798286
 40
2.416814878049149
 40
2.510236194069777
 40
2.620909602334223
 40
2.699694847095485
 40
2.76573957172865
 40
2.860036518365247
 40
2.963652709746624
 40
3.067268324209876
 40
3.15793213109488
 40
3.365568364594104
 40
3.447490569844806
 40
3.611335077657485
 40
3.756166333877484
 40
4.03343491583907
 40
4.375555636846979
 40
4.869627743054167
 40
4.869627743054167
 40
4.869627743054167
 40
4.869627743054167
 10
24.74114367961869
 20
4.904094836121032
 30
0.0
 10
24.59751361292405
 20
4.893948384359965
 30
0.0
 10
24.40877566477171
 20
4.880615378740173
 30
0.0
 10
24.16912260181014
 20
4.814957584504846
 30
0.0
 10
24.03848516772621
 20
4.736738009097098
 30
0.0
 10
23.90253080587731
 20
4.679242871872431
 30
0.0
 10
23.78661705022215
 20
4.594103975184565
 30
0.0
 10
23.66937273350063
 20
4.550232721971909
 30
0.0
 10
23.58727467388813
 20
4.471125010849192
 30
0.0
 10
23.49225286650005
 20
4.422802606545601
 30
0.0
 10
23.41658531421149
 20
4.31464301735804
 30
0.0
 10
23.33201045225013
 20
4.213517720834119
 30
0.0
 10
23.23389297247285
 20
4.13970076438898
 30
0.0
 10
23.15336663999514
 20
4.062171363178448
 30
0.0
 10
23.07949492702606
 20
3.942520202174985
 30
0.0
 10
23.03577434106268
 20
3.783539239608915
 30
0.0
 10
22.91253334781611
 20
3.683164393309026
 30
0.0
 10
22.89397711286839
 20
3.562483878386661
 30
0.0
 10
22.82580876127217
 20
3.491284405337413
 30
0.0
 10
22.79616677785499
 20
3.399376114324767
 30
0.0
 10
22.78487768375589
 20
3.315171885358397
 30
0.0
 10
22.77132807895224
 20
3.236530964567744
 30
0.0
 10
22.73588487889
 20
3.153804189703434
 30
0.0
 10
22.74745366167717
 20
3.051614821360151
 30
0.0
 10
22.74415806278013
 20
2.952661464163011
 30
0.0
 10
22.7460975265996
 20
2.819071350611562
 30
0.0
 10
22.73909773307502
 20
2.689004946910392
 30
0.0
 10
22.79491834335825
 20
2.54746185018454
 30
0.0
 10
22.82795112803583
 20
2.421295761301385
 30
0.0
 10
22.91841678238376
 20
2.246603511873705
 30
0.0
 10
23.07446814030349
 20
2.045046428070958
 30
0.0
 10
23.37121285078364
 20
1.800394316660412
 30
0.0
 10
23.65654156597073
 20
1.775575498785637
 30
0.0
 10
23.8251306218508
 20
1.760911075435103
 30
0.0
 11
24.74114367961869
 21
4.904094836121032
 31
0.0
 11
24.31337505225577
 21
4.852286451971451
 31
0.0
 11
24.1837482263403
 21
4.813431029236369
 31
0.0
 11
24.0281966462901
 21
4.735719029929668
 31
0.0
 11
23.89856982037452
 21
4.670959415119625
 31
0.0
 11
23.79486876700781
 21
4.606199223391456
 31
0.0
 11
23.65227956402504
 21
4.528487801003166
 31
0.0
 11
23.58746564185992
 21
4.476679993771369
 31
0.0
 11
23.50968934262812
 21
4.424871609621504
 31
0.0
 11
23.41895066632856
 21
4.321255995158253
 31
0.0
 11
23.31524961296174
 21
4.204688573116413
 31
0.0
 11
23.23747331372948
 21
4.139928381388585
 31
0.0
 11
23.15969803291153
 21
4.062216958999954
 31
0.0
 11
23.09488411074653
 21
3.958601344536702
 31
0.0
 11
23.01710882992893
 21
3.790225538345339
 31
0.0
 11
22.91340675814774
 21
3.647753924228879
 31
0.0
 11
22.88748200401318
 21
3.570041924922293
 31
0.0
 11
22.8356314773298
 21
3.492330502533548
 31
0.0
 11
22.79674332771378
 21
3.388714311152511
 31
0.0
 11
22.78377993223228
 21
3.311002888763766
 31
0.0
 11
22.77081755516485
 21
3.246242697035881
 31
0.0
 11
22.74489280103029
 21
3.155579467068889
 31
0.0
 11
22.74489280103029
 21
3.051963275687512
 31
0.0
 11
22.74489280103029
 21
2.948347661224261
 31
0.0
 11
22.74489280103029
 21
2.857683854339256
 31
0.0
 11
22.75785517809771
 21
2.650452625412469
 31
0.0
 11
22.78377993223228
 21
2.572740626106053
 31
0.0
 11
22.8356314773298
 21
2.417317204411062
 31
0.0
 11
22.9004443810806
 21
2.287797397873021
 31
0.0
 11
23.06895935661197
 21
2.067614361367816
 31
0.0
 11
23.34117538551061
 21
1.860382555523187
 31
0.0
 11
23.8251306218508
 21
1.760911075435103
 31
0.0
  0
LINE
  5
185E
102
{ACAD_REACTORS
330
1852
102
}
330
1828
100
AcDbEntity
  8
ROGO
 62
     4
100
AcDbLine
 10
24.74114367961869
 20
4.904094836121032
 30
0.0
 11
26.52999143305891
 21
4.904094836121032
 31
0.0
  0
LINE
  5
185F
102
{ACAD_REACTORS
330
1852
102
}
330
1828
100
AcDbEntity
  8
ROGO
 62
     4
100
AcDbLine
 10
23.8251306218508
 20
1.760911075435103
 30
0.0
 11
25.61397837529103
 21
1.760911075435103
 31
0.0
  0
SPLINE
  5
1860
102
{ACAD_REACTORS
330
1852
102
}
330
1828
100
AcDbEntity
  8
ROGO
 62
     4
100
AcDbSpline
210
0.0
220
0.0
230
1.0
 70
     8
 71
     3
 72
    11
 73
     7
 74
     0
 42
0.0000000001
 43
0.0000000001
 40
0.1647869275458134
 40
0.1647869275458134
 40
0.1647869275458134
 40
0.1647869275458134
 40
0.2895635144633836
 40
0.5387013147903714
 40
0.7953622617455423
 40
0.8850764140209602
 40
0.8850764140209602
 40
0.8850764140209602
 40
0.8850764140209602
 10
26.20994198471249
 20
1.830696989855425
 30
0.0
 10
26.17662150034283
 20
1.821422220331101
 30
0.0
 10
26.07331005260204
 20
1.804909007873675
 30
0.0
 10
25.90001887564347
 20
1.782234427801029
 30
0.0
 10
25.73531427919676
 20
1.758572676222115
 30
0.0
 10
25.63894011814966
 20
1.760430009913989
 30
0.0
 10
25.61397837529103
 20
1.760911075435103
 30
0.0
  0
ELLIPSE
  5
1861
102
{ACAD_REACTORS
330
1852
102
}
330
1828
100
AcDbEntity
  8
ROGO
 62
     4
100
AcDbEllipse
 10
25.15223068093149
 20
3.288679049376412
 30
0.0
 11
0.4249751169687691
 21
0.3737124366286384
 31
0.0
210
0.0
220
0.0
230
1.0
 40
0.6788083417438792
 41
0.0
 42
6.283185307179586
  0
LINE
  5
1862
102
{ACAD_REACTORS
330
1855
102
}
330
1828
100
AcDbEntity
  8
ROGO
 62
     4
100
AcDbLine
 10
23.00289805382726
 20
4.8910388546484
 30
0.0
 11
22.42218565687119
 21
3.726428378236448
 31
0.0
  0
LINE
  5
1863
102
{ACAD_REACTORS
330
182C
330
1829
102
}
330
1828
100
AcDbEntity
  8
ROGO
 62
     4
100
AcDbLine
 10
33.74402704458214
 20
4.8910388546484
 30
0.0
 11
31.30519714109164
 21
0.0000000707679533
 31
0.0
  0
LINE
  5
1864
102
{ACAD_REACTORS
330
1829
102
}
330
1828
100
AcDbEntity
  8
ROGO
 62
     4
100
AcDbLine
 10
34.9634025641592
 20
2.445519462708318
 30
0.0
 11
36.18281751590428
 21
0.0000000707679533
 31
0.0
  0
LINE
  5
1865
102
{ACAD_REACTORS
330
1829
102
}
330
1828
100
AcDbEntity
  8
ROGO
 62
     4
100
AcDbLine
 10
33.74402704458214
 20
1.276616493155586
 30
0.0
 11
33.10746486550744
 21
0.0000000707679533
 31
0.0
  0
LINE
  5
1866
102
{ACAD_REACTORS
330
1829
102
}
330
1828
100
AcDbEntity
  8
ROGO
 62
     4
100
AcDbLine
 10
33.74402704458214
 20
1.276616493155586
 30
0.0
 11
34.38058922365707
 21
0.0000000707679533
 31
0.0
  0
LINE
  5
1867
102
{ACAD_REACTORS
330
1829
102
}
330
1828
100
AcDbEntity
  8
ROGO
 62
     4
100
AcDbLine
 10
34.38058922365707
 20
0.0000000707679533
 30
0.0
 11
36.18281751590428
 21
0.0000000707679533
 31
0.0
  0
HATCH
  5
1868
330
1828
100
AcDbEntity
  8
ROGO
 62
     4
100
AcDbHatch
 10
0.0
 20
0.0
 30
0.0
210
0.0
220
0.0
230
1.0
  2
SOLID
 70
     1
 71
     1
 91
        1
 92
        5
 93
        8
 72
     4
 94
        3
 73
     0
 74
     0
 95
       26
 96
       22
 40
0.0
 40
0.0
 40
0.0
 40
0.0
 40
0.4523423364930458
 40
0.7551505049418584
 40
0.9734998541494285
 40
1.136534248098697
 40
1.347998413779843
 40
1.502346639649301
 40
1.781063560186185
 40
2.007935126499242
 40
2.16224414383799
 40
2.31355203592789
 40
2.584212438815532
 40
2.775601648311621
 40
2.878679524427493
 40
3.025098602575144
 40
3.130831104239391
 40
3.284002591345189
 40
3.370684404012041
 40
3.559313751485342
 40
3.645443550149757
 40
3.645443550149757
 40
3.645443550149757
 40
3.645443550149757
 10
29.9538118701675
 20
4.8910388546484
 10
29.7610778475754
 20
4.879540012356414
 10
29.43932332066498
 20
4.86034358552979
 10
29.08603880744113
 20
4.645727037741039
 10
28.82720189064446
 20
4.520958408158605
 10
28.64259971549086
 20
4.35134608582922
 10
28.50728557278131
 20
4.176148946807927
 10
28.33669669334864
 20
3.967402840243323
 10
28.197586336754
 20
3.724326446288728
 10
28.12674588920339
 20
3.456413883877416
 10
28.06399609311171
 20
3.242886017157672
 10
28.01745979384026
 20
3.004937075653458
 10
28.02929994580035
 20
2.747868512768548
 10
28.04625558528807
 20
2.509116392103521
 10
28.12195839253235
 20
2.338683124042972
 10
28.20817048070649
 20
2.217346381601487
 10
28.31373600200709
 20
2.083707411773673
 10
28.42924776759423
 20
1.995198754796092
 10
28.52478542645992
 20
1.834859375042981
 10
28.69202087540486
 20
1.814398913811317
 10
28.79832237996334
 20
1.773676489329545
 10
28.83164511849287
 20
1.760911075435103
 72
     1
 10
28.83164511849305
 20
1.76091107543516
 11
31.52766537991153
 21
1.76091107543516
 72
     1
 10
31.52766537991153
 20
1.76091107543516
 11
32.10837162728217
 21
2.925509218940703
 72
     1
 10
32.10837162728217
 20
2.925509218940703
 11
30.10683407575295
 21
2.92550921894059
 72
     4
 94
        3
 73
     0
 74
     0
 95
       16
 96
       12
 40
0.0
 40
0.0
 40
0.0
 40
0.0
 40
0.1366061837575313
 40
0.274621361065627
 40
0.3569412113821431
 40
0.4358690053712145
 40
0.5225504736376701
 40
0.5830823461134758
 40
0.6405218395851027
 40
0.7570008857964754
 40
0.9954783554145645
 40
0.9954783554145645
 40
0.9954783554145645
 40
0.9954783554145645
 10
30.1068340757534
 20
2.925509218940362
 10
30.04646064967062
 20
2.94327196612744
 10
29.92509108947201
 20
2.978980670335374
 10
29.91493343736511
 20
3.152083350014322
 10
29.92877176880393
 20
3.275433174229647
 10
29.98672673177856
 20
3.365239049424303
 10
30.05703615402126
 20
3.430584639724031
 10
30.08321547023138
 20
3.515687053907356
 10
30.1601671850475
 20
3.579950023856042
 10
30.29662319420561
 20
3.687967099399202
 10
30.44751991839973
 20
3.710972323004853
 10
30.5488998546868
 20
3.726428378236448
 72
     1
 10
30.5488998546868
 20
3.726428378236505
 11
32.50773578738796
 21
3.726428378236448
 72
     1
 10
32.50773578738796
 20
3.726428378236448
 11
33.08844818434375
 21
4.891038854648343
 72
     1
 10
33.08844818434375
 20
4.891038854648343
 11
29.95381187016733
 21
4.891038854648343
 97
        8
330
186B
330
186D
330
1869
330
1873
330
186A
330
186E
330
186C
330
1872
 75
     0
 76
     1
 47
0.0514683685270805
 98
        1
 10
30.49471221841981
 20
4.317901811784906
450
        0
451
        0
460
0.0
461
0.0
452
        0
462
0.0
453
        0
470

  0
LINE
  5
1869
102
{ACAD_REACTORS
330
1868
102
}
330
1828
100
AcDbEntity
  8
ROGO
 62
     4
100
AcDbLine
 10
28.8316451184927
 20
1.760911075435103
 30
0.0
 11
31.52766537991164
 21
1.760911075435103
 31
0.0
  0
LINE
  5
186A
102
{ACAD_REACTORS
330
1868
102
}
330
1828
100
AcDbEntity
  8
ROGO
 62
     4
100
AcDbLine
 10
30.10683407575357
 20
2.925509218940646
 30
0.0
 11
32.10837162728206
 21
2.925509218940646
 31
0.0
  0
LINE
  5
186B
102
{ACAD_REACTORS
330
1868
102
}
330
1828
100
AcDbEntity
  8
ROGO
 62
     4
100
AcDbLine
 10
29.95381187016818
 20
4.8910388546484
 30
0.0
 11
33.08844818434375
 21
4.8910388546484
 31
0.0
  0
LINE
  5
186C
102
{ACAD_REACTORS
330
1868
102
}
330
1828
100
AcDbEntity
  8
ROGO
 62
     4
100
AcDbLine
 10
30.54889985468685
 20
3.726428378236448
 30
0.0
 11
32.5077357873879
 21
3.726428378236448
 31
0.0
  0
SPLINE
  5
186D
102
{ACAD_REACTORS
330
1868
102
}
330
1828
100
AcDbEntity
  8
ROGO
 62
     4
100
AcDbSpline
210
0.0
220
0.0
230
1.0
 70
     8
 71
     3
 72
    26
 73
    22
 74
    20
 42
0.0000000001
 43
0.0000000001
 44
0.0000000001
 40
0.0
 40
0.0
 40
0.0
 40
0.0
 40
0.5678410399615319
 40
0.9479666470711464
 40
1.222068166045008
 40
1.426730901192478
 40
1.692189210237617
 40
1.885947897017648
 40
2.23583092419475
 40
2.52063067818565
 40
2.714340145135853
 40
2.904282195364497
 40
3.244051596220639
 40
3.484309115780355
 40
3.613706352449475
 40
3.79751130480076
 40
3.930240985087236
 40
4.122522470841868
 40
4.231337159805276
 40
4.468130128747634
 40
4.576251855368341
 40
4.576251855368341
 40
4.576251855368341
 40
4.576251855368341
 10
29.9538118701675
 20
4.8910388546484
 30
0.0
 10
29.76107784757538
 20
4.879540012356422
 30
0.0
 10
29.43932332066488
 20
4.860343585529886
 30
0.0
 10
29.0860388074412
 20
4.645727037741012
 30
0.0
 10
28.82720189064452
 20
4.52095840815857
 30
0.0
 10
28.64259971549074
 20
4.351346085829121
 30
0.0
 10
28.50728557278133
 20
4.176148946807921
 30
0.0
 10
28.33669669334869
 20
3.967402840243268
 30
0.0
 10
28.1975863367539
 20
3.724326446288735
 30
0.0
 10
28.12674588920348
 20
3.456413883877487
 30
0.0
 10
28.06399609311171
 20
3.242886017157654
 30
0.0
 10
28.01745979384021
 20
3.004937075653376
 30
0.0
 10
28.02929994580058
 20
2.747868512768692
 30
0.0
 10
28.04625558528794
 20
2.509116392103388
 30
0.0
 10
28.12195839253242
 20
2.338683124043028
 30
0.0
 10
28.20817048070648
 20
2.217346381601578
 30
0.0
 10
28.3137360020071
 20
2.083707411773592
 30
0.0
 10
28.42924776759405
 20
1.995198754796095
 30
0.0
 10
28.52478542646008
 20
1.834859375043016
 30
0.0
 10
28.69202087540482
 20
1.814398913811273
 30
0.0
 10
28.79832237996333
 20
1.773676489329562
 30
0.0
 10
28.83164511849287
 20
1.760911075435103
 30
0.0
 11
29.9538118701675
 21
4.8910388546484
 31
0.0
 11
29.39272849433007
 21
4.803695325847058
 31
0.0
 11
29.05267751912061
 21
4.633810625418959
 31
0.0
 11
28.81464232531295
 21
4.497902975844965
 31
0.0
 11
28.66162011972682
 21
4.361994772429568
 31
0.0
 11
28.49159512096111
 21
4.158133021147421
 31
0.0
 11
28.37257752405702
 21
4.005236846146544
 31
0.0
 11
28.2025515476135
 21
3.699443942303048
 31
0.0
 11
28.11753953706926
 21
3.427628089313373
 31
0.0
 11
28.06653213520752
 21
3.240754863458391
 31
0.0
 11
28.03252654884767
 21
3.053881637603581
 31
0.0
 11
28.03252654884767
 21
2.714112236747439
 31
0.0
 11
28.06653213520752
 21
2.476273434611812
 31
0.0
 11
28.11753953706926
 21
2.357353756623183
 31
0.0
 11
28.21955434079331
 21
2.204457581621966
 31
0.0
 11
28.30456732901536
 21
2.102526429060503
 31
0.0
 11
28.44058674142122
 21
1.966618779486339
 31
0.0
 11
28.50859693646328
 21
1.881676152351644
 31
0.0
 11
28.72963031476883
 21
1.796734079058296
 31
0.0
 11
28.83164511849287
 21
1.760911075435103
 31
0.0
  0
SPLINE
  5
186E
102
{ACAD_REACTORS
330
1868
102
}
330
1828
100
AcDbEntity
  8
ROGO
 62
     4
100
AcDbSpline
210
0.0
220
0.0
230
1.0
 70
     8
 71
     3
 72
    16
 73
    12
 74
    10
 42
0.0000000001
 43
0.0000000001
 44
0.0000000001
 40
0.0
 40
0.0
 40
0.0
 40
0.0
 40
0.2993690473573356
 40
0.4455892381251988
 40
0.5176950285331101
 40
0.5936827896698728
 40
0.7024970462955254
 40
0.8015778463994722
 40
0.9049168125807479
 40
1.078172056431452
 40
1.249658541758976
 40
1.249658541758976
 40
1.249658541758976
 40
1.249658541758976
 10
30.5488998546868
 20
3.726428378236448
 30
0.0
 10
30.44751991839979
 20
3.710972323004866
 30
0.0
 10
30.29662319420577
 20
3.68796709939923
 30
0.0
 10
30.16016718504725
 20
3.579950023855928
 30
0.0
 10
30.0832154702315
 20
3.515687053907418
 30
0.0
 10
30.0570361540211
 20
3.430584639724053
 30
0.0
 10
29.98672673177863
 20
3.36523904942429
 30
0.0
 10
29.92877176880398
 20
3.275433174229529
 30
0.0
 10
29.91493343736511
 20
3.152083350014308
 30
0.0
 10
29.9250910894721
 20
2.978980670335382
 30
0.0
 10
30.04646064967062
 20
2.943271966127423
 30
0.0
 10
30.1068340757534
 20
2.925509218940362
 30
0.0
 11
30.5488998546868
 21
3.726428378236448
 31
0.0
 11
30.25985725901711
 21
3.648478366022402
 31
0.0
 11
30.14083966211325
 21
3.56353629272877
 31
0.0
 11
30.08983226025123
 21
3.512570716447953
 31
0.0
 11
30.05582667389138
 21
3.444616614740255
 31
0.0
 11
29.9878164788496
 21
3.359674541446906
 31
0.0
 11
29.93680907698757
 21
3.274731914312326
 31
0.0
 11
29.91980628380776
 21
3.172801315591925
 31
0.0
 11
29.9538118701675
 21
3.002916061322764
 31
0.0
 11
30.1068340757534
 21
2.925509218940362
 31
0.0
  0
LINE
  5
186F
102
{ACAD_REACTORS
330
1829
102
}
330
1828
100
AcDbEntity
  8
ROGO
 62
     4
100
AcDbLine
 10
33.74402704458214
 20
4.8910388546484
 30
0.0
 11
35.54629476899794
 21
4.8910388546484
 31
0.0
  0
LINE
  5
1870
102
{ACAD_REACTORS
330
1829
102
}
330
1828
100
AcDbEntity
  8
ROGO
 62
     4
100
AcDbLine
 10
35.54629476899794
 20
4.8910388546484
 30
0.0
 11
35.28002417224775
 21
4.35703694912479
 31
0.0
  0
LINE
  5
1871
102
{ACAD_REACTORS
330
1829
102
}
330
1828
100
AcDbEntity
  8
ROGO
 62
     4
100
AcDbLine
 10
35.28002417224775
 20
4.35703694912479
 30
0.0
 11
36.12388090105486
 21
4.8910388546484
 31
0.0
  0
LINE
  5
1872
102
{ACAD_REACTORS
330
1868
102
}
330
1828
100
AcDbEntity
  8
ROGO
 62
     4
100
AcDbLine
 10
33.08844818434375
 20
4.8910388546484
 30
0.0
 11
32.5077357873879
 21
3.726428378236448
 31
0.0
  0
LINE
  5
1873
102
{ACAD_REACTORS
330
1868
102
}
330
1828
100
AcDbEntity
  8
ROGO
 62
     4
100
AcDbLine
 10
32.10837162728206
 20
2.925509218940646
 30
0.0
 11
31.52766537991153
 21
1.760911075435103
 31
0.0
  0
ENDBLK
  5
1875
330
1828
100
AcDbEntity
  8
0
100
AcDbBlockEnd
  0
ENDSEC
  0
SECTION
  2
ENTITIES
  0
LINE
  5
244
330
18
100
AcDbEntity
  8
中心線
 48
0.5
100
AcDbLine
 10
289.8294144889334
 20
280.0526355523617
 30
0.0
 11
357.4729731299397
 21
280.0526355523617
 31
0.0
  0
LINE
  5
245
330
18
100
AcDbEntity
  8
中心線
 48
0.5
100
AcDbLine
 10
327.8723417843075
 20
325.1608531174501
 30
0.0
 11
327.8723417843076
 21
209.7742378501619
 31
0.0
  0
CIRCLE
  5
246
330
18
100
AcDbEntity
  8
外形線
100
AcDbCircle
 10
327.8723417843076
 20
280.0526355523617
 30
0.0
 40
15.5
  0
CIRCLE
  5
247
330
18
100
AcDbEntity
  8
外形線
100
AcDbCircle
 10
327.8723417843076
 20
280.0526355523617
 30
0.0
 40
23.0
  0
CIRCLE
  5
248
330
18
100
AcDbEntity
  8
外形線
100
AcDbCircle
 10
327.8723417843076
 20
280.0526355523617
 30
0.0
 40
26.4
  0
LINE
  5
249
330
18
100
AcDbEntity
  8
目盛
100
AcDbLine
 10
326.4281598351334
 20
303.007250306212
 30
0.0
 11
326.553740874192
 21
301.0111968493554
 31
0.0
  0
LINE
  5
24A
330
18
100
AcDbEntity
  8
目盛
100
AcDbLine
 10
324.9896774123286
 20
302.8712736825947
 30
0.0
 11
325.2403438794571
 21
300.8870442799657
 31
0.0
  0
LINE
  5
24B
330
18
100
AcDbEntity
  8
目盛
100
AcDbLine
 10
323.5625715488359
 20
302.6452423191216
 30
0.0
 11
323.9373341780074
 21
300.6806678176642
 31
0.0
  0
LINE
  5
24C
330
18
100
AcDbEntity
  8
目盛
100
AcDbLine
 10
322.1524743795159
 20
302.3300482583203
 30
0.0
 11
322.6498541538457
 21
300.392881936063
 31
0.0
  0
LINE
  5
24D
330
18
100
AcDbEntity
  8
目盛
100
AcDbLine
 10
320.7649509136838
 20
301.9269354271503
 30
0.0
 11
321.6920018968086
 21
299.0737658782648
 31
0.0
  0
LINE
  5
24E
330
18
100
AcDbEntity
  8
目盛
100
AcDbLine
 10
319.40547707256
 20
301.4374947277915
 30
0.0
 11
320.1417261779293
 21
299.577941756015
 31
0.0
  0
LINE
  5
24F
330
18
100
AcDbEntity
  8
目盛
100
AcDbLine
 10
318.0794180783108
 20
300.8636577590801
 30
0.0
 11
318.930976661441
 21
299.0540036541481
 31
0.0
  0
LINE
  5
250
330
18
100
AcDbEntity
  8
目盛
100
AcDbLine
 10
316.792007279968
 20
300.2076891933706
 30
0.0
 11
317.7555146281715
 21
298.4550758332829
 31
0.0
  0
LINE
  5
251
330
18
100
AcDbEntity
  8
目盛
100
AcDbLine
 10
315.5483254997906
 20
299.472177838908
 30
0.0
 11
316.6199790897486
 21
297.783521987904
 31
0.0
  0
LINE
  5
252
330
18
100
AcDbEntity
  8
目盛
100
AcDbLine
 10
314.3532809815807
 20
298.6600264229855
 30
0.0
 11
316.1166367384581
 21
296.2329754398607
 31
0.0
  0
LINE
  5
253
330
18
100
AcDbEntity
  8
目盛
100
AcDbLine
 10
313.2115900200877
 20
297.7744401362049
 30
0.0
 11
314.486437999585
 21
296.2334136506533
 31
0.0
  0
LINE
  5
254
330
18
100
AcDbEntity
  8
目盛
100
AcDbLine
 10
312.1277583479478
 20
296.8189139830542
 30
0.0
 11
313.4968525598052
 21
295.3609767282114
 31
0.0
  0
LINE
  5
255
330
18
100
AcDbEntity
  8
目盛
100
AcDbLine
 10
311.1060633536151
 20
295.7972189887215
 30
0.0
 11
312.5640006084579
 21
294.4281247768642
 31
0.0
  0
LINE
  5
256
330
18
100
AcDbEntity
  8
目盛
100
AcDbLine
 10
310.1505372004645
 20
294.7133873165816
 30
0.0
 11
311.691563686016
 21
293.4385393370842
 31
0.0
  0
LINE
  5
257
330
18
100
AcDbEntity
  8
目盛
100
AcDbLine
 10
309.2649509136837
 20
293.5716963550886
 30
0.0
 11
311.6920018968086
 21
291.8083405982112
 31
0.0
  0
LINE
  5
258
330
18
100
AcDbEntity
  8
目盛
100
AcDbLine
 10
308.4527994977612
 20
292.3766518368786
 30
0.0
 11
310.1414553487653
 21
291.3049982469207
 31
0.0
  0
LINE
  5
259
330
18
100
AcDbEntity
  8
目盛
100
AcDbLine
 10
307.7172881432987
 20
291.1329700567012
 30
0.0
 11
309.4699015033864
 21
290.1694627084978
 31
0.0
  0
LINE
  5
25A
330
18
100
AcDbEntity
  8
目盛
100
AcDbLine
 10
307.0613195775891
 20
289.8455592583584
 30
0.0
 11
308.8709736825211
 21
288.9940006752282
 31
0.0
  0
LINE
  5
25B
330
18
100
AcDbEntity
  8
目盛
100
AcDbLine
 10
306.4874826088777
 20
288.5195002641093
 30
0.0
 11
308.3470355806542
 21
287.78325115874
 31
0.0
  0
LINE
  5
25C
330
18
100
AcDbEntity
  8
目盛
100
AcDbLine
 10
305.9980419095189
 20
287.1600264229855
 30
0.0
 11
308.8512114584044
 21
286.2329754398607
 31
0.0
  0
LINE
  5
25D
330
18
100
AcDbEntity
  8
目盛
100
AcDbLine
 10
305.594929078349
 20
285.7725029571534
 30
0.0
 11
307.5320954006063
 21
285.2751231828237
 31
0.0
  0
LINE
  5
25E
330
18
100
AcDbEntity
  8
目盛
100
AcDbLine
 10
305.2797350175477
 20
284.3624057878334
 30
0.0
 11
307.2443095190051
 21
283.9876431586619
 31
0.0
  0
LINE
  5
25F
330
18
100
AcDbEntity
  8
目盛
100
AcDbLine
 10
305.0537036540746
 20
282.9352999243407
 30
0.0
 11
307.0379330567035
 21
282.6846334572121
 31
0.0
  0
LINE
  5
260
330
18
100
AcDbEntity
  8
目盛
100
AcDbLine
 10
304.9177270304572
 20
281.4968175015359
 30
0.0
 11
306.9137804873138
 21
281.3712364624773
 31
0.0
  0
LINE
  5
261
330
18
100
AcDbEntity
  8
目盛
100
AcDbLine
 10
304.9177270304572
 20
278.6084536031875
 30
0.0
 11
306.9137804873138
 21
278.7340346422461
 31
0.0
  0
LINE
  5
262
330
18
100
AcDbEntity
  8
目盛
100
AcDbLine
 10
305.0537036540746
 20
277.1699711803827
 30
0.0
 11
307.0379330567036
 21
277.4206376475113
 31
0.0
  0
LINE
  5
263
330
18
100
AcDbEntity
  8
目盛
100
AcDbLine
 10
305.2797350175477
 20
275.7428653168901
 30
0.0
 11
307.2443095190049
 21
276.1176279460615
 31
0.0
  0
LINE
  5
264
330
18
100
AcDbEntity
  8
目盛
100
AcDbLine
 10
305.594929078349
 20
274.3327681475701
 30
0.0
 11
307.5320954006063
 21
274.8301479218998
 31
0.0
  0
LINE
  5
265
330
18
100
AcDbEntity
  8
目盛
100
AcDbLine
 10
305.9980419095191
 20
272.9452446817379
 30
0.0
 11
308.8512114584044
 21
273.8722956648627
 31
0.0
  0
LINE
  5
266
330
18
100
AcDbEntity
  8
目盛
100
AcDbLine
 10
306.4874826088778
 20
271.5857708406141
 30
0.0
 11
308.3470355806542
 21
272.3220199459834
 31
0.0
  0
LINE
  5
267
330
18
100
AcDbEntity
  8
目盛
100
AcDbLine
 10
307.0613195775891
 20
270.2597118463651
 30
0.0
 11
308.8709736825211
 21
271.1112704294952
 31
0.0
  0
LINE
  5
268
330
18
100
AcDbEntity
  8
目盛
100
AcDbLine
 10
307.7172881432987
 20
268.9723010480222
 30
0.0
 11
309.4699015033864
 21
269.9358083962256
 31
0.0
  0
LINE
  5
269
330
18
100
AcDbEntity
  8
目盛
100
AcDbLine
 10
308.4527994977612
 20
267.7286192678448
 30
0.0
 11
310.1414553487653
 21
268.8002728578028
 31
0.0
  0
LINE
  5
26A
330
18
100
AcDbEntity
  8
目盛
100
AcDbLine
 10
309.2649509136838
 20
266.5335747496348
 30
0.0
 11
311.6920018968086
 21
268.2969305065122
 31
0.0
  0
LINE
  5
26B
330
18
100
AcDbEntity
  8
目盛
100
AcDbLine
 10
310.1505372004644
 20
265.3918837881418
 30
0.0
 11
311.691563686016
 21
266.6667317676393
 31
0.0
  0
LINE
  5
26C
330
18
100
AcDbEntity
  8
目盛
100
AcDbLine
 10
311.1060633536152
 20
264.3080521160018
 30
0.0
 11
312.564000608458
 21
265.6771463278592
 31
0.0
  0
LINE
  5
26D
330
18
100
AcDbEntity
  8
目盛
100
AcDbLine
 10
312.1277583479477
 20
263.2863571216692
 30
0.0
 11
313.4968525598051
 21
264.744294376512
 31
0.0
  0
LINE
  5
26E
330
18
100
AcDbEntity
  8
目盛
100
AcDbLine
 10
313.2115900200877
 20
262.3308309685185
 30
0.0
 11
314.486437999585
 21
263.8718574540701
 31
0.0
  0
LINE
  5
26F
330
18
100
AcDbEntity
  8
目盛
100
AcDbLine
 10
314.3532809815807
 20
261.4452446817379
 30
0.0
 11
316.1166367384581
 21
263.8722956648627
 31
0.0
  0
LINE
  5
270
330
18
100
AcDbEntity
  8
目盛
100
AcDbLine
 10
315.5483254997906
 20
260.6330932658153
 30
0.0
 11
316.6199790897486
 21
262.3217491168194
 31
0.0
  0
LINE
  5
271
330
18
100
AcDbEntity
  8
目盛
100
AcDbLine
 10
316.7920072799682
 20
259.8975819113529
 30
0.0
 11
317.7555146281716
 21
261.6501952714405
 31
0.0
  0
LINE
  5
272
330
18
100
AcDbEntity
  8
目盛
100
AcDbLine
 10
318.079418078311
 20
259.2416133456433
 30
0.0
 11
318.9309766614411
 21
261.0512674505753
 31
0.0
  0
LINE
  5
273
330
18
100
AcDbEntity
  8
目盛
100
AcDbLine
 10
319.40547707256
 20
258.6677763769319
 30
0.0
 11
320.1417261779293
 21
260.5273293487084
 31
0.0
  0
LINE
  5
274
330
18
100
AcDbEntity
  8
目盛
100
AcDbLine
 10
320.7649509136838
 20
258.1783356775732
 30
0.0
 11
321.6920018968087
 21
261.0315052264586
 31
0.0
  0
LINE
  5
275
330
18
100
AcDbEntity
  8
目盛
100
AcDbLine
 10
322.1524743795161
 20
257.7752228464032
 30
0.0
 11
322.6498541538457
 21
259.7123891686605
 31
0.0
  0
LINE
  5
276
330
18
100
AcDbEntity
  8
目盛
100
AcDbLine
 10
323.5625715488359
 20
257.4600287856019
 30
0.0
 11
323.9373341780074
 21
259.4246032870592
 31
0.0
  0
LINE
  5
277
330
18
100
AcDbEntity
  8
目盛
100
AcDbLine
 10
324.9896774123286
 20
257.2339974221287
 30
0.0
 11
325.2403438794573
 21
259.2182268247577
 31
0.0
  0
LINE
  5
278
330
18
100
AcDbEntity
  8
目盛
100
AcDbLine
 10
326.4281598351334
 20
257.0980207985115
 30
0.0
 11
326.553740874192
 21
259.094074255368
 31
0.0
  0
LINE
  5
279
330
18
100
AcDbEntity
  8
目盛
100
AcDbLine
 10
329.3165237334818
 20
257.0980207985115
 30
0.0
 11
329.1909426944231
 21
259.094074255368
 31
0.0
  0
LINE
  5
27A
330
18
100
AcDbEntity
  8
目盛
100
AcDbLine
 10
330.7550061562866
 20
257.2339974221287
 30
0.0
 11
330.5043396891579
 21
259.2182268247577
 31
0.0
  0
LINE
  5
27B
330
18
100
AcDbEntity
  8
目盛
100
AcDbLine
 10
332.1821120197792
 20
257.4600287856019
 30
0.0
 11
331.8073493906078
 21
259.4246032870593
 31
0.0
  0
LINE
  5
27C
330
18
100
AcDbEntity
  8
目盛
100
AcDbLine
 10
333.5922091890992
 20
257.7752228464032
 30
0.0
 11
333.0948294147696
 21
259.7123891686605
 31
0.0
  0
LINE
  5
27D
330
18
100
AcDbEntity
  8
目盛
100
AcDbLine
 10
334.9797326549314
 20
258.1783356775732
 30
0.0
 11
334.0526816718066
 21
261.0315052264586
 31
0.0
  0
LINE
  5
27E
330
18
100
AcDbEntity
  8
目盛
100
AcDbLine
 10
336.3392064960552
 20
258.667776376932
 30
0.0
 11
335.6029573906858
 21
260.5273293487085
 31
0.0
  0
LINE
  5
27F
330
18
100
AcDbEntity
  8
目盛
100
AcDbLine
 10
337.6652654903042
 20
259.2416133456433
 30
0.0
 11
336.8137069071741
 21
261.0512674505754
 31
0.0
  0
LINE
  5
280
330
18
100
AcDbEntity
  8
目盛
100
AcDbLine
 10
338.952676288647
 20
259.8975819113529
 30
0.0
 11
337.9891689404435
 21
261.6501952714407
 31
0.0
  0
LINE
  5
281
330
18
100
AcDbEntity
  8
目盛
100
AcDbLine
 10
340.1963580688245
 20
260.6330932658154
 30
0.0
 11
339.1247044788666
 21
262.3217491168194
 31
0.0
  0
LINE
  5
282
330
18
100
AcDbEntity
  8
目盛
100
AcDbLine
 10
341.3914025870345
 20
261.4452446817379
 30
0.0
 11
339.6280468301569
 21
263.8722956648627
 31
0.0
  0
LINE
  5
283
330
18
100
AcDbEntity
  8
目盛
100
AcDbLine
 10
342.5330935485275
 20
262.3308309685186
 30
0.0
 11
341.2582455690302
 21
263.8718574540702
 31
0.0
  0
LINE
  5
284
330
18
100
AcDbEntity
  8
目盛
100
AcDbLine
 10
343.6169252206674
 20
263.2863571216693
 30
0.0
 11
342.24783100881
 21
264.7442943765121
 31
0.0
  0
LINE
  5
285
330
18
100
AcDbEntity
  8
目盛
100
AcDbLine
 10
344.638620215
 20
264.3080521160019
 30
0.0
 11
343.1806829601572
 21
265.6771463278593
 31
0.0
  0
LINE
  5
286
330
18
100
AcDbEntity
  8
目盛
100
AcDbLine
 10
345.5941463681507
 20
265.3918837881418
 30
0.0
 11
344.0531198825991
 21
266.6667317676393
 31
0.0
  0
LINE
  5
287
330
18
100
AcDbEntity
  8
目盛
100
AcDbLine
 10
346.4797326549313
 20
266.5335747496349
 30
0.0
 11
344.0526816718066
 21
268.2969305065124
 31
0.0
  0
LINE
  5
288
330
18
100
AcDbEntity
  8
目盛
100
AcDbLine
 10
347.291884070854
 20
267.7286192678449
 30
0.0
 11
345.6032282198499
 21
268.8002728578029
 31
0.0
  0
LINE
  5
289
330
18
100
AcDbEntity
  8
目盛
100
AcDbLine
 10
348.0273954253164
 20
268.9723010480224
 30
0.0
 11
346.2747820652288
 21
269.9358083962258
 31
0.0
  0
LINE
  5
28A
330
18
100
AcDbEntity
  8
目盛
100
AcDbLine
 10
348.6833639910261
 20
270.2597118463651
 30
0.0
 11
346.8737098860939
 21
271.1112704294952
 31
0.0
  0
LINE
  5
28B
330
18
100
AcDbEntity
  8
目盛
100
AcDbLine
 10
349.2572009597373
 20
271.5857708406141
 30
0.0
 11
347.3976479879608
 21
272.3220199459835
 31
0.0
  0
LINE
  5
28C
330
18
100
AcDbEntity
  8
目盛
100
AcDbLine
 10
349.7466416590961
 20
272.945244681738
 30
0.0
 11
346.8934721102105
 21
273.8722956648628
 31
0.0
  0
LINE
  5
28D
330
18
100
AcDbEntity
  8
目盛
100
AcDbLine
 10
350.149754490266
 20
274.3327681475701
 30
0.0
 11
348.2125881680088
 21
274.8301479218998
 31
0.0
  0
LINE
  5
28E
330
18
100
AcDbEntity
  8
目盛
100
AcDbLine
 10
350.4649485510674
 20
275.7428653168901
 30
0.0
 11
348.50037404961
 21
276.1176279460615
 31
0.0
  0
LINE
  5
28F
330
18
100
AcDbEntity
  8
目盛
100
AcDbLine
 10
350.6909799145406
 20
277.1699711803828
 30
0.0
 11
348.7067505119116
 21
277.4206376475114
 31
0.0
  0
LINE
  5
290
330
18
100
AcDbEntity
  8
目盛
100
AcDbLine
 10
350.8269565381577
 20
278.6084536031875
 30
0.0
 11
348.8309030813012
 21
278.7340346422461
 31
0.0
  0
LINE
  5
291
330
18
100
AcDbEntity
  8
目盛
100
AcDbLine
 10
350.8269565381577
 20
281.4968175015359
 30
0.0
 11
348.8309030813012
 21
281.3712364624773
 31
0.0
  0
LINE
  5
292
330
18
100
AcDbEntity
  8
目盛
100
AcDbLine
 10
350.6909799145406
 20
282.9352999243408
 30
0.0
 11
348.7067505119115
 21
282.6846334572122
 31
0.0
  0
LINE
  5
293
330
18
100
AcDbEntity
  8
目盛
100
AcDbLine
 10
350.4649485510674
 20
284.3624057878333
 30
0.0
 11
348.50037404961
 21
283.9876431586619
 31
0.0
  0
LINE
  5
294
330
18
100
AcDbEntity
  8
目盛
100
AcDbLine
 10
350.1497544902662
 20
285.7725029571533
 30
0.0
 11
348.2125881680088
 21
285.2751231828236
 31
0.0
  0
LINE
  5
295
330
18
100
AcDbEntity
  8
目盛
100
AcDbLine
 10
349.7466416590961
 20
287.1600264229855
 30
0.0
 11
346.8934721102105
 21
286.2329754398607
 31
0.0
  0
LINE
  5
296
330
18
100
AcDbEntity
  8
目盛
100
AcDbLine
 10
349.2572009597373
 20
288.5195002641093
 30
0.0
 11
347.3976479879608
 21
287.7832511587399
 31
0.0
  0
LINE
  5
297
330
18
100
AcDbEntity
  8
目盛
100
AcDbLine
 10
348.6833639910261
 20
289.8455592583584
 30
0.0
 11
346.873709886094
 21
288.9940006752282
 31
0.0
  0
LINE
  5
298
330
18
100
AcDbEntity
  8
目盛
100
AcDbLine
 10
348.0273954253164
 20
291.1329700567011
 30
0.0
 11
346.2747820652288
 21
290.1694627084977
 31
0.0
  0
LINE
  5
299
330
18
100
AcDbEntity
  8
目盛
100
AcDbLine
 10
347.291884070854
 20
292.3766518368786
 30
0.0
 11
345.6032282198499
 21
291.3049982469206
 31
0.0
  0
LINE
  5
29A
330
18
100
AcDbEntity
  8
目盛
100
AcDbLine
 10
346.4797326549313
 20
293.5716963550886
 30
0.0
 11
344.0526816718065
 21
291.8083405982112
 31
0.0
  0
LINE
  5
29B
330
18
100
AcDbEntity
  8
目盛
100
AcDbLine
 10
345.5941463681507
 20
294.7133873165815
 30
0.0
 11
344.0531198825991
 21
293.4385393370842
 31
0.0
  0
LINE
  5
29C
330
18
100
AcDbEntity
  8
目盛
100
AcDbLine
 10
344.638620215
 20
295.7972189887215
 30
0.0
 11
343.1806829601572
 21
294.4281247768641
 31
0.0
  0
LINE
  5
29D
330
18
100
AcDbEntity
  8
目盛
100
AcDbLine
 10
343.6169252206674
 20
296.8189139830542
 30
0.0
 11
342.24783100881
 21
295.3609767282113
 31
0.0
  0
LINE
  5
29E
330
18
100
AcDbEntity
  8
目盛
100
AcDbLine
 10
342.5330935485275
 20
297.7744401362047
 30
0.0
 11
341.2582455690301
 21
296.2334136506532
 31
0.0
  0
LINE
  5
29F
330
18
100
AcDbEntity
  8
目盛
100
AcDbLine
 10
341.3914025870345
 20
298.6600264229854
 30
0.0
 11
339.6280468301571
 21
296.2329754398606
 31
0.0
  0
LINE
  5
2A0
330
18
100
AcDbEntity
  8
目盛
100
AcDbLine
 10
340.1963580688246
 20
299.472177838908
 30
0.0
 11
339.1247044788666
 21
297.783521987904
 31
0.0
  0
LINE
  5
2A1
330
18
100
AcDbEntity
  8
目盛
100
AcDbLine
 10
338.9526762886472
 20
300.2076891933705
 30
0.0
 11
337.9891689404437
 21
298.4550758332828
 31
0.0
  0
LINE
  5
2A2
330
18
100
AcDbEntity
  8
目盛
100
AcDbLine
 10
337.6652654903044
 20
300.8636577590801
 30
0.0
 11
336.8137069071742
 21
299.0540036541481
 31
0.0
  0
LINE
  5
2A3
330
18
100
AcDbEntity
  8
目盛
100
AcDbLine
 10
336.3392064960553
 20
301.4374947277914
 30
0.0
 11
335.6029573906858
 21
299.5779417560149
 31
0.0
  0
LINE
  5
2A4
330
18
100
AcDbEntity
  8
目盛
100
AcDbLine
 10
334.9797326549315
 20
301.9269354271502
 30
0.0
 11
334.0526816718066
 21
299.0737658782647
 31
0.0
  0
LINE
  5
2A5
330
18
100
AcDbEntity
  8
目盛
100
AcDbLine
 10
333.5922091890994
 20
302.3300482583202
 30
0.0
 11
333.0948294147697
 21
300.3928819360629
 31
0.0
  0
LINE
  5
2A6
330
18
100
AcDbEntity
  8
目盛
100
AcDbLine
 10
332.1821120197794
 20
302.6452423191215
 30
0.0
 11
331.807349390608
 21
300.6806678176641
 31
0.0
  0
LINE
  5
2A7
330
18
100
AcDbEntity
  8
目盛
100
AcDbLine
 10
330.7550061562868
 20
302.8712736825947
 30
0.0
 11
330.5043396891581
 21
300.8870442799657
 31
0.0
  0
LINE
  5
2A8
330
18
100
AcDbEntity
  8
目盛
100
AcDbLine
 10
329.316523733482
 20
303.007250306212
 30
0.0
 11
329.1909426944233
 21
301.0111968493554
 31
0.0
  0
LINE
  5
2A9
330
18
100
AcDbEntity
  8
目盛
100
AcDbLine
 10
347.8723417843076
 20
280.0526355523617
 30
0.0
 11
350.8723417843076
 21
280.0526355523617
 31
0.0
  0
LINE
  5
2AA
330
18
100
AcDbEntity
  8
目盛
100
AcDbLine
 10
327.8723417843076
 20
260.0526355523617
 30
0.0
 11
327.8723417843076
 21
257.0526355523617
 31
0.0
  0
LINE
  5
2AB
330
18
100
AcDbEntity
  8
目盛
100
AcDbLine
 10
304.8723417843076
 20
280.0526355523617
 30
0.0
 11
307.8723417843076
 21
280.0526355523617
 31
0.0
  0
LINE
  5
2AC
330
18
100
AcDbEntity
  8
目盛
100
AcDbLine
 10
327.8723417843076
 20
303.0526355523617
 30
0.0
 11
327.8723417843076
 21
300.0526355523617
 31
0.0
  0
TEXT
  5
2AD
330
18
100
AcDbEntity
  8
文字
100
AcDbText
 10
326.6580312618586
 20
297.1731549468744
 30
0.0
 40
2.5
  1
0
  7
STYLE3
100
AcDbText
  0
TEXT
  5
2AE
330
18
100
AcDbEntity
  8
文字
100
AcDbText
 10
336.6039733416323
 20
293.4414157168736
 30
0.0
 40
2.5
  1
10
  7
STYLE3
100
AcDbText
  0
TEXT
  5
2AF
330
18
100
AcDbEntity
  8
文字
100
AcDbText
 10
342.9889654952876
 20
283.2438515317365
 30
0.0
 40
2.5
  1
20
  7
STYLE3
100
AcDbText
  0
TEXT
  5
2B0
330
18
100
AcDbEntity
  8
文字
100
AcDbText
 10
342.2592141775278
 20
272.803806481326
 30
0.0
 40
2.5
  1
30
  7
STYLE3
100
AcDbText
  0
TEXT
  5
2B1
330
18
100
AcDbEntity
  8
文字
100
AcDbText
 10
336.4616490391523
 20
264.1802064458854
 30
0.0
 40
2.5
  1
40
  7
STYLE3
100
AcDbText
  0
TEXT
  5
2B2
330
18
100
AcDbEntity
  8
文字
100
AcDbText
 10
325.5590943171588
 20
260.3697482790033
 30
0.0
 40
2.5
  1
50
  7
STYLE3
100
AcDbText
  0
TEXT
  5
2B3
330
18
100
AcDbEntity
  8
文字
100
AcDbText
 10
314.3140247750466
 20
264.2422410637511
 30
0.0
 40
2.5
  1
60
  7
STYLE3
100
AcDbText
  0
TEXT
  5
2B4
330
18
100
AcDbEntity
  8
文字
100
AcDbText
 10
308.5796876735877
 20
272.827491666525
 30
0.0
 40
2.5
  1
70
  7
STYLE3
100
AcDbText
  0
TEXT
  5
2B5
330
18
100
AcDbEntity
  8
文字
100
AcDbText
 10
308.6853684425264
 20
284.5620227913293
 30
0.0
 40
2.5
  1
80
  7
STYLE3
100
AcDbText
  0
TEXT
  5
2B6
330
18
100
AcDbEntity
  8
文字
100
AcDbText
 10
314.8798171205131
 20
293.4626105659186
 30
0.0
 40
2.5
  1
90
  7
STYLE3
100
AcDbText
  0
LINE
  5
2B7
330
18
100
AcDbEntity
  8
中心線
 48
0.2
100
AcDbLine
 10
324.6723417843075
 20
277.8418715595695
 30
0.0
 11
324.6723417843075
 21
262.152277537534
 31
0.0
  0
LINE
  5
2B9
330
18
100
AcDbEntity
  8
中心線
 48
0.2
100
AcDbLine
 10
317.7130665973778
 20
269.9786641408478
 30
0.0
 11
332.241054045358
 21
269.9786641408478
 31
0.0
  0
LINE
  5
2D5
330
18
100
AcDbEntity
  8
外形線
100
AcDbLine
 10
331.8723417843076
 20
253.9574252638816
 30
0.0
 11
331.8723417843076
 21
239.5526355523617
 31
0.0
  0
LINE
  5
2D6
330
18
100
AcDbEntity
  8
外形線
100
AcDbLine
 10
323.8723417843076
 20
253.9574252638816
 30
0.0
 11
323.8723417843076
 21
239.5526355523617
 31
0.0
  0
LINE
  5
2D9
330
18
100
AcDbEntity
  8
外形線
100
AcDbLine
 10
329.8723417843075
 20
235.0526355523617
 30
0.0
 11
329.8723417843075
 21
224.0526355523617
 31
0.0
  0
LINE
  5
2DA
330
18
100
AcDbEntity
  8
外形線
100
AcDbLine
 10
325.8723417843076
 20
235.0526355523617
 30
0.0
 11
325.8723417843076
 21
224.0526355523617
 31
0.0
  0
LINE
  5
5CF
330
18
100
AcDbEntity
  8
外形線
  6
Continuous
100
AcDbLine
 10
331.5723417843076
 20
320.5526355523616
 30
0.0
 11
331.5723417843076
 21
314.0526355523616
 31
0.0
  0
LINE
  5
5D0
330
18
100
AcDbEntity
  8
外形線
  6
Continuous
100
AcDbLine
 10
324.1723417843076
 20
320.5526355523616
 30
0.0
 11
324.1723417843076
 21
314.0526355523616
 31
0.0
  0
LINE
  5
5D1
330
18
100
AcDbEntity
  8
外形線
  6
Continuous
100
AcDbLine
 10
324.1723417843076
 20
320.5526355523616
 30
0.0
 11
331.5723417843076
 21
320.5526355523616
 31
0.0
  0
LINE
  5
5D2
330
18
100
AcDbEntity
  8
外形線
  6
Continuous
100
AcDbLine
 10
323.8723417843076
 20
314.0526355523616
 30
0.0
 11
331.8723417843076
 21
314.0526355523616
 31
0.0
  0
LINE
  5
5D3
330
18
100
AcDbEntity
  8
外形線
  6
Continuous
100
AcDbLine
 10
323.8723417843075
 20
308.0526355523616
 30
0.0
 11
331.8723417843076
 21
308.0526355523616
 31
0.0
  0
LINE
  5
5D4
330
18
100
AcDbEntity
  8
外形線
  6
Continuous
100
AcDbLine
 10
331.8723417843076
 20
314.0526355523616
 30
0.0
 11
331.8723417843076
 21
308.0526355523616
 31
0.0
  0
LINE
  5
5D5
330
18
100
AcDbEntity
  8
外形線
  6
Continuous
100
AcDbLine
 10
323.8723417843076
 20
314.0526355523616
 30
0.0
 11
323.8723417843076
 21
308.0526355523616
 31
0.0
  0
LINE
  5
5D6
330
18
100
AcDbEntity
  8
外形線
  6
Continuous
100
AcDbLine
 10
331.5723417843076
 20
308.0526355523616
 30
0.0
 11
331.5723417843076
 21
306.1920693641336
 31
0.0
  0
LINE
  5
5D7
330
18
100
AcDbEntity
  8
外形線
  6
Continuous
100
AcDbLine
 10
324.1723417843076
 20
308.0526355523616
 30
0.0
 11
324.1723417843076
 21
306.1920693641336
 31
0.0
  0
ARC
  5
5D9
330
18
100
AcDbEntity
  8
外形線
  6
Continuous
100
AcDbCircle
 10
327.8723417843075
 20
314.2076355523618
 30
0.0
 40
7.344999999999885
100
AcDbArc
 50
59.75198538337817
 51
120.2480146166212
  0
TEXT
  5
661
330
18
100
AcDbEntity
  8
文字
  6
Continuous
 62
     4
100
AcDbText
 10
327.365766296329
 20
295.8300106085488
 30
0.0
 40
1.0
  1
0
  7
STYLE3
100
AcDbText
  0
TEXT
  5
662
330
18
100
AcDbEntity
  8
文字
  6
Continuous
 62
     4
100
AcDbText
 10
337.9881157307601
 20
291.9535926774072
 30
0.0
 40
1.0
  1
90
  7
STYLE3
100
AcDbText
  0
TEXT
  5
663
330
18
100
AcDbEntity
  8
文字
  6
Continuous
 62
     4
100
AcDbText
 10
343.5944807926114
 20
281.8522456414905
 30
0.0
 40
1.0
  1
80
  7
STYLE3
100
AcDbText
  0
TEXT
  5
664
330
18
100
AcDbEntity
  8
文字
  6
Continuous
 62
     4
100
AcDbText
 10
343.2066987319534
 20
276.1321237495544
 30
0.0
 40
1.0
  1
70
  7
STYLE3
100
AcDbText
  0
TEXT
  5
665
330
18
100
AcDbEntity
  8
文字
  6
Continuous
 62
     4
100
AcDbText
 10
337.7704073864005
 20
267.0398756718821
 30
0.0
 40
1.0
  1
60
  7
STYLE3
100
AcDbText
  0
TEXT
  5
666
330
18
100
AcDbEntity
  8
文字
  6
Continuous
 62
     4
100
AcDbText
 10
326.9383721768
 20
263.1911741575486
 30
0.0
 40
1.0
  1
50
  7
STYLE3
100
AcDbText
  0
TEXT
  5
667
330
18
100
AcDbEntity
  8
文字
  6
Continuous
 62
     4
100
AcDbText
 10
315.9836173458075
 20
267.1097989891913
 30
0.0
 40
1.0
  1
40
  7
STYLE3
100
AcDbText
  0
TEXT
  5
668
330
18
100
AcDbEntity
  8
文字
  6
Continuous
 62
     4
100
AcDbText
 10
310.6902816470561
 20
275.8938923776654
 30
0.0
 40
1.0
  1
30
  7
STYLE3
100
AcDbText
  0
TEXT
  5
669
330
18
100
AcDbEntity
  8
文字
  6
Continuous
 62
     4
100
AcDbText
 10
310.6578695861381
 20
282.99676959614
 30
0.0
 40
1.0
  1
20
  7
STYLE3
100
AcDbText
  0
TEXT
  5
66A
330
18
100
AcDbEntity
  8
文字
  6
Continuous
 62
     4
100
AcDbText
 10
315.8670238690552
 20
291.9040948531432
 30
0.0
 40
1.0
  1
10
  7
STYLE3
100
AcDbText
  0
LINE
  5
697
330
18
100
AcDbEntity
  8
外形線
  6
Continuous
100
AcDbLine
 10
414.7466831922105
 20
304.5526355523617
 30
0.0
 11
414.7466831922105
 21
255.5526355523617
 31
0.0
  0
ARC
  5
6B8
330
18
100
AcDbEntity
  8
外形線
  6
Continuous
100
AcDbCircle
 10
408.2466831922105
 20
314.2076355523619
 30
0.0
 40
7.344999999999885
100
AcDbArc
 50
59.75198538337879
 51
120.2480146166218
  0
LINE
  5
6BB
330
18
100
AcDbEntity
  8
外形線
  6
Continuous
 62
     4
100
AcDbLine
 10
400.2466831922105
 20
278.0526355523617
 30
0.0
 11
394.2466831922105
 21
278.0526355523617
 31
0.0
  0
LINE
  5
6BC
330
18
100
AcDbEntity
  8
外形線
  6
Continuous
 62
     4
100
AcDbLine
 10
400.2466831922105
 20
279.0526355523617
 30
0.0
 11
394.2466831922105
 21
279.0526355523617
 31
0.0
  0
LINE
  5
6BD
330
18
100
AcDbEntity
  8
外形線
  6
Continuous
 62
     4
100
AcDbLine
 10
400.2466831922105
 20
280.0526355523617
 30
0.0
 11
394.2466831922105
 21
280.0526355523617
 31
0.0
  0
LINE
  5
6BE
330
18
100
AcDbEntity
  8
外形線
  6
Continuous
 62
     4
100
AcDbLine
 10
400.2466831922105
 20
281.0526355523617
 30
0.0
 11
394.2466831922105
 21
281.0526355523617
 31
0.0
  0
LINE
  5
6BF
330
18
100
AcDbEntity
  8
外形線
  6
Continuous
 62
     4
100
AcDbLine
 10
400.2466831922105
 20
283.0526355523617
 30
0.0
 11
394.2466831922105
 21
283.0526355523617
 31
0.0
  0
LINE
  5
6C0
330
18
100
AcDbEntity
  8
外形線
  6
Continuous
 62
     4
100
AcDbLine
 10
400.2466831922105
 20
282.0526355523618
 30
0.0
 11
394.2466831922105
 21
282.0526355523617
 31
0.0
  0
LINE
  5
6C1
330
18
100
AcDbEntity
  8
外形線
  6
Continuous
 62
     4
100
AcDbLine
 10
394.2466831922105
 20
301.7416502581308
 30
0.0
 11
400.2466831922105
 21
301.7416502581308
 31
0.0
  0
LINE
  5
6C2
330
18
100
AcDbEntity
  8
外形線
  6
Continuous
 62
     4
100
AcDbLine
 10
394.2466831922105
 20
302.7416502581307
 30
0.0
 11
400.2466831922105
 21
302.7416502581308
 31
0.0
  0
LINE
  5
6C3
330
18
100
AcDbEntity
  8
外形線
  6
Continuous
 62
     4
100
AcDbLine
 10
394.2466831922105
 20
303.7416502581308
 30
0.0
 11
400.2466831922105
 21
303.7416502581308
 31
0.0
  0
LINE
  5
6C4
330
18
100
AcDbEntity
  8
外形線
  6
Continuous
 62
     4
100
AcDbLine
 10
394.2466831922105
 20
304.7416502581307
 30
0.0
 11
400.2466831922105
 21
304.7416502581307
 31
0.0
  0
LINE
  5
6C5
330
18
100
AcDbEntity
  8
外形線
  6
Continuous
100
AcDbLine
 10
411.9466831922105
 20
320.5526355523617
 30
0.0
 11
404.5466831922104
 21
320.5526355523617
 31
0.0
  0
LINE
  5
6C6
330
18
100
AcDbEntity
  8
外形線
  6
Continuous
100
AcDbLine
 10
412.2466831922105
 20
314.0526355523617
 30
0.0
 11
404.2466831922105
 21
314.0526355523617
 31
0.0
  0
LINE
  5
6C7
330
18
100
AcDbEntity
  8
外形線
  6
Continuous
100
AcDbLine
 10
412.2466831922105
 20
308.0526355523617
 30
0.0
 11
404.2466831922105
 21
308.0526355523617
 31
0.0
  0
LINE
  5
6C9
330
18
100
AcDbEntity
  8
外形線
  6
Continuous
100
AcDbLine
 10
412.2466831922105
 20
314.0526355523617
 30
0.0
 11
412.2466831922105
 21
308.0526355523617
 31
0.0
  0
LINE
  5
6CA
330
18
100
AcDbEntity
  8
外形線
  6
Continuous
100
AcDbLine
 10
411.9466831922105
 20
308.0526355523617
 30
0.0
 11
411.9466831922105
 21
304.5526355523617
 31
0.0
  0
LINE
  5
6CB
330
18
100
AcDbEntity
  8
外形線
  6
Continuous
100
AcDbLine
 10
411.9466831922105
 20
320.5526355523617
 30
0.0
 11
411.9466831922105
 21
314.0526355523617
 31
0.0
  0
LINE
  5
6CC
330
18
100
AcDbEntity
  8
外形線
  6
Continuous
100
AcDbLine
 10
404.2466831922105
 20
314.0526355523617
 30
0.0
 11
404.2466831922105
 21
308.0526355523617
 31
0.0
  0
LINE
  5
6CE
330
18
100
AcDbEntity
  8
外形線
  6
Continuous
100
AcDbLine
 10
404.5466831922104
 20
308.0526355523617
 30
0.0
 11
404.5466831922103
 21
304.5526355523617
 31
0.0
  0
LINE
  5
6CF
330
18
100
AcDbEntity
  8
外形線
  6
Continuous
 62
     4
100
AcDbLine
 10
394.2466831922105
 20
305.7416502581308
 30
0.0
 11
400.2466831922105
 21
305.7416502581308
 31
0.0
  0
LINE
  5
6D0
330
18
100
AcDbEntity
  8
外形線
  6
Continuous
 62
     4
100
AcDbLine
 10
394.2466831922105
 20
306.7416502581308
 30
0.0
 11
400.2466831922105
 21
306.7416502581308
 31
0.0
  0
LINE
  5
6D1
330
18
100
AcDbEntity
  8
外形線
  6
Continuous
100
AcDbLine
 10
404.5466831922104
 20
320.5526355523617
 30
0.0
 11
404.5466831922104
 21
314.0526355523617
 31
0.0
  0
MTEXT
  5
778
330
18
100
AcDbEntity
  8
DEFPOINTS
  6
Continuous
100
AcDbMText
 10
735.8166661286731
 20
235.565234348894
 30
0.0
 40
1.0
 41
0.0
 71
     4
 72
     1
  1
\A1;
 73
     1
 44
1.0
  0
LINE
  5
789
330
18
100
AcDbEntity
  8
中心線
 48
0.5
100
AcDbLine
 10
408.2466831922105
 20
333.0714410811149
 30
0.0
 11
408.2466831922107
 21
207.4805570979798
 31
0.0
  0
LINE
  5
78E
330
18
100
AcDbEntity
  8
外形線
100
AcDbLine
 10
403.2466831922105
 20
255.5526355523617
 30
0.0
 11
414.7466831922105
 21
255.5526355523617
 31
0.0
  0
LINE
  5
78F
330
18
100
AcDbEntity
  8
外形線
100
AcDbLine
 10
403.2466831922105
 20
304.5526355523617
 30
0.0
 11
414.7466831922105
 21
304.5526355523617
 31
0.0
  0
LINE
  5
7B0
330
18
100
AcDbEntity
  8
外形線
100
AcDbLine
 10
410.2466831922105
 20
235.0526355523617
 30
0.0
 11
410.2466831922105
 21
224.0526355523617
 31
0.0
  0
LINE
  5
7B1
330
18
100
AcDbEntity
  8
外形線
100
AcDbLine
 10
406.2466831922106
 20
235.0526355523617
 30
0.0
 11
406.2466831922106
 21
224.0526355523617
 31
0.0
  0
LINE
  5
7C1
330
18
100
AcDbEntity
  8
外形線
100
AcDbLine
 10
412.2466831922105
 20
255.5526355523617
 30
0.0
 11
412.2466831922107
 21
239.5526355523617
 31
0.0
  0
LINE
  5
7C2
330
18
100
AcDbEntity
  8
外形線
100
AcDbLine
 10
404.2466831922107
 20
255.5526355523617
 30
0.0
 11
404.2466831922107
 21
239.5526355523617
 31
0.0
  0
LINE
  5
7C5
330
18
100
AcDbEntity
  8
外形線
100
AcDbLine
 10
405.1966831922106
 20
235.0526355523617
 30
0.0
 11
411.2966831922107
 21
235.0526355523617
 31
0.0
  0
LINE
  5
7D6
330
18
100
AcDbEntity
  8
中心線
 48
0.5
100
AcDbLine
 10
390.2699834462566
 20
280.0526355523617
 30
0.0
 11
437.8217696255004
 21
280.0526355523617
 31
0.0
  0
LINE
  5
835
330
18
100
AcDbEntity
  8
0
  6
ByBlock
 62
     2
100
AcDbLine
 10
291.0794144889333
 20
319.0526355523617
 30
0.0
 11
291.0794144889333
 21
282.5526355523617
 31
0.0
  0
INSERT
  5
836
330
18
100
AcDbEntity
  8
0
  6
ByBlock
 62
     2
100
AcDbBlockReference
  2
_OPEN
 10
291.0794144889333
 20
321.5526355523617
 30
0.0
 41
2.5
 42
2.5
 43
2.5
 50
90.0
  0
INSERT
  5
837
330
18
100
AcDbEntity
  8
0
  6
ByBlock
 62
     2
100
AcDbBlockReference
  2
_OPEN
 10
291.0794144889333
 20
280.0526355523617
 30
0.0
 41
2.5
 42
2.5
 43
2.5
 50
270.0
  0
MTEXT
  5
838
330
18
100
AcDbEntity
  8
0
  6
ByBlock
 62
     6
100
AcDbMText
 10
289.2044144889334
 20
300.8026355523617
 30
0.0
 40
2.5
 41
0.0
 71
     5
 72
     1
  1
\A1;41.5
  7
STYLE3
 11
0.0000000000000001
 21
1.0
 31
0.0
 73
     1
 44
1.0
  0
POINT
  5
839
330
18
100
AcDbEntity
  8
DEFPOINTS
  6
ByBlock
 62
     0
100
AcDbPoint
 10
327.8723417843075
 20
321.5526355523617
 30
0.0
  0
POINT
  5
83A
330
18
100
AcDbEntity
  8
DEFPOINTS
  6
ByBlock
 62
     0
100
AcDbPoint
 10
327.8723417843075
 20
280.0526355523617
 30
0.0
  0
POINT
  5
841
330
18
100
AcDbEntity
  8
DEFPOINTS
  6
ByBlock
 62
     0
100
AcDbPoint
 10
327.8723417843075
 20
280.0526355523617
 30
0.0
  0
POINT
  5
843
330
18
100
AcDbEntity
  8
DEFPOINTS
  6
ByBlock
 62
     0
100
AcDbPoint
 10
291.0794144889333
 20
215.0526355523617
 30
0.0
  0
LINE
  5
874
330
18
100
AcDbEntity
  8
0
  6
ByBlock
 62
     2
100
AcDbLine
 10
326.3723417843076
 20
245.4024078479329
 30
0.0
 11
329.3723417843076
 21
245.4024078479329
 31
0.0
  0
INSERT
  5
875
330
18
100
AcDbEntity
  8
0
  6
ByBlock
 62
     2
100
AcDbBlockReference
  2
_OPEN
 10
323.8723417843076
 20
245.4024078479329
 30
0.0
 41
2.5
 42
2.5
 43
2.5
 50
180.0
  0
INSERT
  5
876
330
18
100
AcDbEntity
  8
0
  6
ByBlock
 62
     2
100
AcDbBlockReference
  2
_OPEN
 10
331.8723417843076
 20
245.4024078479329
 30
0.0
 41
2.5
 42
2.5
 43
2.5
  0
MTEXT
  5
877
330
18
100
AcDbEntity
  8
0
  6
ByBlock
 62
     6
100
AcDbMText
 10
328.6834442744487
 20
247.2774078479329
 30
0.0
 40
2.5
 41
0.0
 71
     5
 72
     1
  1
\A1;8.0
  7
STYLE3
 73
     1
 44
1.0
  0
POINT
  5
878
330
18
100
AcDbEntity
  8
DEFPOINTS
  6
ByBlock
 62
     0
100
AcDbPoint
 10
323.8723417843076
 20
244.8351049706641
 30
0.0
  0
POINT
  5
879
330
18
100
AcDbEntity
  8
DEFPOINTS
  6
ByBlock
 62
     0
100
AcDbPoint
 10
331.8723417843076
 20
244.6730186293184
 30
0.0
  0
POINT
  5
87A
330
18
100
AcDbEntity
  8
DEFPOINTS
  6
ByBlock
 62
     0
100
AcDbPoint
 10
331.8723417843076
 20
245.4024078479329
 30
0.0
  0
LINE
  5
87B
330
18
100
AcDbEntity
  8
0
  6
ByBlock
 62
     2
100
AcDbLine
 10
403.7466831922107
 20
228.1401890600979
 30
0.0
 11
402.8688873692269
 21
228.1401890600979
 31
0.0
  0
LINE
  5
87C
330
18
100
AcDbEntity
  8
0
  6
ByBlock
 62
     2
100
AcDbLine
 10
412.7466831922105
 20
228.1401890600979
 30
0.0
 11
417.2744394175632
 21
228.1401890600979
 31
0.0
  0
LINE
  5
87D
330
18
100
AcDbEntity
  8
0
  6
ByBlock
 62
     2
100
AcDbLine
 10
406.2466831922106
 20
228.1401890600979
 30
0.0
 11
410.2466831922106
 21
228.1401890600979
 31
0.0
  0
INSERT
  5
87E
330
18
100
AcDbEntity
  8
0
  6
ByBlock
 62
     2
100
AcDbBlockReference
  2
_OPEN
 10
406.2466831922106
 20
228.1401890600979
 30
0.0
 41
2.5
 42
2.5
 43
2.5
  0
INSERT
  5
87F
330
18
100
AcDbEntity
  8
0
  6
ByBlock
 62
     2
100
AcDbBlockReference
  2
_OPEN
 10
410.2466831922106
 20
228.1401890600979
 30
0.0
 41
2.5
 42
2.5
 43
2.5
 50
180.0
  0
MTEXT
  5
880
330
18
100
AcDbEntity
  8
0
  6
ByBlock
 62
     6
100
AcDbMText
 10
415.7088267441209
 20
230.0151890600979
 30
0.0
 40
2.5
 41
0.0
 71
     5
 72
     1
  1
\A1;4
  7
STYLE3
 73
     1
 44
1.0
  0
POINT
  5
881
330
18
100
AcDbEntity
  8
DEFPOINTS
  6
ByBlock
 62
     0
100
AcDbPoint
 10
406.2466831922106
 20
228.7885353355591
 30
0.0
  0
POINT
  5
882
330
18
100
AcDbEntity
  8
DEFPOINTS
  6
ByBlock
 62
     0
100
AcDbPoint
 10
410.2466831922106
 20
228.7074919373666
 30
0.0
  0
POINT
  5
883
330
18
100
AcDbEntity
  8
DEFPOINTS
  6
ByBlock
 62
     0
100
AcDbPoint
 10
410.2466831922106
 20
228.1401890600979
 30
0.0
  0
TEXT
  5
884
330
18
100
AcDbEntity
  8
文字
100
AcDbText
 10
412.5146944864342
 20
229.5179250092127
 30
0.0
 40
2.5
  1
φ
  7
STYLE3
100
AcDbText
  0
TEXT
  5
885
330
18
100
AcDbEntity
  8
文字
100
AcDbText
 10
323.7714103610042
 20
247.6276781133344
 30
0.0
 40
2.5
  1
φ
  7
STYLE3
100
AcDbText
  0
MTEXT
  5
887
330
18
100
AcDbEntity
  8
文字
100
AcDbMText
 10
302.9558756866726
 20
261.6432165871282
 30
0.0
 40
1.0
 41
6.927999999999999
 71
     1
 72
     5
  1

  7
STYLE3
 73
     1
 44
1.0
  0
TEXT
  5
93E
330
18
100
AcDbEntity
  8
文字
100
AcDbText
 10
447.9748191619007
 20
274.9455532653444
 30
0.0
 40
2.5
  1
φ
 50
90.0
  7
STYLE3
100
AcDbText
  0
LWPOLYLINE
  5
96E
330
18
100
AcDbEntity
  8
C
100
AcDbPolyline
 90
        5
 70
     0
 43
0.4
 10
236.6915604445414
 20
366.8501752555372
 10
491.6915604445414
 20
366.8501752555372
 10
491.6915604445414
 20
171.8501752555372
 10
236.6915604445414
 20
171.8501752555372
 10
236.6915604445414
 20
366.8501752555372
  0
MTEXT
  5
EB4
330
18
100
AcDbEntity
  8
DEFPOINTS
  6
Continuous
100
AcDbMText
 10
624.6916853418142
 20
184.890767874579
 30
0.0
 40
0.35
 41
0.0
 71
     4
 72
     1
  1
\A1;
 73
     1
 44
1.0
  0
TEXT
  5
F31
330
18
100
AcDbEntity
  8
文字
100
AcDbText
 10
322.3881222081268
 20
332.6949413851699
 30
0.0
 40
2.5
  1
φ
  7
STYLE3
100
AcDbText
  0
LINE
  5
F32
330
18
100
AcDbEntity
  8
0
  6
ByBlock
 62
     2
100
AcDbLine
 10
414.7466831922105
 20
304.5526355523617
 30
0.0
 11
450.0233002069236
 21
304.5526355523617
 31
0.0
  0
LINE
  5
F33
330
18
100
AcDbEntity
  8
0
  6
ByBlock
 62
     2
100
AcDbLine
 10
414.7466831922105
 20
255.5526355523617
 30
0.0
 11
450.0233002069236
 21
255.5526355523617
 31
0.0
  0
LINE
  5
F34
330
18
100
AcDbEntity
  8
0
  6
ByBlock
 62
     2
100
AcDbLine
 10
448.7733002069235
 20
302.0526355523617
 30
0.0
 11
448.7733002069235
 21
258.0526355523617
 31
0.0
  0
INSERT
  5
F35
330
18
100
AcDbEntity
  8
0
  6
ByBlock
 62
     2
100
AcDbBlockReference
  2
_OPEN
 10
448.7733002069235
 20
304.5526355523617
 30
0.0
 41
2.5
 42
2.5
 43
2.5
 50
90.0
  0
INSERT
  5
F36
330
18
100
AcDbEntity
  8
0
  6
ByBlock
 62
     2
100
AcDbBlockReference
  2
_OPEN
 10
448.7733002069235
 20
255.5526355523617
 30
0.0
 41
2.5
 42
2.5
 43
2.5
 50
270.0
  0
MTEXT
  5
F37
330
18
100
AcDbEntity
  8
0
  6
ByBlock
 62
     6
100
AcDbMText
 10
446.7784567704736
 20
280.0526355523617
 30
0.0
 40
2.5
 41
0.0
 71
     5
 72
     1
  1
\A1;49
  7
STYLE3
 11
0.0000000000000001
 21
1.0
 31
0.0
 73
     1
 44
1.0
  0
POINT
  5
F3A
330
18
100
AcDbEntity
  8
DEFPOINTS
  6
ByBlock
 62
     0
100
AcDbPoint
 10
448.7733002069235
 20
255.5526355523617
 30
0.0
  0
ARC
  5
F7B
330
18
100
AcDbEntity
  8
外形線
100
AcDbCircle
 10
428.2466831922105
 20
280.0526355523617
 30
0.0
 40
8.0
100
AcDbArc
 50
270.0
 51
90.0
  0
CIRCLE
  5
F7C
330
18
100
AcDbEntity
  8
外形線
100
AcDbCircle
 10
428.2466831922105
 20
280.0526355523617
 30
0.0
 40
3.25
  0
ARC
  5
F7D
330
18
100
AcDbEntity
  8
外形線
100
AcDbCircle
 10
428.2466831922105
 20
280.0526355523617
 30
0.0
 40
7.5
100
AcDbArc
 50
270.0
 51
90.0
  0
LINE
  5
F7E
330
18
100
AcDbEntity
  8
外形線
100
AcDbLine
 10
428.2466831922105
 20
288.0526355523617
 30
0.0
 11
418.4154682929235
 21
288.0526355523617
 31
0.0
  0
LINE
  5
F7F
330
18
100
AcDbEntity
  8
外形線
100
AcDbLine
 10
428.2466831922105
 20
272.0526355523617
 30
0.0
 11
418.4154682929235
 21
272.0526355523617
 31
0.0
  0
LINE
  5
F8E
330
18
100
AcDbEntity
  8
外形線
100
AcDbLine
 10
414.7466831922105
 20
303.1526355523617
 30
0.0
 11
414.9466831922105
 21
303.1526355523616
 31
0.0
  0
LINE
  5
F8F
330
18
100
AcDbEntity
  8
外形線
100
AcDbLine
 10
414.7466831922105
 20
256.9526355523617
 30
0.0
 11
414.9466831922105
 21
256.9526355523617
 31
0.0
  0
ARC
  5
F90
330
18
100
AcDbEntity
  8
外形線
100
AcDbCircle
 10
428.2466831922105
 20
280.0526355523617
 30
0.0
 40
8.0
100
AcDbArc
 50
270.0
 51
90.0
  0
LINE
  5
F96
330
18
100
AcDbEntity
  8
外形線
100
AcDbLine
 10
428.2466831922105
 20
287.5526355523617
 30
0.0
 11
417.2466831922106
 21
287.5526355523617
 31
0.0
  0
LINE
  5
F97
330
18
100
AcDbEntity
  8
外形線
100
AcDbLine
 10
428.2466831922105
 20
272.5526355523617
 30
0.0
 11
417.2466831922106
 21
272.5526355523617
 31
0.0
  0
LINE
  5
F9A
330
18
100
AcDbEntity
  8
中心線
 48
0.5
100
AcDbLine
 10
428.2466831922104
 20
289.3064838564612
 30
0.0
 11
428.2466831922108
 21
246.0074030427072
 31
0.0
  0
LINE
  5
FA4
330
18
100
AcDbEntity
  8
想像線
 48
0.5
100
AcDbLine
 10
423.7466831922105
 20
272.0526355523617
 30
0.0
 11
423.7466831922105
 21
288.0526355523617
 31
0.0
  0
LINE
  5
FA5
330
18
100
AcDbEntity
  8
想像線
 48
0.5
100
AcDbLine
 10
418.7466831922106
 20
272.0510498089088
 30
0.0
 11
418.7466831922106
 21
288.0542212958146
 31
0.0
  0
LINE
  5
FD6
330
18
100
AcDbEntity
  8
0
  6
ByBlock
 62
     2
100
AcDbLine
 10
410.7466831922106
 20
247.2574030427073
 30
0.0
 11
425.7466831922106
 21
247.2574030427073
 31
0.0
  0
INSERT
  5
FD7
330
18
100
AcDbEntity
  8
0
  6
ByBlock
 62
     2
100
AcDbBlockReference
  2
_OPEN
 10
408.2466831922106
 20
247.2574030427073
 30
0.0
 41
2.5
 42
2.5
 43
2.5
 50
180.0
  0
INSERT
  5
FD8
330
18
100
AcDbEntity
  8
0
  6
ByBlock
 62
     2
100
AcDbBlockReference
  2
_OPEN
 10
428.2466831922105
 20
247.2574030427073
 30
0.0
 41
2.5
 42
2.5
 43
2.5
  0
MTEXT
  5
FD9
330
18
100
AcDbEntity
  8
0
  6
ByBlock
 62
     6
100
AcDbMText
 10
418.2466831922106
 20
249.1324030427072
 30
0.0
 40
2.5
 41
0.0
 71
     5
 72
     1
  1
\A1;20
  7
STYLE3
 73
     1
 44
1.0
  0
POINT
  5
FDC
330
18
100
AcDbEntity
  8
DEFPOINTS
  6
ByBlock
 62
     0
100
AcDbPoint
 10
428.2466831922105
 20
247.2574030427073
 30
0.0
  0
LINE
  5
FDD
330
18
100
AcDbEntity
  8
0
  6
ByBlock
 62
     2
100
AcDbLine
 10
417.2466831922106
 20
287.5526355523617
 30
0.0
 11
417.2466831922106
 21
259.0181900370079
 31
0.0
  0
LINE
  5
FDF
330
18
100
AcDbEntity
  8
0
  6
ByBlock
 62
     2
100
AcDbLine
 10
419.7466831922105
 20
260.2681900370079
 30
0.0
 11
425.7466831922106
 21
260.2681900370079
 31
0.0
  0
INSERT
  5
FE0
330
18
100
AcDbEntity
  8
0
  6
ByBlock
 62
     2
100
AcDbBlockReference
  2
_OPEN
 10
417.2466831922106
 20
260.2681900370079
 30
0.0
 41
2.5
 42
2.5
 43
2.5
 50
180.0
  0
INSERT
  5
FE1
330
18
100
AcDbEntity
  8
0
  6
ByBlock
 62
     2
100
AcDbBlockReference
  2
_OPEN
 10
428.2466831922105
 20
260.2681900370079
 30
0.0
 41
2.5
 42
2.5
 43
2.5
  0
MTEXT
  5
FE2
330
18
100
AcDbEntity
  8
0
  6
ByBlock
 62
     6
100
AcDbMText
 10
422.7466831922106
 20
262.1431900370079
 30
0.0
 40
2.5
 41
0.0
 71
     5
 72
     1
  1
\A1;11
  7
STYLE3
 73
     1
 44
1.0
  0
POINT
  5
FE3
330
18
100
AcDbEntity
  8
DEFPOINTS
  6
ByBlock
 62
     0
100
AcDbPoint
 10
417.2466831922106
 20
287.5526355523617
 30
0.0
  0
ARC
  5
1008
330
18
100
AcDbEntity
  8
外形線
100
AcDbCircle
 10
267.6216831922073
 20
280.0526355523617
 30
0.0
 40
149.1250000000032
100
AcDbArc
 50
351.0887943333476
 51
356.2059438278885
  0
ARC
  5
100B
330
18
100
AcDbEntity
  8
外形線
100
AcDbCircle
 10
267.6216831922073
 20
280.0526355523617
 30
0.0
 40
149.1250000000032
100
AcDbArc
 50
3.794056172111559
 51
8.911205666652444
  0
ARC
  5
100C
330
18
100
AcDbEntity
  8
外形線
100
AcDbCircle
 10
418.4154682929235
 20
290.0526355523617
 30
0.0
 40
2.0
100
AcDbArc
 50
183.7940561721114
 51
270.0
  0
ARC
  5
100D
330
18
100
AcDbEntity
  8
外形線
100
AcDbCircle
 10
418.4154682929235
 20
270.0526355523617
 30
0.0
 40
2.0
100
AcDbArc
 50
90.0
 51
176.2059438278884
  0
ARC
  5
100F
330
18
100
AcDbEntity
  8
外形線
100
AcDbCircle
 10
267.6216831922062
 20
280.0526355523617
 30
0.0
 40
149.1250000000042
100
AcDbArc
 50
356.2059438278885
 51
3.794056172111511
  0
LINE
  5
10CA
330
18
100
AcDbEntity
  8
0
  6
ByBlock
 62
     2
100
AcDbLine
 10
414.7466831922105
 20
304.5526355523617
 30
0.0
 11
414.7466831922105
 21
333.0714410811149
 31
0.0
  0
LINE
  5
10CB
330
18
100
AcDbEntity
  8
0
  6
ByBlock
 62
     2
100
AcDbLine
 10
410.7466831922105
 20
331.8214410811149
 30
0.0
 11
412.2466831922105
 21
331.8214410811149
 31
0.0
  0
INSERT
  5
10CC
330
18
100
AcDbEntity
  8
0
  6
ByBlock
 62
     2
100
AcDbBlockReference
  2
_OPEN
 10
408.2466831922105
 20
331.8214410811149
 30
0.0
 41
2.5
 42
2.5
 43
2.5
 50
180.0
  0
INSERT
  5
10CD
330
18
100
AcDbEntity
  8
0
  6
ByBlock
 62
     2
100
AcDbBlockReference
  2
_OPEN
 10
414.7466831922105
 20
331.8214410811149
 30
0.0
 41
2.5
 42
2.5
 43
2.5
  0
MTEXT
  5
10CE
330
18
100
AcDbEntity
  8
0
  6
ByBlock
 62
     6
100
AcDbMText
 10
411.4966831922105
 20
333.6964410811149
 30
0.0
 40
2.5
 41
0.0
 71
     5
 72
     1
  1
\A1;6.5
  7
STYLE3
 73
     1
 44
1.0
  0
POINT
  5
10CF
330
18
100
AcDbEntity
  8
DEFPOINTS
  6
ByBlock
 62
     0
100
AcDbPoint
 10
408.2466831922105
 20
304.5526355523617
 30
0.0
  0
POINT
  5
10D0
330
18
100
AcDbEntity
  8
DEFPOINTS
  6
ByBlock
 62
     0
100
AcDbPoint
 10
414.7466831922105
 20
304.5526355523617
 30
0.0
  0
POINT
  5
10D1
330
18
100
AcDbEntity
  8
DEFPOINTS
  6
ByBlock
 62
     0
100
AcDbPoint
 10
414.7466831922105
 20
331.8214410811149
 30
0.0
  0
POINT
  5
10D9
330
18
100
AcDbEntity
  8
DEFPOINTS
  6
ByBlock
 62
     0
100
AcDbPoint
 10
408.2466831922105
 20
321.5526355523617
 30
0.0
  0
CIRCLE
  5
111B
330
18
100
AcDbEntity
  8
針
100
AcDbCircle
 10
327.8723417843075
 20
280.0526355523617
 30
0.0
 40
1.9
  0
LINE
  5
1121
330
18
100
AcDbEntity
  8
針
100
AcDbLine
 10
315.0138777633668
 20
297.9039101013169
 30
0.0
 11
326.5363288681559
 21
282.9122805456914
 31
0.0
  0
ARC
  5
1122
330
18
100
AcDbEntity
  8
針
100
AcDbCircle
 10
328.9633798512808
 20
284.6756363025688
 30
0.0
 40
3.0
100
AcDbArc
 50
216.0
 51
245.4722791770396
  0
LINE
  5
1124
330
18
100
AcDbEntity
  8
針
100
AcDbLine
 10
314.9410662338731
 20
297.8510094286107
 30
0.0
 11
315.0138777633668
 21
297.9039101013169
 31
0.0
  0
ARC
  5
1126
330
18
100
AcDbEntity
  8
針
100
AcDbCircle
 10
323.138457491781
 20
280.4435824860629
 30
0.0
 40
3.0
100
AcDbArc
 50
6.527720822960354
 51
36.00000000000001
  0
LINE
  5
1127
330
18
100
AcDbEntity
  8
針
100
AcDbLine
 10
314.8682547043794
 20
297.7981087559043
 30
0.0
 11
325.5655084749058
 21
282.2069382429404
 31
0.0
  0
LINE
  5
1128
330
18
100
AcDbEntity
  8
針
100
AcDbLine
 10
314.941066233873
 20
297.8510094286106
 30
0.0
 11
314.8682547043794
 21
297.7981087559043
 31
0.0
  0
CIRCLE
  5
1129
330
18
100
AcDbEntity
  8
針
100
AcDbCircle
 10
327.8723417843075
 20
280.0526355523617
 30
0.0
 40
0.475
  0
CIRCLE
  5
112B
330
18
100
AcDbEntity
  8
針
100
AcDbCircle
 10
327.8723417843075
 20
280.0526355523617
 30
0.0
 40
1.5
  0
HATCH
  5
1137
330
18
100
AcDbEntity
  8
針
100
AcDbHatch
 10
0.0
 20
0.0
 30
0.0
210
0.0
220
0.0
230
1.0
  2
SOLID
 70
     1
 71
     0
 91
        2
 92
        7
 72
     1
 73
     1
 93
        5
 10
315.0138777633668
 20
297.9039101013169
 42
0.0
 10
314.9410662338731
 20
297.8510094286107
 42
0.0
 10
314.8682547043794
 20
297.7981087559043
 42
0.0
 10
318.5482554105746
 20
292.4345341666765
 42
-0.0085634322047721
 10
318.9777575695609
 20
292.7465857510501
 42
0.0
 97
        0
 92
        7
 72
     1
 73
     1
 93
        6
 10
318.9777575695609
 20
292.7465857510501
 42
0.0085634322047721
 10
318.5482554105746
 20
292.4345341666765
 42
0.0
 10
325.5655084749061
 20
282.20693824294
 42
-0.1293106770632391
 10
326.1190084001404
 20
280.784634216271
 42
-0.2805221108582334
 10
327.7179794975899
 20
281.9463547196195
 42
-0.1293106770632486
 10
326.5363288681562
 20
282.9122805456911
 42
0.0
 97
        0
 75
     0
 76
     1
 47
0.0423559757596284
 98
        2
 10
318.3609120828545
 20
293.0749859379156
 10
321.0529983087092
 20
289.5859950494079
450
        0
451
        0
460
0.0
461
0.0
452
        0
462
0.0
453
        0
470

  0
LINE
  5
11FB
330
18
100
AcDbEntity
  8
外形線
100
AcDbLine
 10
326.5723417843076
 20
213.0526355523617
 30
0.0
 11
329.1723417843075
 21
213.0526355523617
 31
0.0
  0
LINE
  5
1200
330
18
100
AcDbEntity
  8
外形線
100
AcDbLine
 10
330.3723417843077
 20
217.5526355523618
 30
0.0
 11
329.1723417843075
 21
213.0526355523617
 31
0.0
  0
LINE
  5
1201
330
18
100
AcDbEntity
  8
外形線
100
AcDbLine
 10
330.3723417843077
 20
220.5526355523617
 30
0.0
 11
330.3723417843077
 21
219.6526355523618
 31
0.0
  0
LINE
  5
1202
330
18
100
AcDbEntity
  8
外形線
100
AcDbLine
 10
325.3723417843076
 20
217.5526355523618
 30
0.0
 11
326.5723417843076
 21
213.0526355523617
 31
0.0
  0
LINE
  5
1203
330
18
100
AcDbEntity
  8
外形線
100
AcDbLine
 10
325.3723417843076
 20
217.5526355523618
 30
0.0
 11
330.3723417843077
 21
217.5526355523618
 31
0.0
  0
LINE
  5
1204
330
18
100
AcDbEntity
  8
外形線
100
AcDbLine
 10
325.3723417843076
 20
220.5526355523617
 30
0.0
 11
330.3723417843077
 21
220.5526355523617
 31
0.0
  0
LINE
  5
1205
330
18
100
AcDbEntity
  8
外形線
100
AcDbLine
 10
325.8723417843076
 20
224.0526355523618
 30
0.0
 11
329.8723417843076
 21
224.0526355523618
 31
0.0
  0
LINE
  5
1206
330
18
100
AcDbEntity
  8
外形線
100
AcDbLine
 10
325.3723417843076
 20
219.6526355523618
 30
0.0
 11
330.3723417843077
 21
219.6526355523618
 31
0.0
  0
LINE
  5
1207
330
18
100
AcDbEntity
  8
外形線
100
AcDbLine
 10
325.3723417843076
 20
218.4526355523618
 30
0.0
 11
330.3723417843077
 21
218.4526355523618
 31
0.0
  0
LINE
  5
1208
330
18
100
AcDbEntity
  8
外形線
100
AcDbLine
 10
325.3723417843076
 20
220.5526355523617
 30
0.0
 11
325.3723417843076
 21
219.6526355523618
 31
0.0
  0
LINE
  5
1209
330
18
100
AcDbEntity
  8
外形線
100
AcDbLine
 10
330.3723417843077
 20
218.4526355523618
 30
0.0
 11
330.3723417843077
 21
217.5526355523618
 31
0.0
  0
LINE
  5
120A
330
18
100
AcDbEntity
  8
外形線
100
AcDbLine
 10
325.3723417843076
 20
218.4526355523618
 30
0.0
 11
325.3723417843076
 21
217.5526355523618
 31
0.0
  0
ARC
  5
120C
330
18
100
AcDbEntity
  8
外形線
100
AcDbCircle
 10
330.732896911854
 20
219.0526355523617
 30
0.0
 40
0.7
100
AcDbArc
 50
121.0027191338674
 51
238.9972808661233
  0
ARC
  5
120D
330
18
100
AcDbEntity
  8
外形線
100
AcDbCircle
 10
325.0117866567612
 20
219.0526355523617
 30
0.0
 40
0.7
100
AcDbArc
 50
301.0027191338767
 51
58.99728086613252
  0
LINE
  5
120E
330
18
100
AcDbEntity
  8
外形線
100
AcDbLine
 10
330.0723417843077
 20
223.8526355523617
 30
0.0
 11
330.0723417843076
 21
220.5526355523617
 31
0.0
  0
LINE
  5
120F
330
18
100
AcDbEntity
  8
外形線
100
AcDbLine
 10
325.6723417843077
 20
223.8526355523617
 30
0.0
 11
325.6723417843076
 21
220.5526355523617
 31
0.0
  0
LINE
  5
1210
330
18
100
AcDbEntity
  8
外形線
100
AcDbLine
 10
325.6723417843077
 20
223.8526355523617
 30
0.0
 11
325.8723417843076
 21
224.0526355523618
 31
0.0
  0
LINE
  5
1211
330
18
100
AcDbEntity
  8
外形線
 48
0.5
100
AcDbLine
 10
329.8723417843076
 20
224.0526355523618
 30
0.0
 11
330.0723417843077
 21
223.8526355523617
 31
0.0
  0
LINE
  5
1212
330
18
100
AcDbEntity
  8
外形線
100
AcDbLine
 10
325.6723417843077
 20
223.8526355523617
 30
0.0
 11
330.0723417843077
 21
223.8526355523617
 31
0.0
  0
LINE
  5
1213
330
18
100
AcDbEntity
  8
中心線
100
AcDbLine
 10
327.5218604318414
 20
217.5526355523617
 30
0.0
 11
327.8723417843076
 21
218.1596870619387
 31
0.0
  0
LINE
  5
1214
330
18
100
AcDbEntity
  8
中心線
100
AcDbLine
 10
326.3671598934623
 20
217.5526355523618
 30
0.0
 11
326.8867751357329
 21
218.4526355523617
 31
0.0
  0
LINE
  5
1215
330
18
100
AcDbEntity
  8
中心線
100
AcDbLine
 10
325.3723417843076
 20
217.8295600430162
 30
0.0
 11
325.7320745973536
 21
218.4526355523617
 31
0.0
  0
LINE
  5
1217
330
18
100
AcDbEntity
  8
中心線
100
AcDbLine
 10
326.2816888494525
 20
217.5526355523618
 30
0.0
 11
325.7620736071819
 21
218.4526355523617
 31
0.0
  0
LINE
  5
1218
330
18
100
AcDbEntity
  8
中心線
100
AcDbLine
 10
327.4363893878317
 20
217.5526355523618
 30
0.0
 11
326.916774145561
 21
218.4526355523617
 31
0.0
  0
LINE
  5
121C
330
18
100
AcDbEntity
  8
中心線
100
AcDbLine
 10
325.7898096242727
 20
217.5526355523618
 30
0.0
 11
326.3094248665433
 21
218.4526355523617
 31
0.0
  0
LINE
  5
121D
330
18
100
AcDbEntity
  8
中心線
100
AcDbLine
 10
326.9445101626519
 20
217.5526355523618
 30
0.0
 11
327.4641254049225
 21
218.4526355523617
 31
0.0
  0
LINE
  5
121F
330
18
100
AcDbEntity
  8
中心線
100
AcDbLine
 10
327.8723417843076
 20
217.7975438519839
 30
0.0
 11
327.4941244147506
 21
218.4526355523617
 31
0.0
  0
LINE
  5
1220
330
18
100
AcDbEntity
  8
中心線
100
AcDbLine
 10
326.8590391186421
 20
217.5526355523618
 30
0.0
 11
326.3394238763715
 21
218.4526355523617
 31
0.0
  0
LINE
  5
1221
330
18
100
AcDbEntity
  8
中心線
100
AcDbLine
 10
325.704338580263
 20
217.5526355523618
 30
0.0
 11
325.3723417843076
 21
218.1276708709065
 31
0.0
  0
LINE
  5
1222
330
18
100
AcDbEntity
  8
中心線
100
AcDbLine
 10
327.5218604318413
 20
219.6526355523618
 30
0.0
 11
327.8723417843075
 21
220.2596870619387
 31
0.0
  0
LINE
  5
1223
330
18
100
AcDbEntity
  8
中心線
100
AcDbLine
 10
327.8723417843075
 20
219.8975438519839
 30
0.0
 11
327.4941244147505
 21
220.5526355523618
 31
0.0
  0
LINE
  5
1224
330
18
100
AcDbEntity
  8
中心線
100
AcDbLine
 10
325.7043385802628
 20
219.6526355523618
 30
0.0
 11
325.3723417843075
 21
220.2276708709065
 31
0.0
  0
LINE
  5
1225
330
18
100
AcDbEntity
  8
中心線
100
AcDbLine
 10
326.9445101626518
 20
219.6526355523618
 30
0.0
 11
327.4641254049224
 21
220.5526355523618
 31
0.0
  0
LINE
  5
1226
330
18
100
AcDbEntity
  8
中心線
100
AcDbLine
 10
325.7898096242726
 20
219.6526355523618
 30
0.0
 11
326.3094248665432
 21
220.5526355523618
 31
0.0
  0
LINE
  5
1227
330
18
100
AcDbEntity
  8
中心線
100
AcDbLine
 10
326.3671598934621
 20
219.6526355523618
 30
0.0
 11
326.8867751357328
 21
220.5526355523618
 31
0.0
  0
LINE
  5
1228
330
18
100
AcDbEntity
  8
中心線
100
AcDbLine
 10
326.859039118642
 20
219.6526355523618
 30
0.0
 11
326.3394238763714
 21
220.5526355523618
 31
0.0
  0
LINE
  5
1229
330
18
100
AcDbEntity
  8
中心線
100
AcDbLine
 10
326.2816888494524
 20
219.6526355523618
 30
0.0
 11
325.7620736071818
 21
220.5526355523618
 31
0.0
  0
LINE
  5
122A
330
18
100
AcDbEntity
  8
中心線
100
AcDbLine
 10
327.4363893878316
 20
219.6526355523618
 30
0.0
 11
326.9167741455609
 21
220.5526355523618
 31
0.0
  0
LINE
  5
122B
330
18
100
AcDbEntity
  8
中心線
100
AcDbLine
 10
325.3723417843075
 20
219.9295600430163
 30
0.0
 11
325.7320745973535
 21
220.5526355523618
 31
0.0
  0
LINE
  5
1250
330
18
100
AcDbEntity
  8
外形線
100
AcDbLine
 10
405.7466831922106
 20
217.5526355523618
 30
0.0
 11
406.9466831922107
 21
213.0526355523617
 31
0.0
  0
LINE
  5
1251
330
18
100
AcDbEntity
  8
外形線
100
AcDbLine
 10
410.7466831922107
 20
217.5526355523618
 30
0.0
 11
409.5466831922106
 21
213.0526355523617
 31
0.0
  0
LINE
  5
1252
330
18
100
AcDbEntity
  8
外形線
100
AcDbLine
 10
406.9466831922107
 20
213.0526355523617
 30
0.0
 11
409.5466831922106
 21
213.0526355523617
 31
0.0
  0
LINE
  5
1254
330
18
100
AcDbEntity
  8
外形線
100
AcDbLine
 10
406.0466831922107
 20
223.8526355523617
 30
0.0
 11
410.4466831922107
 21
223.8526355523617
 31
0.0
  0
LINE
  5
1255
330
18
100
AcDbEntity
  8
外形線
100
AcDbLine
 10
405.7466831922106
 20
218.4526355523618
 30
0.0
 11
410.7466831922107
 21
218.4526355523618
 31
0.0
  0
LINE
  5
1256
330
18
100
AcDbEntity
  8
外形線
100
AcDbLine
 10
405.7466831922106
 20
219.6526355523618
 30
0.0
 11
410.7466831922107
 21
219.6526355523618
 31
0.0
  0
LINE
  5
1257
330
18
100
AcDbEntity
  8
外形線
100
AcDbLine
 10
406.2466831922107
 20
224.0526355523618
 30
0.0
 11
410.2466831922107
 21
224.0526355523618
 31
0.0
  0
LINE
  5
1258
330
18
100
AcDbEntity
  8
外形線
100
AcDbLine
 10
405.7466831922106
 20
220.5526355523617
 30
0.0
 11
410.7466831922107
 21
220.5526355523617
 31
0.0
  0
LINE
  5
1259
330
18
100
AcDbEntity
  8
外形線
100
AcDbLine
 10
405.7466831922106
 20
217.5526355523618
 30
0.0
 11
410.7466831922107
 21
217.5526355523618
 31
0.0
  0
LINE
  5
125A
330
18
100
AcDbEntity
  8
外形線
100
AcDbLine
 10
406.0466831922107
 20
223.8526355523617
 30
0.0
 11
406.0466831922106
 21
220.5526355523617
 31
0.0
  0
LINE
  5
125B
330
18
100
AcDbEntity
  8
中心線
100
AcDbLine
 10
405.7466831922106
 20
219.9295600430163
 30
0.0
 11
406.1064160052565
 21
220.5526355523618
 31
0.0
  0
LINE
  5
125C
330
18
100
AcDbEntity
  8
中心線
100
AcDbLine
 10
407.8107307957346
 20
219.6526355523618
 30
0.0
 11
407.2911155534639
 21
220.5526355523618
 31
0.0
  0
LINE
  5
125D
330
18
100
AcDbEntity
  8
中心線
100
AcDbLine
 10
406.6560302573554
 20
219.6526355523618
 30
0.0
 11
406.1364150150849
 21
220.5526355523618
 31
0.0
  0
LINE
  5
125E
330
18
100
AcDbEntity
  8
中心線
100
AcDbLine
 10
407.2333805265451
 20
219.6526355523618
 30
0.0
 11
406.7137652842744
 21
220.5526355523618
 31
0.0
  0
LINE
  5
125F
330
18
100
AcDbEntity
  8
中心線
100
AcDbLine
 10
406.7415013013652
 20
219.6526355523618
 30
0.0
 11
407.2611165436359
 21
220.5526355523618
 31
0.0
  0
LINE
  5
1260
330
18
100
AcDbEntity
  8
中心線
100
AcDbLine
 10
406.1641510321756
 20
219.6526355523618
 30
0.0
 11
406.6837662744462
 21
220.5526355523618
 31
0.0
  0
LINE
  5
1261
330
18
100
AcDbEntity
  8
中心線
100
AcDbLine
 10
407.3188515705549
 20
219.6526355523618
 30
0.0
 11
407.8384668128255
 21
220.5526355523618
 31
0.0
  0
LINE
  5
1262
330
18
100
AcDbEntity
  8
中心線
100
AcDbLine
 10
406.0786799881659
 20
219.6526355523618
 30
0.0
 11
405.7466831922106
 21
220.2276708709065
 31
0.0
  0
LINE
  5
1263
330
18
100
AcDbEntity
  8
中心線
100
AcDbLine
 10
408.2466831922105
 20
219.8975438519839
 30
0.0
 11
407.8684658226536
 21
220.5526355523618
 31
0.0
  0
LINE
  5
1264
330
18
100
AcDbEntity
  8
中心線
100
AcDbLine
 10
407.8962018397444
 20
219.6526355523618
 30
0.0
 11
408.2466831922105
 21
220.2596870619387
 31
0.0
  0
LINE
  5
1265
330
18
100
AcDbEntity
  8
中心線
100
AcDbLine
 10
406.078679988166
 20
217.5526355523618
 30
0.0
 11
405.7466831922106
 21
218.1276708709065
 31
0.0
  0
LINE
  5
1266
330
18
100
AcDbEntity
  8
中心線
100
AcDbLine
 10
407.2333805265452
 20
217.5526355523618
 30
0.0
 11
406.7137652842745
 21
218.4526355523617
 31
0.0
  0
LINE
  5
1267
330
18
100
AcDbEntity
  8
中心線
100
AcDbLine
 10
408.2466831922107
 20
217.7975438519839
 30
0.0
 11
407.8684658226537
 21
218.4526355523617
 31
0.0
  0
LINE
  5
1268
330
18
100
AcDbEntity
  8
中心線
100
AcDbLine
 10
407.318851570555
 20
217.5526355523618
 30
0.0
 11
407.8384668128256
 21
218.4526355523617
 31
0.0
  0
LINE
  5
1269
330
18
100
AcDbEntity
  8
中心線
100
AcDbLine
 10
406.1641510321758
 20
217.5526355523618
 30
0.0
 11
406.6837662744464
 21
218.4526355523617
 31
0.0
  0
LINE
  5
126A
330
18
100
AcDbEntity
  8
中心線
100
AcDbLine
 10
407.8107307957347
 20
217.5526355523618
 30
0.0
 11
407.2911155534641
 21
218.4526355523617
 31
0.0
  0
LINE
  5
126B
330
18
100
AcDbEntity
  8
中心線
100
AcDbLine
 10
406.6560302573556
 20
217.5526355523618
 30
0.0
 11
406.136415015085
 21
218.4526355523617
 31
0.0
  0
LINE
  5
126C
330
18
100
AcDbEntity
  8
中心線
100
AcDbLine
 10
405.7466831922106
 20
217.8295600430162
 30
0.0
 11
406.1064160052567
 21
218.4526355523617
 31
0.0
  0
LINE
  5
126D
330
18
100
AcDbEntity
  8
中心線
100
AcDbLine
 10
406.7415013013653
 20
217.5526355523618
 30
0.0
 11
407.2611165436359
 21
218.4526355523617
 31
0.0
  0
LINE
  5
126E
330
18
100
AcDbEntity
  8
中心線
100
AcDbLine
 10
407.8962018397445
 20
217.5526355523617
 30
0.0
 11
408.2466831922107
 21
218.1596870619387
 31
0.0
  0
ARC
  5
126F
330
18
100
AcDbEntity
  8
外形線
100
AcDbCircle
 10
405.3861280646643
 20
219.0526355523617
 30
0.0
 40
0.7
100
AcDbArc
 50
301.0027191338767
 51
58.99728086613252
  0
LINE
  5
1270
330
18
100
AcDbEntity
  8
外形線
100
AcDbLine
 10
405.7466831922106
 20
218.4526355523618
 30
0.0
 11
405.7466831922106
 21
217.5526355523618
 31
0.0
  0
LINE
  5
1271
330
18
100
AcDbEntity
  8
外形線
100
AcDbLine
 10
405.7466831922106
 20
220.5526355523617
 30
0.0
 11
405.7466831922106
 21
219.6526355523618
 31
0.0
  0
LINE
  5
1272
330
18
100
AcDbEntity
  8
外形線
100
AcDbLine
 10
406.0466831922107
 20
223.8526355523617
 30
0.0
 11
406.2466831922107
 21
224.0526355523618
 31
0.0
  0
LINE
  5
1273
330
18
100
AcDbEntity
  8
外形線
100
AcDbLine
 10
410.4466831922107
 20
223.8526355523617
 30
0.0
 11
410.4466831922106
 21
220.5526355523617
 31
0.0
  0
ARC
  5
1274
330
18
100
AcDbEntity
  8
外形線
100
AcDbCircle
 10
411.107238319757
 20
219.0526355523617
 30
0.0
 40
0.7
100
AcDbArc
 50
121.0027191338674
 51
238.9972808661233
  0
LINE
  5
1275
330
18
100
AcDbEntity
  8
外形線
100
AcDbLine
 10
410.7466831922107
 20
218.4526355523618
 30
0.0
 11
410.7466831922107
 21
217.5526355523618
 31
0.0
  0
LINE
  5
1276
330
18
100
AcDbEntity
  8
外形線
100
AcDbLine
 10
410.7466831922107
 20
220.5526355523617
 30
0.0
 11
410.7466831922107
 21
219.6526355523618
 31
0.0
  0
LINE
  5
1277
330
18
100
AcDbEntity
  8
外形線
 48
0.5
100
AcDbLine
 10
410.2466831922107
 20
224.0526355523618
 30
0.0
 11
410.4466831922107
 21
223.8526355523617
 31
0.0
  0
LINE
  5
1278
330
18
100
AcDbEntity
  8
外形線
100
AcDbLine
 10
394.2466831922105
 20
307.5526355523617
 30
0.0
 11
400.2466831922105
 21
307.5526355523617
 31
0.0
  0
LINE
  5
127A
330
18
100
AcDbEntity
  8
外形線
100
AcDbLine
 10
393.2466831922105
 20
306.5526355523617
 30
0.0
 11
393.2466831922106
 21
280.0526355523618
 31
0.0
  0
LINE
  5
127B
330
18
100
AcDbEntity
  8
外形線
100
AcDbLine
 10
393.2466831922105
 20
306.5526355523617
 30
0.0
 11
394.2466831922105
 21
307.5526355523617
 31
0.0
  0
LINE
  5
127C
330
18
100
AcDbEntity
  8
外形線
100
AcDbLine
 10
403.2466831922104
 20
306.5526355523617
 30
0.0
 11
403.2466831922104
 21
280.0526355523617
 31
0.0
  0
LINE
  5
127D
330
18
100
AcDbEntity
  8
外形線
100
AcDbLine
 10
401.2466831922106
 20
306.5526355523617
 30
0.0
 11
401.2466831922106
 21
280.0526355523617
 31
0.0
  0
LINE
  5
127E
330
18
100
AcDbEntity
  8
外形線
100
AcDbLine
 10
400.2466831922105
 20
307.5526355523617
 30
0.0
 11
401.2466831922106
 21
306.5526355523617
 31
0.0
  0
LINE
  5
127F
330
18
100
AcDbEntity
  8
外形線
100
AcDbLine
 10
401.2466831922106
 20
306.5526355523617
 30
0.0
 11
403.2466831922104
 21
306.5526355523617
 31
0.0
  0
LINE
  5
1280
330
18
100
AcDbEntity
  8
外形線
100
AcDbLine
 10
394.2466831922105
 20
307.5526355523617
 30
0.0
 11
394.2466831922105
 21
280.0526355523618
 31
0.0
  0
LINE
  5
1281
330
18
100
AcDbEntity
  8
外形線
100
AcDbLine
 10
400.2466831922105
 20
307.5526355523617
 30
0.0
 11
400.2466831922106
 21
280.0526355523618
 31
0.0
  0
LINE
  5
128A
330
18
100
AcDbEntity
  8
外形線
100
AcDbLine
 10
394.2466831922105
 20
252.5526355523617
 30
0.0
 11
394.2466831922105
 21
280.0526355523617
 31
0.0
  0
LINE
  5
128B
330
18
100
AcDbEntity
  8
外形線
100
AcDbLine
 10
393.2466831922105
 20
253.5526355523617
 30
0.0
 11
393.2466831922106
 21
280.0526355523617
 31
0.0
  0
LINE
  5
128D
330
18
100
AcDbEntity
  8
外形線
100
AcDbLine
 10
393.2466831922105
 20
253.5526355523617
 30
0.0
 11
394.2466831922105
 21
252.5526355523617
 31
0.0
  0
LINE
  5
128E
330
18
100
AcDbEntity
  8
外形線
100
AcDbLine
 10
400.2466831922105
 20
252.5526355523617
 30
0.0
 11
400.2466831922106
 21
280.0526355523617
 31
0.0
  0
LINE
  5
128F
330
18
100
AcDbEntity
  8
外形線
100
AcDbLine
 10
401.2466831922106
 20
253.5526355523617
 30
0.0
 11
401.2466831922106
 21
280.0526355523617
 31
0.0
  0
LINE
  5
1290
330
18
100
AcDbEntity
  8
外形線
100
AcDbLine
 10
403.2466831922104
 20
253.5526355523617
 30
0.0
 11
403.2466831922104
 21
280.0526355523617
 31
0.0
  0
LINE
  5
1291
330
18
100
AcDbEntity
  8
外形線
100
AcDbLine
 10
394.2466831922105
 20
252.5526355523617
 30
0.0
 11
400.2466831922105
 21
252.5526355523617
 31
0.0
  0
LINE
  5
1292
330
18
100
AcDbEntity
  8
外形線
100
AcDbLine
 10
400.2466831922105
 20
252.5526355523617
 30
0.0
 11
401.2466831922106
 21
253.5526355523617
 31
0.0
  0
LINE
  5
1293
330
18
100
AcDbEntity
  8
外形線
100
AcDbLine
 10
401.2466831922106
 20
253.5526355523617
 30
0.0
 11
403.2466831922104
 21
253.5526355523617
 31
0.0
  0
LINE
  5
1294
330
18
100
AcDbEntity
  8
外形線
  6
Continuous
 62
     4
100
AcDbLine
 10
400.2466831922105
 20
277.0526355523618
 30
0.0
 11
394.2466831922105
 21
277.0526355523617
 31
0.0
  0
LINE
  5
1295
330
18
100
AcDbEntity
  8
外形線
  6
Continuous
 62
     4
100
AcDbLine
 10
394.2466831922105
 20
253.3636208465927
 30
0.0
 11
400.2466831922105
 21
253.3636208465927
 31
0.0
  0
LINE
  5
1296
330
18
100
AcDbEntity
  8
外形線
  6
Continuous
 62
     4
100
AcDbLine
 10
394.2466831922105
 20
254.3636208465926
 30
0.0
 11
400.2466831922105
 21
254.3636208465926
 31
0.0
  0
LINE
  5
1297
330
18
100
AcDbEntity
  8
外形線
  6
Continuous
 62
     4
100
AcDbLine
 10
394.2466831922105
 20
255.3636208465927
 30
0.0
 11
400.2466831922105
 21
255.3636208465927
 31
0.0
  0
LINE
  5
1298
330
18
100
AcDbEntity
  8
外形線
  6
Continuous
 62
     4
100
AcDbLine
 10
394.2466831922105
 20
256.3636208465926
 30
0.0
 11
400.2466831922105
 21
256.3636208465926
 31
0.0
  0
LINE
  5
1299
330
18
100
AcDbEntity
  8
外形線
  6
Continuous
 62
     4
100
AcDbLine
 10
394.2466831922105
 20
257.3636208465927
 30
0.0
 11
400.2466831922105
 21
257.3636208465927
 31
0.0
  0
LINE
  5
129A
330
18
100
AcDbEntity
  8
外形線
  6
Continuous
 62
     4
100
AcDbLine
 10
394.2466831922105
 20
258.3636208465927
 30
0.0
 11
400.2466831922105
 21
258.3636208465927
 31
0.0
  0
LINE
  5
1313
330
18
100
AcDbEntity
  8
外形線
100
AcDbLine
 10
404.9966831922106
 20
235.8526355523617
 30
0.0
 11
411.4966831922107
 21
235.8526355523617
 31
0.0
  0
LINE
  5
1314
330
18
100
AcDbEntity
  8
外形線
100
AcDbLine
 10
404.3466831922106
 20
237.0526355523617
 30
0.0
 11
412.1466831922106
 21
237.0526355523617
 31
0.0
  0
LINE
  5
1315
330
18
100
AcDbEntity
  8
外形線
100
AcDbLine
 10
404.2466831922107
 20
239.5526355523617
 30
0.0
 11
412.2466831922107
 21
239.5526355523617
 31
0.0
  0
LINE
  5
1316
330
18
100
AcDbEntity
  8
外形線
100
AcDbLine
 10
412.1466831922105
 20
239.5526355523617
 30
0.0
 11
412.1466831922106
 21
237.0526355523617
 31
0.0
  0
LINE
  5
1317
330
18
100
AcDbEntity
  8
外形線
100
AcDbLine
 10
404.3466831922105
 20
239.5526355523617
 30
0.0
 11
404.3466831922106
 21
237.0526355523617
 31
0.0
  0
LINE
  5
1318
330
18
100
AcDbEntity
  8
外形線
100
AcDbLine
 10
411.4966831922107
 20
235.8526355523617
 30
0.0
 11
411.4966831922107
 21
235.2526355523617
 31
0.0
  0
LINE
  5
1319
330
18
100
AcDbEntity
  8
外形線
100
AcDbLine
 10
404.9966831922106
 20
235.8526355523617
 30
0.0
 11
404.9966831922106
 21
235.2526355523616
 31
0.0
  0
LINE
  5
131A
330
18
100
AcDbEntity
  8
外形線
100
AcDbLine
 10
404.9966831922106
 20
235.2526355523616
 30
0.0
 11
405.1966831922106
 21
235.0526355523617
 31
0.0
  0
LINE
  5
131B
330
18
100
AcDbEntity
  8
外形線
 48
0.5
100
AcDbLine
 10
411.2966831922107
 20
235.0526355523617
 30
0.0
 11
411.4966831922107
 21
235.2526355523617
 31
0.0
  0
ARC
  5
131C
330
18
100
AcDbEntity
  8
外形線
100
AcDbCircle
 10
411.9466831922108
 20
236.3888258170999
 30
0.0
 40
0.7
100
AcDbArc
 50
108.5043392264886
 51
229.9947991151398
  0
ARC
  5
131E
330
18
100
AcDbEntity
  8
外形線
100
AcDbCircle
 10
404.5466831922104
 20
236.3888258170999
 30
0.0
 40
0.7
100
AcDbArc
 50
310.0052008848602
 51
71.49566077351135
  0
LINE
  5
132A
330
18
100
AcDbEntity
  8
外形線
100
AcDbLine
 10
324.6223417843075
 20
235.8526355523617
 30
0.0
 11
331.1223417843077
 21
235.8526355523617
 31
0.0
  0
LINE
  5
132B
330
18
100
AcDbEntity
  8
外形線
100
AcDbLine
 10
324.8223417843076
 20
235.0526355523617
 30
0.0
 11
330.9223417843076
 21
235.0526355523617
 31
0.0
  0
LINE
  5
132C
330
18
100
AcDbEntity
  8
外形線
100
AcDbLine
 10
323.9723417843076
 20
237.0526355523617
 30
0.0
 11
331.7723417843075
 21
237.0526355523617
 31
0.0
  0
LINE
  5
132D
330
18
100
AcDbEntity
  8
外形線
100
AcDbLine
 10
323.8723417843076
 20
239.5526355523617
 30
0.0
 11
331.8723417843076
 21
239.5526355523617
 31
0.0
  0
LINE
  5
132E
330
18
100
AcDbEntity
  8
外形線
100
AcDbLine
 10
324.6223417843075
 20
235.8526355523617
 30
0.0
 11
324.6223417843076
 21
235.2526355523616
 31
0.0
  0
LINE
  5
132F
330
18
100
AcDbEntity
  8
外形線
100
AcDbLine
 10
324.6223417843076
 20
235.2526355523616
 30
0.0
 11
324.8223417843076
 21
235.0526355523617
 31
0.0
  0
ARC
  5
1330
330
18
100
AcDbEntity
  8
外形線
100
AcDbCircle
 10
324.1723417843074
 20
236.3888258170999
 30
0.0
 40
0.7
100
AcDbArc
 50
310.0052008848602
 51
71.49566077351135
  0
LINE
  5
1331
330
18
100
AcDbEntity
  8
外形線
100
AcDbLine
 10
323.9723417843075
 20
239.5526355523617
 30
0.0
 11
323.9723417843076
 21
237.0526355523617
 31
0.0
  0
LINE
  5
1332
330
18
100
AcDbEntity
  8
外形線
100
AcDbLine
 10
331.1223417843077
 20
235.8526355523617
 30
0.0
 11
331.1223417843076
 21
235.2526355523617
 31
0.0
  0
LINE
  5
1333
330
18
100
AcDbEntity
  8
外形線
 48
0.5
100
AcDbLine
 10
330.9223417843076
 20
235.0526355523617
 30
0.0
 11
331.1223417843076
 21
235.2526355523617
 31
0.0
  0
ARC
  5
1334
330
18
100
AcDbEntity
  8
外形線
100
AcDbCircle
 10
331.5723417843077
 20
236.3888258170999
 30
0.0
 40
0.7
100
AcDbArc
 50
108.5043392264886
 51
229.9947991151398
  0
LINE
  5
1335
330
18
100
AcDbEntity
  8
外形線
100
AcDbLine
 10
331.7723417843075
 20
239.5526355523617
 30
0.0
 11
331.7723417843075
 21
237.0526355523617
 31
0.0
  0
LINE
  5
1553
330
18
100
AcDbEntity
  8
外形線
100
AcDbLine
 10
324.9723417843076
 20
218.5526355523618
 30
0.0
 11
330.7723417843076
 21
218.5526355523618
 31
0.0
  0
LINE
  5
1554
330
18
100
AcDbEntity
  8
外形線
 48
0.5
100
AcDbLine
 10
324.9723417843076
 20
220.5526355523617
 30
0.0
 11
324.9723417843076
 21
218.5526355523618
 31
0.0
  0
LINE
  5
1555
330
18
100
AcDbEntity
  8
外形線
 48
0.5
100
AcDbLine
 10
330.7723417843075
 20
220.5526355523617
 30
0.0
 11
330.7723417843076
 21
218.5526355523618
 31
0.0
  0
LINE
  5
156F
330
18
100
AcDbEntity
  8
外形線
 48
0.5
100
AcDbLine
 10
331.3723417843077
 20
237.0526355523617
 30
0.0
 11
331.3723417843077
 21
235.0526355523616
 31
0.0
  0
LINE
  5
1571
330
18
100
AcDbEntity
  8
外形線
 48
0.5
100
AcDbLine
 10
324.3723417843077
 20
237.0526355523618
 30
0.0
 11
324.3723417843078
 21
235.0526355523617
 31
0.0
  0
LINE
  5
15C1
330
18
100
AcDbEntity
  8
外形線
100
AcDbLine
 10
324.9723417843076
 20
220.5526355523617
 30
0.0
 11
325.3940278312178
 21
221.3676355523617
 31
0.0
  0
LINE
  5
15C2
330
18
100
AcDbEntity
  8
外形線
100
AcDbLine
 10
325.3940278312178
 20
221.3676355523617
 30
0.0
 11
324.3723417843078
 21
222.1726355523617
 31
0.0
  0
LINE
  5
15C3
330
18
100
AcDbEntity
  8
外形線
100
AcDbLine
 10
324.3723417843078
 20
222.1726355523617
 30
0.0
 11
325.3940278312178
 21
222.9776355523617
 31
0.0
  0
LINE
  5
15C4
330
18
100
AcDbEntity
  8
外形線
100
AcDbLine
 10
325.3940278312178
 20
222.9776355523617
 30
0.0
 11
324.3723417843078
 21
223.7826355523617
 31
0.0
  0
LINE
  5
15D4
330
18
100
AcDbEntity
  8
外形線
100
AcDbLine
 10
324.3723417843078
 20
223.7826355523617
 30
0.0
 11
325.3940278312178
 21
224.5876355523617
 31
0.0
  0
LINE
  5
15F8
330
18
100
AcDbEntity
  8
外形線
100
AcDbLine
 10
324.3723417843078
 20
225.3926355523617
 30
0.0
 11
325.3940278312178
 21
226.1976355523617
 31
0.0
  0
LINE
  5
15F9
330
18
100
AcDbEntity
  8
外形線
100
AcDbLine
 10
325.3940278312178
 20
224.5876355523617
 30
0.0
 11
324.3723417843078
 21
225.3926355523617
 31
0.0
  0
LINE
  5
15FA
330
18
100
AcDbEntity
  8
外形線
100
AcDbLine
 10
324.3723417843078
 20
227.0026355523617
 30
0.0
 11
325.3940278312178
 21
227.8076355523617
 31
0.0
  0
LINE
  5
15FB
330
18
100
AcDbEntity
  8
外形線
100
AcDbLine
 10
325.3940278312178
 20
226.1976355523617
 30
0.0
 11
324.3723417843078
 21
227.0026355523617
 31
0.0
  0
LINE
  5
15FC
330
18
100
AcDbEntity
  8
外形線
100
AcDbLine
 10
324.3723417843078
 20
228.6126355523617
 30
0.0
 11
325.3940278312178
 21
229.4176355523617
 31
0.0
  0
LINE
  5
15FD
330
18
100
AcDbEntity
  8
外形線
100
AcDbLine
 10
325.3940278312178
 20
227.8076355523617
 30
0.0
 11
324.3723417843078
 21
228.6126355523617
 31
0.0
  0
LINE
  5
15FE
330
18
100
AcDbEntity
  8
外形線
100
AcDbLine
 10
324.3723417843078
 20
230.2226355523617
 30
0.0
 11
325.3940278312178
 21
231.0276355523617
 31
0.0
  0
LINE
  5
15FF
330
18
100
AcDbEntity
  8
外形線
100
AcDbLine
 10
325.3940278312178
 20
229.4176355523617
 30
0.0
 11
324.3723417843078
 21
230.2226355523617
 31
0.0
  0
LINE
  5
1600
330
18
100
AcDbEntity
  8
外形線
100
AcDbLine
 10
324.3723417843078
 20
231.8326355523617
 30
0.0
 11
325.3940278312178
 21
232.6376355523617
 31
0.0
  0
LINE
  5
1601
330
18
100
AcDbEntity
  8
外形線
100
AcDbLine
 10
325.3940278312178
 20
231.0276355523617
 30
0.0
 11
324.3723417843078
 21
231.8326355523617
 31
0.0
  0
LINE
  5
1602
330
18
100
AcDbEntity
  8
外形線
100
AcDbLine
 10
324.3723417843078
 20
233.4426355523617
 30
0.0
 11
325.3940278312178
 21
234.2476355523617
 31
0.0
  0
LINE
  5
1603
330
18
100
AcDbEntity
  8
外形線
100
AcDbLine
 10
325.3940278312178
 20
232.6376355523617
 30
0.0
 11
324.3723417843078
 21
233.4426355523617
 31
0.0
  0
LINE
  5
1605
330
18
100
AcDbEntity
  8
外形線
100
AcDbLine
 10
325.3940278312178
 20
234.2476355523617
 30
0.0
 11
324.3723417843078
 21
235.0526355523617
 31
0.0
  0
LINE
  5
1606
330
18
100
AcDbEntity
  8
外形線
100
AcDbLine
 10
330.3506557373974
 20
227.8076355523617
 30
0.0
 11
331.3723417843074
 21
228.6126355523617
 31
0.0
  0
LINE
  5
1607
330
18
100
AcDbEntity
  8
外形線
100
AcDbLine
 10
330.3506557373974
 20
226.1976355523617
 30
0.0
 11
331.3723417843074
 21
227.0026355523617
 31
0.0
  0
LINE
  5
1608
330
18
100
AcDbEntity
  8
外形線
100
AcDbLine
 10
331.3723417843074
 20
227.0026355523617
 30
0.0
 11
330.3506557373974
 21
227.8076355523617
 31
0.0
  0
LINE
  5
1609
330
18
100
AcDbEntity
  8
外形線
100
AcDbLine
 10
330.3506557373974
 20
224.5876355523617
 30
0.0
 11
331.3723417843074
 21
225.3926355523617
 31
0.0
  0
LINE
  5
160A
330
18
100
AcDbEntity
  8
外形線
100
AcDbLine
 10
331.3723417843074
 20
225.3926355523617
 30
0.0
 11
330.3506557373974
 21
226.1976355523617
 31
0.0
  0
LINE
  5
160B
330
18
100
AcDbEntity
  8
外形線
100
AcDbLine
 10
331.3723417843074
 20
223.7826355523617
 30
0.0
 11
330.3506557373974
 21
224.5876355523617
 31
0.0
  0
LINE
  5
160C
330
18
100
AcDbEntity
  8
外形線
100
AcDbLine
 10
330.3506557373974
 20
222.9776355523617
 30
0.0
 11
331.3723417843074
 21
223.7826355523617
 31
0.0
  0
LINE
  5
160D
330
18
100
AcDbEntity
  8
外形線
100
AcDbLine
 10
331.3723417843074
 20
222.1726355523617
 30
0.0
 11
330.3506557373974
 21
222.9776355523617
 31
0.0
  0
LINE
  5
160E
330
18
100
AcDbEntity
  8
外形線
100
AcDbLine
 10
330.3506557373974
 20
221.3676355523617
 30
0.0
 11
331.3723417843074
 21
222.1726355523617
 31
0.0
  0
LINE
  5
160F
330
18
100
AcDbEntity
  8
外形線
100
AcDbLine
 10
330.3506557373974
 20
234.2476355523617
 30
0.0
 11
331.3723417843074
 21
235.0526355523617
 31
0.0
  0
LINE
  5
1610
330
18
100
AcDbEntity
  8
外形線
100
AcDbLine
 10
330.3506557373974
 20
232.6376355523617
 30
0.0
 11
331.3723417843074
 21
233.4426355523617
 31
0.0
  0
LINE
  5
1611
330
18
100
AcDbEntity
  8
外形線
100
AcDbLine
 10
331.3723417843074
 20
233.4426355523617
 30
0.0
 11
330.3506557373974
 21
234.2476355523617
 31
0.0
  0
LINE
  5
1612
330
18
100
AcDbEntity
  8
外形線
100
AcDbLine
 10
330.3506557373974
 20
231.0276355523617
 30
0.0
 11
331.3723417843074
 21
231.8326355523617
 31
0.0
  0
LINE
  5
1613
330
18
100
AcDbEntity
  8
外形線
100
AcDbLine
 10
331.3723417843074
 20
231.8326355523617
 30
0.0
 11
330.3506557373974
 21
232.6376355523617
 31
0.0
  0
LINE
  5
1614
330
18
100
AcDbEntity
  8
外形線
100
AcDbLine
 10
330.3506557373974
 20
229.4176355523617
 30
0.0
 11
331.3723417843074
 21
230.2226355523617
 31
0.0
  0
LINE
  5
1615
330
18
100
AcDbEntity
  8
外形線
100
AcDbLine
 10
331.3723417843074
 20
230.2226355523617
 30
0.0
 11
330.3506557373974
 21
231.0276355523617
 31
0.0
  0
LINE
  5
1616
330
18
100
AcDbEntity
  8
外形線
100
AcDbLine
 10
331.3723417843074
 20
228.6126355523617
 30
0.0
 11
330.3506557373974
 21
229.4176355523617
 31
0.0
  0
LINE
  5
1617
330
18
100
AcDbEntity
  8
外形線
100
AcDbLine
 10
330.7723417843076
 20
220.5526355523617
 30
0.0
 11
330.3506557373974
 21
221.3676355523617
 31
0.0
  0
LINE
  5
16A4
330
18
100
AcDbEntity
  8
0
  6
ByBlock
 62
     2
100
AcDbLine
 10
394.2466831922105
 20
307.5526355523617
 30
0.0
 11
381.4437346643575
 21
307.5526355523617
 31
0.0
  0
LINE
  5
16A5
330
18
100
AcDbEntity
  8
0
  6
ByBlock
 62
     2
100
AcDbLine
 10
394.2466831922105
 20
252.5526355523617
 30
0.0
 11
381.4437346643575
 21
252.5526355523617
 31
0.0
  0
LINE
  5
16A6
330
18
100
AcDbEntity
  8
0
  6
ByBlock
 62
     2
100
AcDbLine
 10
382.6937346643575
 20
305.0526355523617
 30
0.0
 11
382.6937346643575
 21
255.0526355523617
 31
0.0
  0
INSERT
  5
16A7
330
18
100
AcDbEntity
  8
0
  6
ByBlock
 62
     2
100
AcDbBlockReference
  2
_OPEN
 10
382.6937346643575
 20
307.5526355523617
 30
0.0
 41
2.5
 42
2.5
 43
2.5
 50
90.0
  0
INSERT
  5
16A8
330
18
100
AcDbEntity
  8
0
  6
ByBlock
 62
     2
100
AcDbBlockReference
  2
_OPEN
 10
382.6937346643575
 20
252.5526355523617
 30
0.0
 41
2.5
 42
2.5
 43
2.5
 50
270.0
  0
MTEXT
  5
16A9
330
18
100
AcDbEntity
  8
0
  6
ByBlock
 62
     6
100
AcDbMText
 10
380.8187346643574
 20
280.0526355523617
 30
0.0
 40
2.5
 41
0.0
 71
     5
 72
     1
  1
\A1;φ55
  7
STYLE3
 11
0.0000000000000001
 21
1.0
 31
0.0
 73
     1
 44
1.0
  0
POINT
  5
16AA
330
18
100
AcDbEntity
  8
DEFPOINTS
  6
ByBlock
 62
     0
100
AcDbPoint
 10
394.2466831922105
 20
307.5526355523617
 30
0.0
  0
POINT
  5
16AB
330
18
100
AcDbEntity
  8
DEFPOINTS
  6
ByBlock
 62
     0
100
AcDbPoint
 10
394.2466831922105
 20
252.5526355523617
 30
0.0
  0
POINT
  5
16AC
330
18
100
AcDbEntity
  8
DEFPOINTS
  6
ByBlock
 62
     0
100
AcDbPoint
 10
382.6937346643575
 20
252.5526355523617
 30
0.0
  0
LINE
  5
16AD
330
18
100
AcDbEntity
  8
0
  6
ByBlock
 62
     2
100
AcDbLine
 10
327.8723417843075
 20
321.5526355523617
 30
0.0
 11
282.5613038059628
 21
321.5526355523617
 31
0.0
  0
LINE
  5
16AE
330
18
100
AcDbEntity
  8
0
  6
ByBlock
 62
     2
100
AcDbLine
 10
303.6040498204543
 20
212.0526355523617
 30
0.0
 11
282.5613038059628
 21
212.0526355523617
 31
0.0
  0
LINE
  5
16AF
330
18
100
AcDbEntity
  8
0
  6
ByBlock
 62
     2
100
AcDbLine
 10
283.8113038059628
 20
319.0526355523617
 30
0.0
 11
283.8113038059628
 21
214.5526355523617
 31
0.0
  0
INSERT
  5
16B0
330
18
100
AcDbEntity
  8
0
  6
ByBlock
 62
     2
100
AcDbBlockReference
  2
_OPEN
 10
283.8113038059628
 20
321.5526355523617
 30
0.0
 41
2.5
 42
2.5
 43
2.5
 50
90.0
  0
INSERT
  5
16B1
330
18
100
AcDbEntity
  8
0
  6
ByBlock
 62
     2
100
AcDbBlockReference
  2
_OPEN
 10
283.8113038059628
 20
212.0526355523617
 30
0.0
 41
2.5
 42
2.5
 43
2.5
 50
270.0
  0
MTEXT
  5
16B2
330
18
100
AcDbEntity
  8
0
  6
ByBlock
 62
     6
100
AcDbMText
 10
281.9363038059628
 20
266.8026355523617
 30
0.0
 40
2.5
 41
0.0
 71
     5
 72
     1
  1
\A1;109.5
  7
STYLE3
 11
0.0000000000000001
 21
1.0
 31
0.0
 73
     1
 44
1.0
  0
POINT
  5
16B3
330
18
100
AcDbEntity
  8
DEFPOINTS
  6
ByBlock
 62
     0
100
AcDbPoint
 10
327.8723417843075
 20
321.5526355523617
 30
0.0
  0
POINT
  5
16B4
330
18
100
AcDbEntity
  8
DEFPOINTS
  6
ByBlock
 62
     0
100
AcDbPoint
 10
303.6040498204543
 20
212.0526355523617
 30
0.0
  0
POINT
  5
16B5
330
18
100
AcDbEntity
  8
DEFPOINTS
  6
ByBlock
 62
     0
100
AcDbPoint
 10
283.8113038059628
 20
212.0526355523617
 30
0.0
  0
LINE
  5
16B6
330
18
100
AcDbEntity
  8
0
  6
ByBlock
 62
     2
100
AcDbLine
 10
304.8723417843076
 20
280.0526355523617
 30
0.0
 11
304.8723417843076
 21
332.9030302132318
 31
0.0
  0
LINE
  5
16B7
330
18
100
AcDbEntity
  8
0
  6
ByBlock
 62
     2
100
AcDbLine
 10
350.8723417843076
 20
280.0526355523617
 30
0.0
 11
350.8723417843076
 21
332.9030302132318
 31
0.0
  0
LINE
  5
16B8
330
18
100
AcDbEntity
  8
0
  6
ByBlock
 62
     2
100
AcDbLine
 10
307.3723417843076
 20
331.6530302132318
 30
0.0
 11
348.3723417843076
 21
331.6530302132318
 31
0.0
  0
INSERT
  5
16B9
330
18
100
AcDbEntity
  8
0
  6
ByBlock
 62
     2
100
AcDbBlockReference
  2
_OPEN
 10
304.8723417843076
 20
331.6530302132318
 30
0.0
 41
2.5
 42
2.5
 43
2.5
 50
180.0
  0
INSERT
  5
16BA
330
18
100
AcDbEntity
  8
0
  6
ByBlock
 62
     2
100
AcDbBlockReference
  2
_OPEN
 10
350.8723417843076
 20
331.6530302132318
 30
0.0
 41
2.5
 42
2.5
 43
2.5
  0
MTEXT
  5
16BB
330
18
100
AcDbEntity
  8
0
  6
ByBlock
 62
     6
100
AcDbMText
 10
327.8723417843076
 20
333.5280302132318
 30
0.0
 40
2.5
 41
0.0
 71
     5
 72
     1
  1
\A1;46
  7
STYLE3
 73
     1
 44
1.0
  0
POINT
  5
16BC
330
18
100
AcDbEntity
  8
DEFPOINTS
  6
ByBlock
 62
     0
100
AcDbPoint
 10
304.8723417843076
 20
280.0526355523617
 30
0.0
  0
POINT
  5
16BD
330
18
100
AcDbEntity
  8
DEFPOINTS
  6
ByBlock
 62
     0
100
AcDbPoint
 10
350.8723417843076
 20
280.0526355523617
 30
0.0
  0
POINT
  5
16BE
330
18
100
AcDbEntity
  8
DEFPOINTS
  6
ByBlock
 62
     0
100
AcDbPoint
 10
350.8723417843076
 20
331.6530302132318
 30
0.0
  0
LINE
  5
16E8
330
18
100
AcDbEntity
  8
0
  6
ByBlock
 62
     2
100
AcDbLine
 10
296.9673655942295
 20
280.0526355523617
 30
0.0
 11
289.8294144889334
 21
280.0526355523617
 31
0.0
  0
LINE
  5
16E9
330
18
100
AcDbEntity
  8
0
  6
ByBlock
 62
     2
100
AcDbLine
 10
327.8723417843076
 20
212.0526355523617
 30
0.0
 11
289.8294144889334
 21
212.0526355523617
 31
0.0
  0
LINE
  5
16EA
330
18
100
AcDbEntity
  8
0
  6
ByBlock
 62
     2
100
AcDbLine
 10
291.0794144889333
 20
277.5526355523617
 30
0.0
 11
291.0794144889333
 21
214.5526355523617
 31
0.0
  0
INSERT
  5
16EB
330
18
100
AcDbEntity
  8
0
  6
ByBlock
 62
     2
100
AcDbBlockReference
  2
_OPEN
 10
291.0794144889333
 20
280.0526355523617
 30
0.0
 41
2.5
 42
2.5
 43
2.5
 50
90.0
  0
INSERT
  5
16EC
330
18
100
AcDbEntity
  8
0
  6
ByBlock
 62
     2
100
AcDbBlockReference
  2
_OPEN
 10
291.0794144889333
 20
212.0526355523617
 30
0.0
 41
2.5
 42
2.5
 43
2.5
 50
270.0
  0
MTEXT
  5
16ED
330
18
100
AcDbEntity
  8
0
  6
ByBlock
 62
     6
100
AcDbMText
 10
289.2044144889334
 20
246.0526355523617
 30
0.0
 40
2.5
 41
0.0
 71
     5
 72
     1
  1
\A1;68
  7
STYLE3
 11
0.0000000000000001
 21
1.0
 31
0.0
 73
     1
 44
1.0
  0
POINT
  5
16EE
330
18
100
AcDbEntity
  8
DEFPOINTS
  6
ByBlock
 62
     0
100
AcDbPoint
 10
296.9673655942295
 20
280.0526355523617
 30
0.0
  0
POINT
  5
16EF
330
18
100
AcDbEntity
  8
DEFPOINTS
  6
ByBlock
 62
     0
100
AcDbPoint
 10
327.8723417843076
 20
212.0526355523617
 30
0.0
  0
POINT
  5
16F0
330
18
100
AcDbEntity
  8
DEFPOINTS
  6
ByBlock
 62
     0
100
AcDbPoint
 10
291.0794144889333
 20
212.0526355523617
 30
0.0
  0
TEXT
  5
16F1
330
18
100
AcDbEntity
  8
文字
100
AcDbText
 10
333.5769602499594
 20
247.7827205441994
 30
0.0
 40
1.0
  1
0
  7
STYLE3
100
AcDbText
  0
TEXT
  5
16F2
330
18
100
AcDbEntity
  8
文字
100
AcDbText
 10
332.3864180463421
 20
246.3709423423882
 30
0.0
 40
1.0
  1
-0.03
  7
STYLE3
100
AcDbText
  0
HATCH
  5
16F3
330
18
100
AcDbEntity
  8
針
100
AcDbHatch
 10
0.0
 20
0.0
 30
0.0
210
0.0
220
0.0
230
1.0
  2
SOLID
 70
     1
 71
     0
 91
        2
 92
        7
 72
     1
 73
     1
 93
        5
 10
325.0250160739518
 20
268.9367328353271
 42
0.31735696877887
 10
325.7722146240839
 20
269.9619388210467
 42
0.0
 10
325.4108839468011
 20
270.2286468711388
 42
0.0
 10
325.382749492617
 20
270.219123883787
 42
-0.4142135623731173
 10
324.9128015272467
 20
269.2682564325382
 42
0.0
 97
        0
 92
        7
 72
     1
 73
     1
 93
        4
 10
325.0250160739518
 20
268.9367328353271
 42
0.0
 10
324.9128015272467
 20
269.2682564325382
 42
-0.4142135623730728
 10
323.961934075998
 20
269.7382043979085
 42
0.0
 10
323.630410478787
 20
269.6259898512035
 42
0.4142135623730844
 97
        0
 75
     0
 76
     1
 47
0.0161501285364394
 98
        2
 10
325.3338887961336
 20
269.2823343384442
 10
324.6550937252164
 20
269.0696247964936
450
        0
451
        0
460
0.0
461
0.0
452
        0
462
0.0
453
        0
470

  0
HATCH
  5
16F4
330
18
100
AcDbEntity
  8
針
100
AcDbHatch
 10
0.0
 20
0.0
 30
0.0
210
0.0
220
0.0
230
1.0
  2
SOLID
 70
     1
 71
     0
 91
        4
 92
        7
 72
     1
 73
     1
 93
        4
 10
323.5844243346094
 20
270.1412544930904
 42
0.0
 10
323.9305798867861
 20
270.0895211991951
 42
-0.4142135623730951
 10
324.7831988426546
 20
270.7204260383692
 42
0.0
 10
324.8349321365501
 20
271.0665815905459
 42
0.4142135623730996
 97
        0
 92
        7
 72
     1
 73
     1
 93
        5
 10
323.9305798867861
 20
270.0895211991951
 42
0.0
 10
323.5844243346094
 20
270.1412544930904
 42
0.3173569687788799
 10
324.1547164159379
 20
269.0080643376228
 42
0.0
 10
324.5570944261471
 20
269.2075260613435
 42
0.0
 10
324.5614847259602
 20
269.2369022433263
 42
-0.4142135623730839
 97
        0
 92
        7
 72
     1
 73
     1
 93
        4
 10
324.8349321365501
 20
271.0665815905459
 42
0.0
 10
324.7831988426546
 20
270.7204260383692
 42
-0.4142135623730951
 10
325.414103681829
 20
269.8678070825006
 42
0.0
 10
325.7602592340056
 20
269.8160737886052
 42
0.4142135623730996
 97
        0
 92
        7
 72
     1
 73
     1
 93
        4
 10
325.414103681829
 20
269.8678070825006
 42
-0.1036385141593389
 10
325.3072118517202
 20
269.5793647575483
 42
0.0
 10
325.7582134895983
 20
269.8029295692665
 42
0.003023315109616
 10
325.7602592340056
 20
269.8160737886052
 42
0.0
 97
        0
 75
     0
 76
     1
 47
0.0223982890607777
 98
        4
 10
324.1682862833085
 20
270.8304193289164
 10
323.8409312960459
 20
269.7007801278134
 10
325.0997216334996
 20
270.8498677997231
 10
325.485593090229
 20
269.7949533530099
450
        0
451
        0
460
0.0
461
0.0
452
        0
462
0.0
453
        0
470

  0
CIRCLE
  5
16F5
330
18
100
AcDbEntity
  8
針
100
AcDbCircle
 10
324.6723417843075
 20
269.9786641408478
 30
0.0
 40
1.1
  0
CIRCLE
  5
16F6
330
18
100
AcDbEntity
  8
針
100
AcDbCircle
 10
324.6723417843075
 20
269.9786641408478
 30
0.0
 40
0.75
  0
HATCH
  5
16F7
330
18
100
AcDbEntity
  8
針
100
AcDbHatch
 10
0.0
 20
0.0
 30
0.0
210
0.0
220
0.0
230
1.0
  2
SOLID
 70
     1
 71
     0
 91
        1
 92
        7
 72
     1
 73
     1
 93
        7
 10
324.7723417843076
 20
274.6786641408479
 42
0.0
 10
324.6723417843075
 20
274.6786641408478
 42
0.0
 10
324.5723417843075
 20
274.6786641408478
 42
0.0
 10
324.5274334266692
 20
271.4360334861774
 42
-0.2935495917910092
 10
324.2290002501324
 20
270.9853658265892
 42
-0.2104432563350663
 10
325.1156826388654
 20
270.985366125886
 42
-0.2935491884945053
 10
324.8172501419459
 20
271.4360334861773
 42
0.0
 97
        0
 75
     0
 76
     1
 47
0.0140573597042523
 98
        1
 10
324.7309435002049
 20
272.8732241861481
450
        0
451
        0
460
0.0
461
0.0
452
        0
462
0.0
453
        0
470

  0
LINE
  5
16F8
330
18
100
AcDbEntity
  8
針
100
AcDbLine
 10
324.8172501419459
 20
271.4360334861774
 30
0.0
 11
324.7723417843075
 21
274.6786641408478
 31
0.0
  0
LINE
  5
16F9
330
18
100
AcDbEntity
  8
針
100
AcDbLine
 10
324.5274334266692
 20
271.4360334861774
 30
0.0
 11
324.5723417843075
 21
274.6786641408478
 31
0.0
  0
CIRCLE
  5
16FA
330
18
100
AcDbEntity
  8
針
 62
     4
100
AcDbCircle
 10
324.6723417843075
 20
269.9786641408478
 30
0.0
 40
0.4
  0
ARC
  5
16FB
330
18
100
AcDbEntity
  8
針
100
AcDbCircle
 10
325.317202197653
 20
271.4429575019259
 30
0.0
 40
0.5
100
AcDbArc
 50
180.7934591207347
 51
246.2317787024804
  0
ARC
  5
16FC
330
18
100
AcDbEntity
  8
針
100
AcDbCircle
 10
324.027481370962
 20
271.4429575019259
 30
0.0
 40
0.5
100
AcDbArc
 50
293.7682212975196
 51
359.2065408792653
  0
LINE
  5
16FE
330
18
100
AcDbEntity
  8
0
  6
ByBlock
 62
     2
100
AcDbLine
 10
406.2466831922106
 20
224.0526355523617
 30
0.0
 11
389.6185418051538
 21
224.0526355523617
 31
0.0
  0
LINE
  5
16FF
330
18
100
AcDbEntity
  8
0
  6
ByBlock
 62
     2
100
AcDbLine
 10
390.8685418051538
 20
232.5526355523617
 30
0.0
 11
390.8685418051538
 21
226.5526355523617
 31
0.0
  0
INSERT
  5
1700
330
18
100
AcDbEntity
  8
0
  6
ByBlock
 62
     2
100
AcDbBlockReference
  2
_OPEN
 10
390.8685418051538
 20
235.0526355523617
 30
0.0
 41
2.5
 42
2.5
 43
2.5
 50
90.0
  0
INSERT
  5
1701
330
18
100
AcDbEntity
  8
0
  6
ByBlock
 62
     2
100
AcDbBlockReference
  2
_OPEN
 10
390.8685418051538
 20
224.0526355523617
 30
0.0
 41
2.5
 42
2.5
 43
2.5
 50
270.0
  0
MTEXT
  5
1702
330
18
100
AcDbEntity
  8
0
  6
ByBlock
 62
     6
100
AcDbMText
 10
388.9935418051538
 20
229.5526355523617
 30
0.0
 40
2.5
 41
0.0
 71
     5
 72
     1
  1
\A1;11
  7
STYLE3
 11
0.0000000000000001
 21
1.0
 31
0.0
 73
     1
 44
1.0
  0
POINT
  5
1703
330
18
100
AcDbEntity
  8
DEFPOINTS
  6
ByBlock
 62
     0
100
AcDbPoint
 10
404.8466831922105
 20
235.0526355523617
 30
0.0
  0
POINT
  5
1704
330
18
100
AcDbEntity
  8
DEFPOINTS
  6
ByBlock
 62
     0
100
AcDbPoint
 10
406.2466831922106
 20
224.0526355523617
 30
0.0
  0
POINT
  5
1705
330
18
100
AcDbEntity
  8
DEFPOINTS
  6
ByBlock
 62
     0
100
AcDbPoint
 10
390.8685418051538
 20
224.0526355523617
 30
0.0
  0
LINE
  5
1706
330
18
100
AcDbEntity
  8
0
  6
ByBlock
 62
     2
100
AcDbLine
 10
408.2466831922107
 20
212.0526355523617
 30
0.0
 11
381.4437346643575
 21
212.0526355523617
 31
0.0
  0
LINE
  5
1707
330
18
100
AcDbEntity
  8
0
  6
ByBlock
 62
     2
100
AcDbLine
 10
382.6937346643575
 20
250.0526355523617
 30
0.0
 11
382.6937346643575
 21
214.5526355523617
 31
0.0
  0
INSERT
  5
1708
330
18
100
AcDbEntity
  8
0
  6
ByBlock
 62
     2
100
AcDbBlockReference
  2
_OPEN
 10
382.6937346643575
 20
252.5526355523617
 30
0.0
 41
2.5
 42
2.5
 43
2.5
 50
90.0
  0
INSERT
  5
1709
330
18
100
AcDbEntity
  8
0
  6
ByBlock
 62
     2
100
AcDbBlockReference
  2
_OPEN
 10
382.6937346643575
 20
212.0526355523617
 30
0.0
 41
2.5
 42
2.5
 43
2.5
 50
270.0
  0
MTEXT
  5
170A
330
18
100
AcDbEntity
  8
0
  6
ByBlock
 62
     6
100
AcDbMText
 10
380.8187346643574
 20
232.3026355523617
 30
0.0
 40
2.5
 41
0.0
 71
     5
 72
     1
  1
\A1;40.5
  7
STYLE3
 11
0.0000000000000001
 21
1.0
 31
0.0
 73
     1
 44
1.0
  0
POINT
  5
170B
330
18
100
AcDbEntity
  8
DEFPOINTS
  6
ByBlock
 62
     0
100
AcDbPoint
 10
394.2466831922105
 20
252.5526355523617
 30
0.0
  0
POINT
  5
170C
330
18
100
AcDbEntity
  8
DEFPOINTS
  6
ByBlock
 62
     0
100
AcDbPoint
 10
408.2466831922107
 20
212.0526355523617
 30
0.0
  0
POINT
  5
170D
330
18
100
AcDbEntity
  8
DEFPOINTS
  6
ByBlock
 62
     0
100
AcDbPoint
 10
382.6937346643575
 20
212.0526355523617
 30
0.0
  0
LINE
  5
170E
330
18
100
AcDbEntity
  8
0
  6
ByBlock
 62
     2
100
AcDbLine
 10
396.648542000765
 20
212.0526355523617
 30
0.0
 11
389.6185418051538
 21
212.0526355523617
 31
0.0
  0
LINE
  5
170F
330
18
100
AcDbEntity
  8
0
  6
ByBlock
 62
     2
100
AcDbLine
 10
390.8685418051538
 20
221.5526355523617
 30
0.0
 11
390.8685418051538
 21
214.5526355523617
 31
0.0
  0
INSERT
  5
1710
330
18
100
AcDbEntity
  8
0
  6
ByBlock
 62
     2
100
AcDbBlockReference
  2
_OPEN
 10
390.8685418051538
 20
224.0526355523617
 30
0.0
 41
2.5
 42
2.5
 43
2.5
 50
90.0
  0
INSERT
  5
1711
330
18
100
AcDbEntity
  8
0
  6
ByBlock
 62
     2
100
AcDbBlockReference
  2
_OPEN
 10
390.8685418051538
 20
212.0526355523617
 30
0.0
 41
2.5
 42
2.5
 43
2.5
 50
270.0
  0
MTEXT
  5
1712
330
18
100
AcDbEntity
  8
0
  6
ByBlock
 62
     6
100
AcDbMText
 10
388.9935418051538
 20
218.0526355523617
 30
0.0
 40
2.5
 41
0.0
 71
     5
 72
     1
  1
\A1;12
  7
STYLE3
 11
0.0000000000000001
 21
1.0
 31
0.0
 73
     1
 44
1.0
  0
POINT
  5
1713
330
18
100
AcDbEntity
  8
DEFPOINTS
  6
ByBlock
 62
     0
100
AcDbPoint
 10
406.2466831922106
 20
224.0526355523617
 30
0.0
  0
POINT
  5
1714
330
18
100
AcDbEntity
  8
DEFPOINTS
  6
ByBlock
 62
     0
100
AcDbPoint
 10
396.648542000765
 20
212.0526355523617
 30
0.0
  0
POINT
  5
1715
330
18
100
AcDbEntity
  8
DEFPOINTS
  6
ByBlock
 62
     0
100
AcDbPoint
 10
390.8685418051538
 20
212.0526355523617
 30
0.0
  0
LINE
  5
1716
330
18
100
AcDbEntity
  8
0
  6
ByBlock
 62
     2
100
AcDbLine
 10
390.260120855586
 20
252.5526355523617
 30
0.0
 11
392.1185418051538
 21
252.5526355523617
 31
0.0
  0
LINE
  5
1717
330
18
100
AcDbEntity
  8
0
  6
ByBlock
 62
     2
100
AcDbLine
 10
405.1966831922106
 20
235.0526355523617
 30
0.0
 11
389.6185418051538
 21
235.0526355523617
 31
0.0
  0
LINE
  5
1718
330
18
100
AcDbEntity
  8
0
  6
ByBlock
 62
     2
100
AcDbLine
 10
390.8685418051538
 20
250.0526355523617
 30
0.0
 11
390.8685418051538
 21
237.5526355523617
 31
0.0
  0
INSERT
  5
1719
330
18
100
AcDbEntity
  8
0
  6
ByBlock
 62
     2
100
AcDbBlockReference
  2
_OPEN
 10
390.8685418051538
 20
252.5526355523617
 30
0.0
 41
2.5
 42
2.5
 43
2.5
 50
90.0
  0
INSERT
  5
171A
330
18
100
AcDbEntity
  8
0
  6
ByBlock
 62
     2
100
AcDbBlockReference
  2
_OPEN
 10
390.8685418051538
 20
235.0526355523617
 30
0.0
 41
2.5
 42
2.5
 43
2.5
 50
270.0
  0
MTEXT
  5
171B
330
18
100
AcDbEntity
  8
0
  6
ByBlock
 62
     6
100
AcDbMText
 10
388.9935418051538
 20
243.8026355523617
 30
0.0
 40
2.5
 41
0.0
 71
     5
 72
     1
  1
\A1;17.5
  7
STYLE3
 11
0.0000000000000001
 21
1.0
 31
0.0
 73
     1
 44
1.0
  0
POINT
  5
171C
330
18
100
AcDbEntity
  8
DEFPOINTS
  6
ByBlock
 62
     0
100
AcDbPoint
 10
390.260120855586
 20
252.5526355523617
 30
0.0
  0
POINT
  5
171D
330
18
100
AcDbEntity
  8
DEFPOINTS
  6
ByBlock
 62
     0
100
AcDbPoint
 10
405.1966831922106
 20
235.0526355523617
 30
0.0
  0
POINT
  5
171E
330
18
100
AcDbEntity
  8
DEFPOINTS
  6
ByBlock
 62
     0
100
AcDbPoint
 10
390.8685418051538
 20
235.0526355523617
 30
0.0
  0
LINE
  5
171F
330
18
100
AcDbEntity
  8
ﾊｯﾁﾝｸ
  6
Continuous
100
AcDbLine
 10
323.8723417843076
 20
313.8191293486594
 30
0.0
 11
324.1058479880098
 21
314.0526355523616
 31
0.0
  0
LINE
  5
1720
330
18
100
AcDbEntity
  8
ﾊｯﾁﾝｸ
  6
Continuous
100
AcDbLine
 10
323.8723417843076
 20
312.051362395693
 30
0.0
 11
325.8736149409762
 21
314.0526355523616
 31
0.0
  0
LINE
  5
1721
330
18
100
AcDbEntity
  8
ﾊｯﾁﾝｸ
  6
Continuous
100
AcDbLine
 10
323.8723417843076
 20
310.2835954427267
 30
0.0
 11
327.6413818939425
 21
314.0526355523616
 31
0.0
  0
LINE
  5
1722
330
18
100
AcDbEntity
  8
ﾊｯﾁﾝｸ
  6
Continuous
100
AcDbLine
 10
323.8723417843076
 20
308.5158284897604
 30
0.0
 11
327.8723417843076
 21
312.5158284897604
 31
0.0
  0
LINE
  5
1723
330
18
100
AcDbEntity
  8
ﾊｯﾁﾝｸ
  6
Continuous
100
AcDbLine
 10
325.1769157998753
 20
308.0526355523616
 30
0.0
 11
327.8723417843076
 21
310.748061536794
 31
0.0
  0
LINE
  5
1724
330
18
100
AcDbEntity
  8
ﾊｯﾁﾝｸ
  6
Continuous
100
AcDbLine
 10
326.9446827528417
 20
308.0526355523616
 30
0.0
 11
327.8723417843076
 21
308.9802945838276
 31
0.0
  0
LINE
  5
1725
330
18
100
AcDbEntity
  8
ﾊｯﾁﾝｸ
  6
Continuous
100
AcDbLine
 10
323.9238874306266
 20
308.0526355523616
 30
0.0
 11
323.8723417843076
 21
308.1041811986805
 31
0.0
  0
LINE
  5
1726
330
18
100
AcDbEntity
  8
ﾊｯﾁﾝｸ
  6
Continuous
100
AcDbLine
 10
325.6916543835929
 20
308.0526355523616
 30
0.0
 11
323.8723417843076
 21
309.871948151647
 31
0.0
  0
LINE
  5
1727
330
18
100
AcDbEntity
  8
ﾊｯﾁﾝｸ
  6
Continuous
100
AcDbLine
 10
327.4594213365593
 20
308.0526355523616
 30
0.0
 11
323.8723417843076
 21
311.6397151046133
 31
0.0
  0
LINE
  5
1728
330
18
100
AcDbEntity
  8
ﾊｯﾁﾝｸ
  6
Continuous
100
AcDbLine
 10
327.8723417843076
 20
309.4074820575796
 30
0.0
 11
323.8723417843076
 21
313.4074820575796
 31
0.0
  0
LINE
  5
1729
330
18
100
AcDbEntity
  8
ﾊｯﾁﾝｸ
  6
Continuous
100
AcDbLine
 10
327.8723417843076
 20
311.1752490105461
 30
0.0
 11
324.994955242492
 21
314.0526355523616
 31
0.0
  0
LINE
  5
172A
330
18
100
AcDbEntity
  8
ﾊｯﾁﾝｸ
  6
Continuous
100
AcDbLine
 10
327.8723417843076
 20
312.9430159635124
 30
0.0
 11
326.7627221954584
 21
314.0526355523615
 31
0.0
  0
LINE
  5
172B
330
18
100
AcDbEntity
  8
0
  6
ByBlock
 62
     2
100
AcDbLine
 10
393.2466831922105
 20
306.5526355523617
 30
0.0
 11
393.2466831922105
 21
333.0714410811149
 31
0.0
  0
LINE
  5
172C
330
18
100
AcDbEntity
  8
0
  6
ByBlock
 62
     2
100
AcDbLine
 10
408.2466831922105
 20
324.0012543210511
 30
0.0
 11
408.2466831922105
 21
333.0714410811149
 31
0.0
  0
LINE
  5
172D
330
18
100
AcDbEntity
  8
0
  6
ByBlock
 62
     2
100
AcDbLine
 10
395.7466831922105
 20
331.8214410811149
 30
0.0
 11
405.7466831922105
 21
331.8214410811149
 31
0.0
  0
INSERT
  5
172E
330
18
100
AcDbEntity
  8
0
  6
ByBlock
 62
     2
100
AcDbBlockReference
  2
_OPEN
 10
393.2466831922105
 20
331.8214410811149
 30
0.0
 41
2.5
 42
2.5
 43
2.5
 50
180.0
  0
INSERT
  5
172F
330
18
100
AcDbEntity
  8
0
  6
ByBlock
 62
     2
100
AcDbBlockReference
  2
_OPEN
 10
408.2466831922105
 20
331.8214410811149
 30
0.0
 41
2.5
 42
2.5
 43
2.5
  0
MTEXT
  5
1730
330
18
100
AcDbEntity
  8
0
  6
ByBlock
 62
     6
100
AcDbMText
 10
400.7466831922105
 20
333.6964410811149
 30
0.0
 40
2.5
 41
0.0
 71
     5
 72
     1
  1
\A1;15
  7
STYLE3
 73
     1
 44
1.0
  0
POINT
  5
1731
330
18
100
AcDbEntity
  8
DEFPOINTS
  6
ByBlock
 62
     0
100
AcDbPoint
 10
393.2466831922105
 20
306.5526355523617
 30
0.0
  0
POINT
  5
1732
330
18
100
AcDbEntity
  8
DEFPOINTS
  6
ByBlock
 62
     0
100
AcDbPoint
 10
408.2466831922105
 20
324.0012543210511
 30
0.0
  0
POINT
  5
1733
330
18
100
AcDbEntity
  8
DEFPOINTS
  6
ByBlock
 62
     0
100
AcDbPoint
 10
408.2466831922105
 20
331.8214410811149
 30
0.0
  0
LINE
  5
1734
330
18
100
AcDbEntity
  8
ﾊｯﾁﾝｸ
  6
Continuous
100
AcDbLine
 10
404.2466831922105
 20
313.8191293486595
 30
0.0
 11
404.4801893959126
 21
314.0526355523617
 31
0.0
  0
LINE
  5
1735
330
18
100
AcDbEntity
  8
ﾊｯﾁﾝｸ
  6
Continuous
100
AcDbLine
 10
404.2466831922105
 20
312.0513623956931
 30
0.0
 11
406.247956348879
 21
314.0526355523617
 31
0.0
  0
LINE
  5
1736
330
18
100
AcDbEntity
  8
ﾊｯﾁﾝｸ
  6
Continuous
100
AcDbLine
 10
404.2466831922105
 20
310.2835954427267
 30
0.0
 11
408.0157233018455
 21
314.0526355523617
 31
0.0
  0
LINE
  5
1737
330
18
100
AcDbEntity
  8
ﾊｯﾁﾝｸ
  6
Continuous
100
AcDbLine
 10
404.2466831922104
 20
308.5158284897604
 30
0.0
 11
408.2466831922104
 21
312.5158284897604
 31
0.0
  0
LINE
  5
1738
330
18
100
AcDbEntity
  8
ﾊｯﾁﾝｸ
  6
Continuous
100
AcDbLine
 10
405.551257207778
 20
308.0526355523617
 30
0.0
 11
408.2466831922105
 21
310.748061536794
 31
0.0
  0
LINE
  5
1739
330
18
100
AcDbEntity
  8
ﾊｯﾁﾝｸ
  6
Continuous
100
AcDbLine
 10
407.3190241607445
 20
308.0526355523617
 30
0.0
 11
408.2466831922105
 21
308.9802945838276
 31
0.0
  0
LINE
  5
173A
330
18
100
AcDbEntity
  8
ﾊｯﾁﾝｸ
  6
Continuous
100
AcDbLine
 10
404.2982288385294
 20
308.0526355523617
 30
0.0
 11
404.2466831922105
 21
308.1041811986807
 31
0.0
  0
LINE
  5
173B
330
18
100
AcDbEntity
  8
ﾊｯﾁﾝｸ
  6
Continuous
100
AcDbLine
 10
406.0659957914958
 20
308.0526355523617
 30
0.0
 11
404.2466831922105
 21
309.871948151647
 31
0.0
  0
LINE
  5
173C
330
18
100
AcDbEntity
  8
ﾊｯﾁﾝｸ
  6
Continuous
100
AcDbLine
 10
407.8337627444622
 20
308.0526355523617
 30
0.0
 11
404.2466831922105
 21
311.6397151046134
 31
0.0
  0
LINE
  5
173D
330
18
100
AcDbEntity
  8
ﾊｯﾁﾝｸ
  6
Continuous
100
AcDbLine
 10
408.2466831922105
 20
309.4074820575798
 30
0.0
 11
404.2466831922105
 21
313.4074820575798
 31
0.0
  0
LINE
  5
173E
330
18
100
AcDbEntity
  8
ﾊｯﾁﾝｸ
  6
Continuous
100
AcDbLine
 10
408.2466831922105
 20
311.1752490105461
 30
0.0
 11
405.3692966503949
 21
314.0526355523616
 31
0.0
  0
LINE
  5
173F
330
18
100
AcDbEntity
  8
ﾊｯﾁﾝｸ
  6
Continuous
100
AcDbLine
 10
408.2466831922105
 20
312.9430159635125
 30
0.0
 11
407.1370636033614
 21
314.0526355523616
 31
0.0
  0
LINE
  5
1740
330
18
100
AcDbEntity
  8
外形線
 62
     2
100
AcDbLine
 10
430.6976608378804
 20
285.4136552454759
 30
0.0
 11
434.5289008417201
 21
295.0679257395375
 31
0.0
  0
LINE
  5
1741
330
18
100
AcDbEntity
  8
外形線
 62
     2
100
AcDbLine
 10
434.5289008417201
 20
295.0679257395375
 30
0.0
 11
444.0652038187717
 21
295.0679257395375
 31
0.0
  0
LINE
  5
1746
330
18
100
AcDbEntity
  8
外形線
 62
     2
100
AcDbLine
 10
431.0966176934205
 20
285.2934698115468
 30
0.0
 11
429.976548234306
 21
283.0199141122356
 31
0.0
  0
LINE
  5
1747
330
18
100
AcDbEntity
  8
外形線
 62
     2
100
AcDbLine
 10
429.976548234306
 20
283.0199141122356
 30
0.0
 11
430.2987039823404
 21
285.533840679405
 31
0.0
  0
LINE
  5
1748
330
18
100
AcDbEntity
  8
外形線
 62
     2
100
AcDbLine
 10
429.976548234306
 20
283.0199141122356
 30
0.0
 11
430.6976608378804
 21
285.4136552454759
 31
0.0
  0
LINE
  5
1749
330
18
100
AcDbEntity
  8
0
  6
ByBlock
 62
     2
100
AcDbLine
 10
418.7466831922105
 20
288.0542212958146
 30
0.0
 11
418.7466831922105
 21
296.3179257395375
 31
0.0
  0
LINE
  5
174A
330
18
100
AcDbEntity
  8
0
  6
ByBlock
 62
     2
100
AcDbLine
 10
423.7466831922105
 20
288.0526355523617
 30
0.0
 11
423.7466831922105
 21
296.3179257395375
 31
0.0
  0
LINE
  5
174B
330
18
100
AcDbEntity
  8
0
  6
ByBlock
 62
     2
100
AcDbLine
 10
416.2466831922105
 20
295.0679257395375
 30
0.0
 11
413.7466831922105
 21
295.0679257395375
 31
0.0
  0
LINE
  5
174C
330
18
100
AcDbEntity
  8
0
  6
ByBlock
 62
     2
100
AcDbLine
 10
426.2466831922106
 20
295.0679257395375
 30
0.0
 11
428.7466831922105
 21
295.0679257395375
 31
0.0
  0
LINE
  5
174D
330
18
100
AcDbEntity
  8
0
  6
ByBlock
 62
     2
100
AcDbLine
 10
418.7466831922105
 20
295.0679257395375
 30
0.0
 11
423.7466831922105
 21
295.0679257395375
 31
0.0
  0
INSERT
  5
174E
330
18
100
AcDbEntity
  8
0
  6
ByBlock
 62
     2
100
AcDbBlockReference
  2
_OPEN
 10
418.7466831922105
 20
295.0679257395375
 30
0.0
 41
2.5
 42
2.5
 43
2.5
  0
INSERT
  5
174F
330
18
100
AcDbEntity
  8
0
  6
ByBlock
 62
     2
100
AcDbBlockReference
  2
_OPEN
 10
423.7466831922105
 20
295.0679257395375
 30
0.0
 41
2.5
 42
2.5
 43
2.5
 50
180.0
  0
MTEXT
  5
1750
330
18
100
AcDbEntity
  8
0
  6
ByBlock
 62
     6
100
AcDbMText
 10
421.2466831922105
 20
296.9429257395375
 30
0.0
 40
2.5
 41
0.0
 71
     5
 72
     1
  1
\A1;5
  7
STYLE3
 73
     1
 44
1.0
  0
POINT
  5
1751
330
18
100
AcDbEntity
  8
DEFPOINTS
  6
ByBlock
 62
     0
100
AcDbPoint
 10
418.7466831922105
 20
288.0542212958146
 30
0.0
  0
POINT
  5
1752
330
18
100
AcDbEntity
  8
DEFPOINTS
  6
ByBlock
 62
     0
100
AcDbPoint
 10
423.7466831922105
 20
288.0526355523617
 30
0.0
  0
POINT
  5
1753
330
18
100
AcDbEntity
  8
DEFPOINTS
  6
ByBlock
 62
     0
100
AcDbPoint
 10
423.7466831922105
 20
295.0679257395375
 30
0.0
  0
TEXT
  5
1754
330
18
100
AcDbEntity
  8
外形線
 62
     6
100
AcDbText
 10
434.1604710390781
 20
295.4677293250431
 30
0.0
 40
2.5
  1
φ6.5
  7
STYLE3
100
AcDbText
  0
TEXT
  5
19BE
330
18
100
AcDbEntity
  8
文字
100
AcDbText
 10
336.6786790561412
 20
268.5492300863121
 30
0.0
 40
1.0
  1
P
 50
41.66255424820311
  7
STYLE3
100
AcDbText
  0
TEXT
  5
19BF
330
18
100
AcDbEntity
  8
文字
100
AcDbText
 10
333.9408771045615
 20
279.0163453179491
 30
0.0
 40
1.0
  1
0.01mm
  7
STYLE3
100
AcDbText
  0
CIRCLE
  5
19C4
330
18
100
AcDbEntity
  8
外形線
100
AcDbCircle
 10
324.6723417843075
 20
269.9786641408478
 30
0.0
 40
4.75
  0
LINE
  5
19C5
330
18
100
AcDbEntity
  8
目盛
100
AcDbLine
 10
327.4643217326969
 20
266.1358334175668
 30
0.0
 11
327.1704291065506
 21
266.5403419147543
 31
0.0
  0
TEXT
  5
19C7
330
18
100
AcDbEntity
  8
文字
100
AcDbText
 10
322.0508985920834
 20
266.5305094160102
 30
0.0
 40
1.0
  1
4
  7
STYLE3
100
AcDbText
  0
LINE
  5
19C8
330
18
100
AcDbEntity
  8
目盛
100
AcDbLine
 10
321.8803618359182
 20
266.1358334175668
 30
0.0
 11
322.1742544620645
 21
266.5403419147543
 31
0.0
  0
LINE
  5
19C9
330
18
100
AcDbEntity
  8
目盛
100
AcDbLine
 10
320.1548233319055
 20
271.4464948641288
 30
0.0
 11
320.6303515900532
 21
271.2919863669413
 31
0.0
  0
LINE
  5
19CA
330
18
100
AcDbEntity
  8
目盛
100
AcDbLine
 10
320.1548233319055
 20
268.5108334175668
 30
0.0
 11
320.6303515900532
 21
268.6653419147543
 31
0.0
  0
TEXT
  5
19CB
330
18
100
AcDbEntity
  8
文字
100
AcDbText
 10
320.8563262195012
 20
268.2657042448375
 30
0.0
 40
1.0
  1
3
  7
STYLE3
100
AcDbText
  0
TEXT
  5
19CC
330
18
100
AcDbEntity
  8
文字
100
AcDbText
 10
320.8855692235348
 20
270.5285459944767
 30
0.0
 40
1.0
  1
2
  7
STYLE3
100
AcDbText
  0
TEXT
  5
19CF
330
18
100
AcDbEntity
  8
文字
100
AcDbText
 10
324.1543901614555
 20
266.0557714304788
 30
0.0
 40
1.0
  1
5
  7
STYLE3
100
AcDbText
  0
LINE
  5
19D0
330
18
100
AcDbEntity
  8
目盛
100
AcDbLine
 10
324.6723417843075
 20
265.2286641408478
 30
0.0
 11
324.6723417843075
 21
265.7286641408478
 31
0.0
  0
TEXT
  5
19D1
330
18
100
AcDbEntity
  8
文字
100
AcDbText
 10
326.2667791471407
 20
266.6530531871018
 30
0.0
 40
1.0
  1
6
  7
STYLE3
100
AcDbText
  0
TEXT
  5
19D6
330
18
100
AcDbEntity
  8
文字
100
AcDbText
 10
332.0077690961717
 20
266.1897635717747
 30
0.0
 40
1.0
  1
H
 50
18.97545735502083
  7
STYLE3
100
AcDbText
  0
TEXT
  5
19D7
330
18
100
AcDbEntity
  8
文字
100
AcDbText
 10
331.1622034169896
 20
265.8994464633193
 30
0.0
 40
1.0
  1
S
 50
15.93406625953157
  7
STYLE3
100
AcDbText
  0
LINE
  5
19D8
330
18
100
AcDbEntity
  8
目盛
100
AcDbLine
 10
329.1898602367094
 20
268.5108334175668
 30
0.0
 11
328.7143319785619
 21
268.6653419147543
 31
0.0
  0
LINE
  5
19D9
330
18
100
AcDbEntity
  8
目盛
100
AcDbLine
 10
329.1898602367094
 20
271.4464948641288
 30
0.0
 11
328.7143319785619
 21
271.2919863669413
 31
0.0
  0
TEXT
  5
19DA
330
18
100
AcDbEntity
  8
文字
100
AcDbText
 10
327.7066756688403
 20
268.2571729263909
 30
0.0
 40
1.0
  1
7
  7
STYLE3
100
AcDbText
  0
TEXT
  5
19DB
330
18
100
AcDbEntity
  8
文字
100
AcDbText
 10
327.7668626007863
 20
270.5608003114655
 30
0.0
 40
1.0
  1
8
  7
STYLE3
100
AcDbText
  0
TEXT
  5
19DC
330
18
100
AcDbEntity
  8
文字
100
AcDbText
 10
335.1557277777207
 20
267.4716413467461
 30
0.0
 40
1.0
  1
K
 50
34.53286787359959
  7
STYLE3
100
AcDbText
  0
TEXT
  5
19DD
330
18
100
AcDbEntity
  8
文字
100
AcDbText
 10
333.9639935885167
 20
266.9630159460631
 30
0.0
 40
1.0
  1
C
 50
19.71330825163621
  7
STYLE3
100
AcDbText
  0
TEXT
  5
19DE
330
18
100
AcDbEntity
  8
文字
100
AcDbText
 10
332.9032102812833
 20
266.555527770045
 30
0.0
 40
1.0
  1
O
 50
17.69499640387236
  7
STYLE3
100
AcDbText
  0
TEXT
  5
19E0
330
18
100
AcDbEntity
  8
文字
100
AcDbText
 10
321.8317205457109
 20
284.5091808961151
 30
0.0
 40
1.35
  1
NO.107-SWA
  7
STYLE3
100
AcDbText
  0
LINE
  5
19E1
330
18
100
AcDbEntity
  8
目盛
100
AcDbLine
 10
327.4643217326969
 20
273.8214948641288
 30
0.0
 11
327.1704291065506
 21
273.4169863669413
 31
0.0
  0
LINE
  5
19E6
330
18
100
AcDbEntity
  8
目盛
100
AcDbLine
 10
321.8803618359182
 20
273.8214948641288
 30
0.0
 11
322.1742544620645
 21
273.4169863669413
 31
0.0
  0
TEXT
  5
19E8
330
18
100
AcDbEntity
  8
文字
100
AcDbText
 10
324.1859653451773
 20
273.0064380693227
 30
0.0
 40
1.0
  1
0
  7
STYLE3
100
AcDbText
  0
LINE
  5
19E9
330
18
100
AcDbEntity
  8
目盛
100
AcDbLine
 10
324.6723417843075
 20
274.7286641408478
 30
0.0
 11
324.6723417843075
 21
274.2286641408478
 31
0.0
  0
TEXT
  5
19EA
330
18
100
AcDbEntity
  8
文字
100
AcDbText
 10
322.2458515704803
 20
272.3307140006382
 30
0.0
 40
1.0
  1
1
  7
STYLE3
100
AcDbText
  0
TEXT
  5
19EB
330
18
100
AcDbEntity
  8
文字
100
AcDbText
 10
326.269465082939
 20
272.2801080888643
 30
0.0
 40
1.0
  1
9
  7
STYLE3
100
AcDbText
  0
LINE
  5
19FB
102
{ACAD_REACTORS
330
19FD
102
}
330
18
100
AcDbEntity
  8
外形線
100
AcDbLine
 10
334.2111307217752
 20
281.5922188856949
 30
0.0
 11
335.2111307217752
 21
281.5922188856949
 31
0.0
  0
LINE
  5
19FC
102
{ACAD_REACTORS
330
19FD
102
}
330
18
100
AcDbEntity
  8
外形線
100
AcDbLine
 10
334.2111307217752
 20
281.4130522190282
 30
0.0
 11
335.2111307217752
 21
281.4130522190283
 31
0.0
  0
HATCH
  5
19FD
330
18
100
AcDbEntity
  8
外形線
100
AcDbHatch
 10
0.0
 20
0.0
 30
0.0
210
0.0
220
0.0
230
1.0
  2
SOLID
 70
     1
 71
     1
 91
        2
 92
        1
 93
        7
 72
     1
 10
336.377797388442
 20
281.5026355523617
 11
335.2111307217752
 21
281.0780036123844
 72
     1
 10
335.2111307217752
 20
281.0780036123844
 11
335.2111307217752
 21
281.4130522190283
 72
     1
 10
335.2111307217752
 20
281.4130522190283
 11
334.2111307217752
 21
281.4130522190282
 72
     1
 10
334.2111307217752
 20
281.4130522190282
 11
334.2111307217752
 21
281.5922188856949
 72
     1
 10
334.2111307217752
 20
281.5922188856949
 11
335.2111307217752
 21
281.5922188856949
 72
     1
 10
335.2111307217752
 20
281.5922188856949
 11
335.2111307217752
 21
281.9272674923388
 72
     1
 10
335.2111307217752
 20
281.9272674923388
 11
336.377797388442
 21
281.5026355523617
 97
        7
330
1A06
330
1A03
330
19FC
330
19FE
330
19FB
330
1A00
330
1A07
 92
        1
 93
        4
 72
     1
 10
336.377797388442
 20
282.2526355523617
 11
336.377797388442
 21
280.7526355523616
 72
     1
 10
336.377797388442
 20
280.7526355523616
 11
336.5444640551085
 21
280.7526355523616
 72
     1
 10
336.5444640551085
 20
280.7526355523616
 11
336.5444640551085
 21
282.2526355523617
 72
     1
 10
336.5444640551085
 20
282.2526355523617
 11
336.377797388442
 21
282.2526355523617
 97
        4
330
1A08
330
1A0E
330
1A09
330
19FF
 75
     0
 76
     1
 98
        1
 10
428.707354094922
 20
212.8404847451806
450
        0
451
        0
460
0.0
461
0.0
452
        0
462
0.0
453
        0
470

  0
LINE
  5
19FE
102
{ACAD_REACTORS
330
19FD
102
}
330
18
100
AcDbEntity
  8
外形線
100
AcDbLine
 10
334.2111307217752
 20
281.5922188856949
 30
0.0
 11
334.2111307217752
 21
281.4130522190282
 31
0.0
  0
LINE
  5
19FF
102
{ACAD_REACTORS
330
19FD
102
}
330
18
100
AcDbEntity
  8
外形線
100
AcDbLine
 10
336.5444640551085
 20
282.2526355523617
 30
0.0
 11
336.377797388442
 21
282.2526355523617
 31
0.0
  0
LINE
  5
1A00
102
{ACAD_REACTORS
330
19FD
102
}
330
18
100
AcDbEntity
  8
外形線
100
AcDbLine
 10
335.2111307217752
 20
281.9272674923388
 30
0.0
 11
335.2111307217752
 21
281.5922188856949
 31
0.0
  0
POINT
  5
1A01
330
18
100
AcDbEntity
  8
DEFPOINTS
  6
ByBlock
 62
     0
100
AcDbPoint
 10
335.2111307217752
 20
281.9272674923388
 30
0.0
  0
POINT
  5
1A02
330
18
100
AcDbEntity
  8
DEFPOINTS
  6
ByBlock
 62
     0
100
AcDbPoint
 10
335.2111307217752
 20
281.9272674923388
 30
0.0
  0
LINE
  5
1A03
102
{ACAD_REACTORS
330
19FD
102
}
330
18
100
AcDbEntity
  8
外形線
100
AcDbLine
 10
335.2111307217752
 20
281.4130522190283
 30
0.0
 11
335.2111307217752
 21
281.0780036123844
 31
0.0
  0
POINT
  5
1A04
330
18
100
AcDbEntity
  8
DEFPOINTS
  6
ByBlock
 62
     0
100
AcDbPoint
 10
335.2111307217752
 20
281.0780036123844
 30
0.0
  0
POINT
  5
1A05
330
18
100
AcDbEntity
  8
DEFPOINTS
  6
ByBlock
 62
     0
100
AcDbPoint
 10
335.2111307217752
 20
281.0780036123844
 30
0.0
  0
LINE
  5
1A06
102
{ACAD_REACTORS
330
19FD
102
}
330
18
100
AcDbEntity
  8
外形線
100
AcDbLine
 10
336.377797388442
 20
281.5026355523617
 30
0.0
 11
335.2111307217752
 21
281.0780036123844
 31
0.0
  0
LINE
  5
1A07
102
{ACAD_REACTORS
330
19FD
102
}
330
18
100
AcDbEntity
  8
外形線
100
AcDbLine
 10
336.377797388442
 20
281.5026355523617
 30
0.0
 11
335.2111307217752
 21
281.9272674923388
 31
0.0
  0
LINE
  5
1A08
102
{ACAD_REACTORS
330
19FD
102
}
330
18
100
AcDbEntity
  8
外形線
100
AcDbLine
 10
336.377797388442
 20
282.2526355523617
 30
0.0
 11
336.377797388442
 21
280.7526355523616
 31
0.0
  0
LINE
  5
1A09
102
{ACAD_REACTORS
330
19FD
102
}
330
18
100
AcDbEntity
  8
外形線
100
AcDbLine
 10
336.5444640551085
 20
282.2526355523617
 30
0.0
 11
336.5444640551085
 21
280.7526355523616
 31
0.0
  0
POINT
  5
1A0A
330
18
100
AcDbEntity
  8
DEFPOINTS
  6
ByBlock
 62
     0
100
AcDbPoint
 10
336.5444640551085
 20
280.7526355523616
 30
0.0
  0
POINT
  5
1A0B
330
18
100
AcDbEntity
  8
DEFPOINTS
  6
ByBlock
 62
     0
100
AcDbPoint
 10
336.377797388442
 20
280.7526355523616
 30
0.0
  0
POINT
  5
1A0C
330
18
100
AcDbEntity
  8
DEFPOINTS
  6
ByBlock
 62
     0
100
AcDbPoint
 10
336.5444640551085
 20
280.7526355523616
 30
0.0
  0
POINT
  5
1A0D
330
18
100
AcDbEntity
  8
DEFPOINTS
  6
ByBlock
 62
     0
100
AcDbPoint
 10
336.377797388442
 20
280.7526355523616
 30
0.0
  0
LINE
  5
1A0E
102
{ACAD_REACTORS
330
19FD
102
}
330
18
100
AcDbEntity
  8
外形線
100
AcDbLine
 10
336.5444640551085
 20
280.7526355523616
 30
0.0
 11
336.377797388442
 21
280.7526355523616
 31
0.0
  0
TEXT
  5
1A10
330
18
100
AcDbEntity
  8
文字
100
AcDbText
 10
338.9120654419929
 20
270.9158013927846
 30
0.0
 40
1.0
  1
O
 50
37.94686013237587
  7
STYLE3
100
AcDbText
  0
TEXT
  5
1A11
330
18
100
AcDbEntity
  8
文字
100
AcDbText
 10
338.0821528197651
 20
270.0356791995521
 30
0.0
 40
1.0
  1
O
 50
27.73777743938884
  7
STYLE3
100
AcDbText
  0
TEXT
  5
1A12
330
18
100
AcDbEntity
  8
文字
100
AcDbText
 10
337.546764742393
 20
269.2620462251917
 30
0.0
 40
1.0
  1
R
 50
41.99602774035176
  7
STYLE3
100
AcDbText
  0
TEXT
  5
1A19
330
18
100
AcDbEntity
  8
文字
100
AcDbText
 10
339.8340902058438
 20
271.8356685399694
 30
0.0
 40
1.0
  1
F
 50
56.41156600213055
  7
STYLE3
100
AcDbText
  0
LINE
  5
1A23
102
{ACAD_REACTORS
330
1A25
102
}
330
18
100
AcDbEntity
  8
外形線
100
AcDbLine
 10
339.7111307217752
 20
281.5922188856949
 30
0.0
 11
338.7111307217752
 21
281.5922188856949
 31
0.0
  0
LINE
  5
1A24
102
{ACAD_REACTORS
330
1A25
102
}
330
18
100
AcDbEntity
  8
外形線
100
AcDbLine
 10
339.7111307217752
 20
281.4130522190282
 30
0.0
 11
338.7111307217752
 21
281.4130522190283
 31
0.0
  0
HATCH
  5
1A25
330
18
100
AcDbEntity
  8
外形線
100
AcDbHatch
 10
0.0
 20
0.0
 30
0.0
210
0.0
220
0.0
230
1.0
  2
SOLID
 70
     1
 71
     1
 91
        2
 92
        1
 93
        7
 72
     1
 10
337.5444640551084
 20
281.5026355523617
 11
338.7111307217752
 21
281.0780036123844
 72
     1
 10
338.7111307217752
 20
281.0780036123844
 11
338.7111307217752
 21
281.4130522190283
 72
     1
 10
338.7111307217752
 20
281.4130522190283
 11
339.7111307217752
 21
281.4130522190282
 72
     1
 10
339.7111307217752
 20
281.4130522190282
 11
339.7111307217752
 21
281.5922188856949
 72
     1
 10
339.7111307217752
 20
281.5922188856949
 11
338.7111307217752
 21
281.5922188856949
 72
     1
 10
338.7111307217752
 20
281.5922188856949
 11
338.7111307217752
 21
281.9272674923388
 72
     1
 10
338.7111307217752
 20
281.9272674923388
 11
337.5444640551084
 21
281.5026355523617
 97
        7
330
1A2A
330
1A2D
330
1A24
330
1A36
330
1A23
330
1A29
330
1A30
 92
        1
 93
        4
 72
     1
 10
337.5444640551084
 20
282.2526355523617
 11
337.5444640551084
 21
280.7526355523616
 72
     1
 10
337.5444640551084
 20
280.7526355523616
 11
337.3777973884417
 21
280.7526355523616
 72
     1
 10
337.3777973884417
 20
280.7526355523616
 11
337.3777973884417
 21
282.2526355523617
 72
     1
 10
337.3777973884417
 20
282.2526355523617
 11
337.5444640551084
 21
282.2526355523617
 97
        4
330
1A2F
330
1A31
330
1A2E
330
1A26
 75
     0
 76
     1
 98
        1
 10
245.2149073486281
 20
212.8404847451806
450
        0
451
        0
460
0.0
461
0.0
452
        0
462
0.0
453
        0
470

  0
LINE
  5
1A26
102
{ACAD_REACTORS
330
1A25
102
}
330
18
100
AcDbEntity
  8
外形線
100
AcDbLine
 10
337.3777973884417
 20
282.2526355523617
 30
0.0
 11
337.5444640551084
 21
282.2526355523617
 31
0.0
  0
POINT
  5
1A27
330
18
100
AcDbEntity
  8
DEFPOINTS
  6
ByBlock
 62
     0
100
AcDbPoint
 10
338.7111307217752
 20
281.9272674923388
 30
0.0
  0
POINT
  5
1A28
330
18
100
AcDbEntity
  8
DEFPOINTS
  6
ByBlock
 62
     0
100
AcDbPoint
 10
338.7111307217752
 20
281.9272674923388
 30
0.0
  0
LINE
  5
1A29
102
{ACAD_REACTORS
330
1A25
102
}
330
18
100
AcDbEntity
  8
外形線
100
AcDbLine
 10
338.7111307217752
 20
281.9272674923388
 30
0.0
 11
338.7111307217752
 21
281.5922188856949
 31
0.0
  0
LINE
  5
1A2A
102
{ACAD_REACTORS
330
1A25
102
}
330
18
100
AcDbEntity
  8
外形線
100
AcDbLine
 10
337.5444640551084
 20
281.5026355523617
 30
0.0
 11
338.7111307217752
 21
281.0780036123844
 31
0.0
  0
POINT
  5
1A2B
330
18
100
AcDbEntity
  8
DEFPOINTS
  6
ByBlock
 62
     0
100
AcDbPoint
 10
338.7111307217752
 20
281.0780036123844
 30
0.0
  0
POINT
  5
1A2C
330
18
100
AcDbEntity
  8
DEFPOINTS
  6
ByBlock
 62
     0
100
AcDbPoint
 10
338.7111307217752
 20
281.0780036123844
 30
0.0
  0
LINE
  5
1A2D
102
{ACAD_REACTORS
330
1A25
102
}
330
18
100
AcDbEntity
  8
外形線
100
AcDbLine
 10
338.7111307217752
 20
281.4130522190283
 30
0.0
 11
338.7111307217752
 21
281.0780036123844
 31
0.0
  0
LINE
  5
1A2E
102
{ACAD_REACTORS
330
1A25
102
}
330
18
100
AcDbEntity
  8
外形線
100
AcDbLine
 10
337.3777973884417
 20
282.2526355523617
 30
0.0
 11
337.3777973884417
 21
280.7526355523616
 31
0.0
  0
LINE
  5
1A2F
102
{ACAD_REACTORS
330
1A25
102
}
330
18
100
AcDbEntity
  8
外形線
100
AcDbLine
 10
337.5444640551084
 20
282.2526355523617
 30
0.0
 11
337.5444640551084
 21
280.7526355523616
 31
0.0
  0
LINE
  5
1A30
102
{ACAD_REACTORS
330
1A25
102
}
330
18
100
AcDbEntity
  8
外形線
100
AcDbLine
 10
337.5444640551084
 20
281.5026355523617
 30
0.0
 11
338.7111307217752
 21
281.9272674923388
 31
0.0
  0
LINE
  5
1A31
102
{ACAD_REACTORS
330
1A25
102
}
330
18
100
AcDbEntity
  8
外形線
100
AcDbLine
 10
337.3777973884417
 20
280.7526355523616
 30
0.0
 11
337.5444640551084
 21
280.7526355523616
 31
0.0
  0
POINT
  5
1A32
330
18
100
AcDbEntity
  8
DEFPOINTS
  6
ByBlock
 62
     0
100
AcDbPoint
 10
337.5444640551084
 20
280.7526355523616
 30
0.0
  0
POINT
  5
1A33
330
18
100
AcDbEntity
  8
DEFPOINTS
  6
ByBlock
 62
     0
100
AcDbPoint
 10
337.3777973884417
 20
280.7526355523616
 30
0.0
  0
POINT
  5
1A34
330
18
100
AcDbEntity
  8
DEFPOINTS
  6
ByBlock
 62
     0
100
AcDbPoint
 10
337.5444640551084
 20
280.7526355523616
 30
0.0
  0
POINT
  5
1A35
330
18
100
AcDbEntity
  8
DEFPOINTS
  6
ByBlock
 62
     0
100
AcDbPoint
 10
337.3777973884417
 20
280.7526355523616
 30
0.0
  0
LINE
  5
1A36
102
{ACAD_REACTORS
330
1A25
102
}
330
18
100
AcDbEntity
  8
外形線
100
AcDbLine
 10
339.7111307217752
 20
281.5922188856949
 30
0.0
 11
339.7111307217752
 21
281.4130522190282
 31
0.0
  0
TEXT
  5
1A87
330
18
100
AcDbEntity
  8
文字
100
AcDbText
 10
321.5941852829238
 20
286.8614106220181
 30
0.0
 40
1.0
  1
MADE  IN  JAPAN
  7
STYLE3
100
AcDbText
  0
INSERT
  5
1B15
330
18
100
AcDbEntity
  8
寸法線
100
AcDbBlockReference
  2
A$C5260192C
 10
320.7665149496814
 20
288.8848640160564
 30
0.0
 41
0.395465
 42
0.5
 43
0.5
  0
ARC
  5
1B6B
330
18
100
AcDbEntity
  8
外形線
100
AcDbCircle
 10
327.8723417843076
 20
213.2526355523617
 30
0.0
 40
1.199999999999999
100
AcDbArc
 50
189.59406822686
 51
350.4059317731399
  0
ARC
  5
1B7C
330
18
100
AcDbEntity
  8
外形線
100
AcDbCircle
 10
408.2466831922107
 20
213.2526355523617
 30
0.0
 40
1.199999999999999
100
AcDbArc
 50
189.59406822686
 51
350.4059317731399
  0
LINE
  5
1BA3
330
18
100
AcDbEntity
  8
外形線
100
AcDbLine
 10
324.9831615502412
 20
353.7984109893309
 30
0.0
 11
415.9831615502411
 21
353.7984109893309
 31
0.0
  0
LINE
  5
1BA4
330
18
100
AcDbEntity
  8
外形線
100
AcDbLine
 10
325.0099515502412
 20
352.8028609893309
 30
0.0
 11
416.0099515502412
 21
352.8028609893309
 31
0.0
  0
TEXT
  5
1BA5
330
18
100
AcDbEntity
  8
0
100
AcDbText
 10
325.1932215502411
 20
356.1934029893309
 30
0.0
 40
4.0
  1
Model No.107-SWA Dial Gauge
  7
STYLE3
100
AcDbText
  0
TEXT
  5
1BA6
330
18
100
AcDbEntity
  8
0
  6
Continuous
100
AcDbText
 10
352.5512465502412
 20
183.7763239893309
 30
0.0
 40
2.1
  1
Design and specifications are subject to change without notice for future improvement.
  7
STYLE3
100
AcDbText
  0
LINE
  5
1BA7
330
18
100
AcDbEntity
  8
外形線
100
AcDbLine
 10
351.0937785502412
 20
172.2635559893309
 30
0.0
 11
351.0937785502412
 21
192.6585399893309
 31
0.0
  0
LINE
  5
1BA8
330
18
100
AcDbEntity
  8
外形線
100
AcDbLine
 10
351.0937785502412
 20
181.8783339893309
 30
0.0
 11
491.8851965502411
 21
181.8783339893309
 31
0.0
  0
TEXT
  5
1BA9
330
18
100
AcDbEntity
  8
0
  6
Continuous
100
AcDbText
 10
395.8640235502412
 20
175.7598399893309
 30
0.0
 40
2.399999999999999
  1
mm
  7
STYLE3
100
AcDbText
  0
TEXT
  5
1BAA
330
18
100
AcDbEntity
  8
0
  6
Continuous
100
AcDbText
 10
352.2597545502412
 20
174.0116959893309
 30
0.0
 40
2.1
  1
3RD Angle Projection
  7
STYLE3
100
AcDbText
  0
TEXT
  5
1BAB
330
18
100
AcDbEntity
  8
0
  6
Continuous
100
AcDbText
 10
354.8831975502412
 20
177.5079789893309
 30
0.0
 40
3.0
  1
三　　角　　法
  7
STYLE3
100
AcDbText
  0
TEXT
  5
1BAC
330
18
100
AcDbEntity
  8
0
  6
Continuous
100
AcDbText
 10
387.8219755502412
 20
177.5139339893309
 30
0.0
 40
3.0
  1
単位
  7
STYLE3
100
AcDbText
  0
TEXT
  5
1BAD
330
18
100
AcDbEntity
  8
0
  6
Continuous
100
AcDbText
 10
387.9936965502412
 20
174.0116969893309
 30
0.0
 40
2.1
  1
Unit
  7
STYLE3
100
AcDbText
  0
LINE
  5
1BAE
330
18
100
AcDbEntity
  8
外形線
100
AcDbLine
 10
386.3645065502412
 20
181.8783339893309
 30
0.0
 11
386.3645065502412
 21
172.2635559893309
 31
0.0
  0
TEXT
  5
1BAF
330
18
100
AcDbEntity
  8
0
  6
Continuous
100
AcDbText
 10
454.4655085502411
 20
177.7993359893309
 30
0.0
 40
3.0
  1
株式会社　尾崎製作所
  7
STYLE3
100
AcDbText
  0
TEXT
  5
1BB0
330
18
100
AcDbEntity
  8
0
  6
Continuous
100
AcDbText
 10
455.3399875502411
 20
174.0116969893309
 30
0.0
 40
2.1
  1
OZAKI MFG. CO., LTD.
  7
STYLE3
100
AcDbText
  0
TEXT
  5
1BB1
330
18
100
AcDbEntity
  8
0
  6
Continuous
100
AcDbText
 10
434.0609545502411
 20
175.7598389893309
 30
0.0
 40
2.1
  1
2010.06.07
  7
STYLE3
100
AcDbText
  0
TEXT
  5
1BB2
330
18
100
AcDbEntity
  8
0
  6
Continuous
100
AcDbText
 10
415.2223755502411
 20
176.0511969893309
 30
0.0
 40
2.399999999999999
  1
1/1
  7
STYLE3
100
AcDbText
  0
TEXT
  5
1BB3
330
18
100
AcDbEntity
  8
0
  6
Continuous
100
AcDbText
 10
405.1398715502411
 20
177.2225759893309
 30
0.0
 40
3.0
  1
尺 度
  7
STYLE3
100
AcDbText
  0
TEXT
  5
1BB4
330
18
100
AcDbEntity
  8
0
  6
Continuous
100
AcDbText
 10
405.6030865502411
 20
174.3030539893309
 30
0.0
 40
2.1
  1
Scale
  7
STYLE3
100
AcDbText
  0
LINE
  5
1BB5
330
18
100
AcDbEntity
  8
外形線
100
AcDbLine
 10
403.8541235502411
 20
181.8783339893309
 30
0.0
 11
403.8541235502411
 21
172.2635559893309
 31
0.0
  0
TEXT
  5
1BB6
330
18
100
AcDbEntity
  8
0
  6
Continuous
100
AcDbText
 10
425.3161475502412
 20
174.0116979893309
 30
0.0
 40
2.1
  1
Date
  7
STYLE3
100
AcDbText
  0
TEXT
  5
1BB7
330
18
100
AcDbEntity
  8
0
  6
Continuous
100
AcDbText
 10
424.9327865502412
 20
177.3447809893309
 30
0.0
 40
3.0
  1
日 付
  7
STYLE3
100
AcDbText
  0
LINE
  5
1BB8
330
18
100
AcDbEntity
  8
外形線
100
AcDbLine
 10
423.3841965502412
 20
181.8783339893309
 30
0.0
 11
423.3841965502412
 21
172.2635559893309
 31
0.0
  0
LINE
  5
1BB9
330
18
100
AcDbEntity
  8
外形線
100
AcDbLine
 10
453.1165455502412
 20
181.8783339893309
 30
0.0
 11
453.1165455502412
 21
172.2635559893309
 31
0.0
  0
LINE
  5
1BBA
330
18
100
AcDbEntity
  8
外形線
100
AcDbLine
 10
351.0937785502412
 20
192.6585399893309
 30
0.0
 11
491.8851965502411
 21
192.6585399893309
 31
0.0
  0
TEXT
  5
1BBB
330
18
100
AcDbEntity
  8
0
  6
Continuous
100
AcDbText
 10
352.8427405502412
 20
187.7054719893309
 30
0.0
 40
3.5
  1
仕様及び外観は予告なく変更される場合がございますのでご了承下さい。
  7
STYLE3
100
AcDbText
  0
ENDSEC
  0
SECTION
  2
OBJECTS
  0
DICTIONARY
  5
C
330
0
100
AcDbDictionary
281
     1
  3
ACAD_COLOR
350
1B4C
  3
ACAD_GROUP
350
D
  3
ACAD_IMAGE_DICT
350
E58
  3
ACAD_LAYOUT
350
1B4F
  3
ACAD_MATERIAL
350
1B4B
  3
ACAD_MLINESTYLE
350
1B
  3
ACAD_PLOTSETTINGS
350
1B50
  3
ACAD_PLOTSTYLENAME
350
1B49
  3
ACAD_TABLESTYLE
350
1B4D
  3
ACDBVARIABLEDICTIONARY
350
1025
  0
DICTIONARY
  5
1B4C
102
{ACAD_REACTORS
330
C
102
}
330
C
100
AcDbDictionary
281
     1
  0
DICTIONARY
  5
D
102
{ACAD_REACTORS
330
C
102
}
330
C
100
AcDbDictionary
281
     1
  0
DICTIONARY
  5
E58
102
{ACAD_REACTORS
330
C
102
}
330
C
100
AcDbDictionary
281
     1
  3
ROGO01
350
E59
  0
DICTIONARY
  5
1B4F
102
{ACAD_REACTORS
330
C
102
}
330
C
100
AcDbDictionary
281
     1
  3
Model
350
1B51
  3
レイアウト1
350
1B52
  0
DICTIONARY
  5
1B4B
102
{ACAD_REACTORS
330
C
102
}
330
C
100
AcDbDictionary
281
     1
  0
DICTIONARY
  5
1B
102
{ACAD_REACTORS
330
C
102
}
330
C
100
AcDbDictionary
281
     1
  3
STANDARD
350
1C
  0
DICTIONARY
  5
1B50
102
{ACAD_REACTORS
330
C
102
}
330
C
100
AcDbDictionary
281
     1
  0
ACDBDICTIONARYWDFLT
  5
1B49
102
{ACAD_REACTORS
330
C
102
}
330
C
100
AcDbDictionary
281
     1
  3
Normal
350
1B4A
100
AcDbDictionaryWithDefault
340
1B4A
  0
DICTIONARY
  5
1B4D
102
{ACAD_REACTORS
330
C
102
}
330
C
100
AcDbDictionary
281
     1
  3
Standard
350
1B4E
  0
DICTIONARY
  5
1025
102
{ACAD_REACTORS
330
C
102
}
330
C
100
AcDbDictionary
281
     1
  3
CTABLESTYLE
350
1B6A
  3
SORTENTS
350
1026
  0
IMAGEDEF
  5
E59
102
{ACAD_REACTORS
330
E58
102
}
330
E58
100
AcDbRasterImageDef
 90
        0
  1
D:\ﾃｽﾄ\rogo01.TIF
 10
3388.0
 20
4668.0
 11
0.0635
 21
0.0635
280
     1
281
     5
  0
LAYOUT
  5
1B51
102
{ACAD_REACTORS
330
1B4F
102
}
330
1B4F
100
AcDbPlotSettings
  1

  2
WIDR Printer
  4

  6

 40
0.0
 41
0.0
 42
0.0
 43
0.0
 44
0.0
 45
0.0
 46
0.0
 47
0.0
 48
0.0
 49
0.0
140
0.0
141
0.0
142
1.0
143
1.0
 70
  1712
 72
     0
 73
     0
 74
     0
  7
AutoCad LT 98.ctb
 75
     0
147
1.0
 76
     0
 77
     2
 78
   300
148
0.0
149
0.0
100
AcDbLayout
  1
Model
 70
     1
 71
     0
 10
0.0
 20
0.0
 11
12.0
 21
9.0
 12
0.0
 22
0.0
 32
0.0
 14
0.0
 24
0.0
 34
0.0
 15
0.0
 25
0.0
 35
0.0
146
0.0
 13
0.0
 23
0.0
 33
0.0
 16
1.0
 26
0.0
 36
0.0
 17
0.0
 27
1.0
 37
0.0
 76
     0
330
18
  0
LAYOUT
  5
1B52
102
{ACAD_REACTORS
330
1B4F
102
}
330
1B4F
100
AcDbPlotSettings
  1

  2
WIDR Printer
  4

  6

 40
0.0
 41
0.0
 42
0.0
 43
0.0
 44
0.0
 45
0.0
 46
0.0
 47
0.0
 48
0.0
 49
0.0
140
0.0
141
0.0
142
1.0
143
1.0
 70
   688
 72
     0
 73
     0
 74
     5
  7
AutoCad LT 98.ctb
 75
    16
147
1.0
 76
     0
 77
     2
 78
   300
148
0.0
149
0.0
100
AcDbLayout
  1
レイアウト1
 70
     1
 71
     1
 10
0.0
 20
0.0
 11
420.0
 21
297.0
 12
0.0
 22
0.0
 32
0.0
 14
1.000000000000000E+20
 24
1.000000000000000E+20
 34
1.000000000000000E+20
 15
-1.000000000000000E+20
 25
-1.000000000000000E+20
 35
-1.000000000000000E+20
146
0.0
 13
0.0
 23
0.0
 33
0.0
 16
1.0
 26
0.0
 36
0.0
 17
0.0
 27
1.0
 37
0.0
 76
     0
330
15
  0
MLINESTYLE
  5
1C
102
{ACAD_REACTORS
330
1B
102
}
330
1B
100
AcDbMlineStyle
  2
STANDARD
 70
     0
  3

 62
   256
 51
90.0
 52
90.0
 71
     2
 49
0.5
 62
   256
  6
BYLAYER
 49
-0.5
 62
   256
  6
BYLAYER
  0
ACDBPLACEHOLDER
  5
1B4A
102
{ACAD_REACTORS
330
1B49
102
}
330
1B49
  0
ACAD_PROXY_OBJECT
  5
1B4E
102
{ACAD_REACTORS
330
1B4D
102
}
330
1B4D
100
AcDbProxyObject
 90
      499
 91
      505
 95
  2555929
 70
     0
 93
     1849
310
4214DD185B99185C992420000000000000F83F0000000000003E0FC00000000000004901028000000C1008070000C3001FDFF8000000C1003FBFF000000182007F7FE00000030400FEFFC00000060801FDFF8000000C1003FBFF000000182000000000000000C2020B0000001820100E000186003FBFF000000182007F7FE0
310
0000030400FEFFC00000060801FDFF8000000C1003FBFF000000182007F7FE0000003040000000000000012404160000003040201C00030C007F7FE00000030400FEFFC00000060801FDFF8000000C1003FBFF000000182007F7FE00000030400FEFFC000000608000
340
F
340
F
340
F
 94
        0
  0
DICTIONARYVAR
  5
1B6A
102
{ACAD_REACTORS
330
1025
102
}
330
1025
100
DictionaryVariables
280
     0
  1
STANDARD
  0
DICTIONARYVAR
  5
1026
102
{ACAD_REACTORS
330
1025
102
}
330
1025
100
DictionaryVariables
280
     0
  1
96
  0
ENDSEC
  0
EOF
