  0
SECTION
  2
HEADER
  9
$ACADVER
  1
AC1018
  9
$ACADMAINTVER
 70
     0
  9
$DWGCODEPAGE
  3
ANSI_932
  9
$INSBASE
 10
0.0
 20
0.0
 30
0.0
  9
$EXTMIN
 10
236.4903398393894
 20
171.6287529652594
 30
-0.000000000000013
  9
$EXTMAX
 10
491.9101128404584
 20
367.0725832627541
 30
0.0000000000000023
  9
$LIMMIN
 10
0.0
 20
0.0
  9
$LIMMAX
 10
420.0
 20
297.0
  9
$ORTHOMODE
 70
     0
  9
$REGENMODE
 70
     1
  9
$FILLMODE
 70
     1
  9
$QTEXTMODE
 70
     0
  9
$MIRRTEXT
 70
     1
  9
$LTSCALE
 40
1.0
  9
$ATTMODE
 70
     1
  9
$TEXTSIZE
 40
3.0
  9
$TRACEWID
 40
1.0
  9
$TEXTSTYLE
  7
STYLE3
  9
$CLAYER
  8
外形線
  9
$CELTYPE
  6
BYLAYER
  9
$CECOLOR
 62
   256
  9
$CELTSCALE
 40
1.0
  9
$DISPSILH
 70
     0
  9
$DIMSCALE
 40
1.0
  9
$DIMASZ
 40
2.5
  9
$DIMEXO
 40
0.0
  9
$DIMDLI
 40
3.75
  9
$DIMRND
 40
0.0
  9
$DIMDLE
 40
0.0
  9
$DIMEXE
 40
1.25
  9
$DIMTP
 40
0.0
  9
$DIMTM
 40
0.0
  9
$DIMTXT
 40
2.5
  9
$DIMCEN
 40
2.5
  9
$DIMTSZ
 40
0.0
  9
$DIMTOL
 70
     0
  9
$DIMLIM
 70
     0
  9
$DIMTIH
 70
     0
  9
$DIMTOH
 70
     0
  9
$DIMSE1
 70
     0
  9
$DIMSE2
 70
     0
  9
$DIMTAD
 70
     1
  9
$DIMZIN
 70
     8
  9
$DIMBLK
  1

  9
$DIMASO
 70
     1
  9
$DIMSHO
 70
     1
  9
$DIMPOST
  1

  9
$DIMAPOST
  1

  9
$DIMALT
 70
     0
  9
$DIMALTD
 70
     4
  9
$DIMALTF
 40
0.0394
  9
$DIMLFAC
 40
1.0
  9
$DIMTOFL
 70
     1
  9
$DIMTVP
 40
0.0
  9
$DIMTIX
 70
     0
  9
$DIMSOXD
 70
     0
  9
$DIMSAH
 70
     1
  9
$DIMBLK1
  1
OPEN
  9
$DIMBLK2
  1
OPEN
  9
$DIMSTYLE
  2
STYLE2
  9
$DIMCLRD
 70
     2
  9
$DIMCLRE
 70
     2
  9
$DIMCLRT
 70
     6
  9
$DIMTFAC
 40
1.0
  9
$DIMGAP
 40
0.625
  9
$DIMJUST
 70
     0
  9
$DIMSD1
 70
     0
  9
$DIMSD2
 70
     0
  9
$DIMTOLJ
 70
     1
  9
$DIMTZIN
 70
     0
  9
$DIMALTZ
 70
     0
  9
$DIMALTTZ
 70
     0
  9
$DIMUPT
 70
     0
  9
$DIMDEC
 70
     1
  9
$DIMTDEC
 70
     4
  9
$DIMALTU
 70
     8
  9
$DIMALTTD
 70
     4
  9
$DIMTXSTY
  7
STYLE3
  9
$DIMAUNIT
 70
     0
  9
$DIMADEC
 70
     0
  9
$DIMALTRND
 40
0.0
  9
$DIMAZIN
 70
     0
  9
$DIMDSEP
 70
    46
  9
$DIMATFIT
 70
     3
  9
$DIMFRAC
 70
     0
  9
$DIMLDRBLK
  1

  9
$DIMLUNIT
 70
     2
  9
$DIMLWD
 70
    -2
  9
$DIMLWE
 70
    -2
  9
$DIMTMOVE
 70
     0
  9
$LUNITS
 70
     2
  9
$LUPREC
 70
     4
  9
$SKETCHINC
 40
1.0
  9
$FILLETRAD
 40
0.0
  9
$AUNITS
 70
     0
  9
$AUPREC
 70
     0
  9
$MENU
  1
.
  9
$ELEVATION
 40
0.0
  9
$PELEVATION
 40
0.0
  9
$THICKNESS
 40
0.0
  9
$LIMCHECK
 70
     0
  9
$CHAMFERA
 40
0.3
  9
$CHAMFERB
 40
0.3
  9
$CHAMFERC
 40
20.0
  9
$CHAMFERD
 40
0.0
  9
$SKPOLY
 70
     0
  9
$TDCREATE
 40
2450717.578556713
  9
$TDUCREATE
 40
2450717.203556713
  9
$TDUPDATE
 40
2455357.469265579
  9
$TDUUPDATE
 40
2455357.094265579
  9
$TDINDWG
 40
1.3079787269
  9
$TDUSRTIMER
 40
1.3079787269
  9
$USRTIMER
 70
     1
  9
$ANGBASE
 50
0.0
  9
$ANGDIR
 70
     0
  9
$PDMODE
 70
     0
  9
$PDSIZE
 40
0.0
  9
$PLINEWID
 40
0.0
  9
$SPLFRAME
 70
     0
  9
$SPLINETYPE
 70
     6
  9
$SPLINESEGS
 70
     8
  9
$HANDSEED
  5
1F6F
  9
$SURFTAB1
 70
     6
  9
$SURFTAB2
 70
     6
  9
$SURFTYPE
 70
     6
  9
$SURFU
 70
     6
  9
$SURFV
 70
     6
  9
$UCSBASE
  2

  9
$UCSNAME
  2

  9
$UCSORG
 10
0.0
 20
0.0
 30
0.0
  9
$UCSXDIR
 10
1.0
 20
0.0
 30
0.0
  9
$UCSYDIR
 10
0.0
 20
1.0
 30
0.0
  9
$UCSORTHOREF
  2

  9
$UCSORTHOVIEW
 70
     0
  9
$UCSORGTOP
 10
0.0
 20
0.0
 30
0.0
  9
$UCSORGBOTTOM
 10
0.0
 20
0.0
 30
0.0
  9
$UCSORGLEFT
 10
0.0
 20
0.0
 30
0.0
  9
$UCSORGRIGHT
 10
0.0
 20
0.0
 30
0.0
  9
$UCSORGFRONT
 10
0.0
 20
0.0
 30
0.0
  9
$UCSORGBACK
 10
0.0
 20
0.0
 30
0.0
  9
$PUCSBASE
  2

  9
$PUCSNAME
  2

  9
$PUCSORG
 10
0.0
 20
0.0
 30
0.0
  9
$PUCSXDIR
 10
1.0
 20
0.0
 30
0.0
  9
$PUCSYDIR
 10
0.0
 20
1.0
 30
0.0
  9
$PUCSORTHOREF
  2

  9
$PUCSORTHOVIEW
 70
     0
  9
$PUCSORGTOP
 10
0.0
 20
0.0
 30
0.0
  9
$PUCSORGBOTTOM
 10
0.0
 20
0.0
 30
0.0
  9
$PUCSORGLEFT
 10
0.0
 20
0.0
 30
0.0
  9
$PUCSORGRIGHT
 10
0.0
 20
0.0
 30
0.0
  9
$PUCSORGFRONT
 10
0.0
 20
0.0
 30
0.0
  9
$PUCSORGBACK
 10
0.0
 20
0.0
 30
0.0
  9
$USERI1
 70
     0
  9
$USERI2
 70
     0
  9
$USERI3
 70
     0
  9
$USERI4
 70
     0
  9
$USERI5
 70
     0
  9
$USERR1
 40
0.0
  9
$USERR2
 40
0.0
  9
$USERR3
 40
0.0
  9
$USERR4
 40
0.0
  9
$USERR5
 40
0.0
  9
$WORLDVIEW
 70
     1
  9
$SHADEDGE
 70
     3
  9
$SHADEDIF
 70
    70
  9
$TILEMODE
 70
     1
  9
$MAXACTVP
 70
    48
  9
$PINSBASE
 10
0.0
 20
0.0
 30
0.0
  9
$PLIMCHECK
 70
     0
  9
$PEXTMIN
 10
1.000000000000000E+20
 20
1.000000000000000E+20
 30
1.000000000000000E+20
  9
$PEXTMAX
 10
-1.000000000000000E+20
 20
-1.000000000000000E+20
 30
-1.000000000000000E+20
  9
$PLIMMIN
 10
0.0
 20
0.0
  9
$PLIMMAX
 10
420.0
 20
297.0
  9
$UNITMODE
 70
     0
  9
$VISRETAIN
 70
     1
  9
$PLINEGEN
 70
     0
  9
$PSLTSCALE
 70
     1
  9
$TREEDEPTH
 70
  3020
  9
$CMLSTYLE
  2
STANDARD
  9
$CMLJUST
 70
     0
  9
$CMLSCALE
 40
20.0
  9
$PROXYGRAPHICS
 70
     1
  9
$MEASUREMENT
 70
     1
  9
$CELWEIGHT
370
    -1
  9
$ENDCAPS
280
     0
  9
$JOINSTYLE
280
     0
  9
$LWDISPLAY
290
     0
  9
$INSUNITS
 70
     0
  9
$HYPERLINKBASE
  1

  9
$STYLESHEET
  1
AutoCAD LT 98.ctb
  9
$XEDIT
290
     1
  9
$CEPSNTYPE
380
     0
  9
$PSTYLEMODE
290
     1
  9
$FINGERPRINTGUID
  2
{419C5FA0-135E-4980-9BE4-B90E40132A44}
  9
$VERSIONGUID
  2
{9389B33B-C1D9-43E9-9A8B-0AE7043054D3}
  9
$EXTNAMES
290
     1
  9
$PSVPSCALE
 40
0.0
  9
$OLESTARTUP
290
     0
  9
$SORTENTS
280
    96
  9
$INDEXCTL
280
     0
  9
$HIDETEXT
280
     0
  9
$XCLIPFRAME
290
     0
  9
$HALOGAP
280
     0
  9
$OBSCOLOR
 70
   257
  9
$OBSLTYPE
280
     0
  9
$INTERSECTIONDISPLAY
280
     0
  9
$INTERSECTIONCOLOR
 70
   257
  9
$DIMASSOC
280
     1
  9
$PROJECTNAME
  1

  0
ENDSEC
  0
SECTION
  2
CLASSES
  0
CLASS
  1
HATCH
  2
AcDbHatch
  3
ObjectDBX Classes
 90
        0
 91
       13
280
     0
281
     1
  0
CLASS
  1
LWPOLYLINE
  2
AcDbPolyline
  3
ObjectDBX Classes
 90
        0
 91
        3
280
     0
281
     1
  0
CLASS
  1
IMAGEDEF
  2
AcDbRasterImageDef
  3
ISM
 90
        0
 91
        1
280
     0
281
     0
  0
CLASS
  1
DICTIONARYVAR
  2
AcDbDictionaryVar
  3
ObjectDBX Classes
 90
        0
 91
        2
280
     0
281
     0
  0
CLASS
  1
ACDBDICTIONARYWDFLT
  2
AcDbDictionaryWithDefault
  3
ObjectDBX Classes
 90
        0
 91
        1
280
     0
281
     0
  0
CLASS
  1
TABLESTYLE
  2
AcDbTableStyle
  3
ObjectDBX Classes
 90
     2047
 91
        1
280
     0
281
     0
  0
CLASS
  1
SORTENTSTABLE
  2
AcDbSortentsTable
  3
ObjectDBX Classes
 90
        0
 91
        0
280
     0
281
     0
  0
ENDSEC
  0
SECTION
  2
TABLES
  0
TABLE
  2
VPORT
  5
8
330
0
100
AcDbSymbolTable
 70
     2
  0
VPORT
  5
1F6E
330
8
100
AcDbSymbolTableRecord
100
AcDbViewportTableRecord
  2
*Active
 70
     0
 10
0.0
 20
0.0
 11
1.0
 21
1.0
 12
364.2002263399239
 22
269.3506681140068
 13
0.0
 23
0.0
 14
10.0
 24
10.0
 15
10.0
 25
10.0
 16
0.0
 26
0.0
 36
1.0
 17
0.0
 27
0.0
 37
0.0
 40
196.9300951666771
 41
1.530456852791878
 42
50.0
 43
0.0
 44
0.0
 50
0.0
 51
0.0
 71
     0
 72
   100
 73
     1
 74
     1
 75
     0
 76
     0
 77
     0
 78
     0
281
     0
 65
     1
110
0.0
120
0.0
130
0.0
111
1.0
121
0.0
131
0.0
112
0.0
122
1.0
132
0.0
 79
     0
146
0.0
  0
ENDTAB
  0
TABLE
  2
LTYPE
  5
5
330
0
100
AcDbSymbolTable
 70
     4
  0
LTYPE
  5
12
330
5
100
AcDbSymbolTableRecord
100
AcDbLinetypeTableRecord
  2
BYBLOCK
 70
     0
  3

 72
    65
 73
     0
 40
0.0
  0
LTYPE
  5
13
330
5
100
AcDbSymbolTableRecord
100
AcDbLinetypeTableRecord
  2
BYLAYER
 70
     0
  3

 72
    65
 73
     0
 40
0.0
  0
LTYPE
  5
14
330
5
100
AcDbSymbolTableRecord
100
AcDbLinetypeTableRecord
  2
CONTINUOUS
 70
     0
  3
Solid line
 72
    65
 73
     0
 40
0.0
  0
LTYPE
  5
22
330
5
100
AcDbSymbolTableRecord
100
AcDbLinetypeTableRecord
  2
CENTER2
 70
     0
  3
Center (.5x) ___ _ ___ _ ___ _ ___ _ ___ _ ___
 72
    65
 73
     4
 40
28.575
 49
19.05
 74
     0
 49
-3.174999999999999
 74
     0
 49
3.174999999999999
 74
     0
 49
-3.174999999999999
 74
     0
  0
ENDTAB
  0
TABLE
  2
LAYER
  5
2
330
0
100
AcDbSymbolTable
 70
    16
  0
LAYER
  5
E
330
2
100
AcDbSymbolTableRecord
100
AcDbLayerTableRecord
  2
0
 70
     0
 62
     7
  6
CONTINUOUS
370
    -3
390
1E0A
  0
LAYER
  5
25
330
2
100
AcDbSymbolTableRecord
100
AcDbLayerTableRecord
  2
外形線
 70
     0
 62
     7
  6
CONTINUOUS
370
    -3
390
1E0A
  0
LAYER
  5
26
330
2
100
AcDbSymbolTableRecord
100
AcDbLayerTableRecord
  2
寸法線
 70
     0
 62
     2
  6
CONTINUOUS
370
    -3
390
1E0A
  0
LAYER
  5
27
330
2
100
AcDbSymbolTableRecord
100
AcDbLayerTableRecord
  2
中心線
 70
     0
 62
     4
  6
CENTER2
370
    -3
390
1E0A
  0
LAYER
  5
2A
330
2
100
AcDbSymbolTableRecord
100
AcDbLayerTableRecord
  2
ﾊｯﾁﾝｸ
 70
     0
 62
     6
  6
CONTINUOUS
370
    -3
390
1E0A
  0
LAYER
  5
2B
330
2
100
AcDbSymbolTableRecord
100
AcDbLayerTableRecord
  2
文字
 70
     0
 62
     6
  6
CONTINUOUS
370
    -3
390
1E0A
  0
LAYER
  5
2C
330
2
100
AcDbSymbolTableRecord
100
AcDbLayerTableRecord
  2
目盛
 70
     0
 62
    70
  6
CONTINUOUS
370
    -3
390
1E0A
  0
LAYER
  5
2D
330
2
100
AcDbSymbolTableRecord
100
AcDbLayerTableRecord
  2
針
 70
     0
 62
     5
  6
CONTINUOUS
370
    -3
390
1E0A
  0
LAYER
  5
53
330
2
100
AcDbSymbolTableRecord
100
AcDbLayerTableRecord
  2
DEFPOINTS
 70
     0
 62
     7
  6
CONTINUOUS
290
     0
370
    -3
390
1E0A
  0
LAYER
  5
A5
330
2
100
AcDbSymbolTableRecord
100
AcDbLayerTableRecord
  2
C
 70
     0
 62
     7
  6
CONTINUOUS
370
    -3
390
1E0A
  0
LAYER
  5
E00
330
2
100
AcDbSymbolTableRecord
100
AcDbLayerTableRecord
  2
ROGO
 70
     0
 62
     6
  6
CONTINUOUS
370
    -3
390
1E0A
  0
ENDTAB
  0
TABLE
  2
STYLE
  5
3
330
0
100
AcDbSymbolTable
 70
     3
  0
STYLE
  5
F
330
3
100
AcDbSymbolTableRecord
100
AcDbTextStyleTableRecord
  2
STANDARD
 70
     0
 40
0.0
 41
1.0
 50
0.0
 71
     0
 42
2.5
  3
txt
  4

  0
STYLE
  5
3F
330
3
100
AcDbSymbolTableRecord
100
AcDbTextStyleTableRecord
  2
STYLE3
 70
     0
 40
0.0
 41
1.0
 50
0.0
 71
     0
 42
3.0
  3
romans.shx
  4
bigfont.shx
  0
ENDTAB
  0
TABLE
  2
VIEW
  5
6
330
0
100
AcDbSymbolTable
 70
     0
  0
ENDTAB
  0
TABLE
  2
UCS
  5
7
330
0
100
AcDbSymbolTable
 70
     0
  0
ENDTAB
  0
TABLE
  2
APPID
  5
9
330
0
100
AcDbSymbolTable
 70
     2
  0
APPID
  5
10
330
9
100
AcDbSymbolTableRecord
100
AcDbRegAppTableRecord
  2
ACAD
 70
     0
  0
APPID
  5
1E19
330
9
100
AcDbSymbolTableRecord
100
AcDbRegAppTableRecord
  2
ACAD_PSEXT
 70
     0
  0
ENDTAB
  0
TABLE
  2
DIMSTYLE
  5
A
330
0
100
AcDbSymbolTable
 70
     3
100
AcDbDimStyleTable
 71
     1
340
66
  0
DIMSTYLE
105
1D
330
A
100
AcDbSymbolTableRecord
100
AcDbDimStyleTableRecord
  2
STANDARD
 70
     0
 41
2.5
 42
0.625
 43
3.75
 44
1.25
 73
     0
 74
     0
 77
     1
 78
     8
140
2.5
141
2.5
143
0.0394
147
0.625
171
     4
172
     1
273
     8
274
     4
277
     6
340
F
  0
DIMSTYLE
105
66
330
A
100
AcDbSymbolTableRecord
100
AcDbDimStyleTableRecord
  2
STYLE2
 70
     0
 41
2.5
 42
0.0
 43
3.75
 44
1.25
 73
     0
 74
     0
 77
     1
 78
     8
140
2.5
141
2.5
143
0.0394
147
0.625
171
     4
172
     1
173
     1
176
     2
177
     2
178
     6
271
     1
273
     8
274
     4
340
3F
341
45
343
45
344
45
  0
ENDTAB
  0
TABLE
  2
BLOCK_RECORD
  5
1
330
0
100
AcDbSymbolTable
 70
     3
  0
BLOCK_RECORD
  5
18
330
1
100
AcDbSymbolTableRecord
100
AcDbBlockTableRecord
  2
*MODEL_SPACE
340
1E11
  0
BLOCK_RECORD
  5
15
330
1
100
AcDbSymbolTableRecord
100
AcDbBlockTableRecord
  2
*PAPER_SPACE
340
1E12
  0
BLOCK_RECORD
  5
45
330
1
100
AcDbSymbolTableRecord
100
AcDbBlockTableRecord
  2
_OPEN
340
0
102
{BLKREFS
331
836
331
837
331
83E
331
83F
331
847
331
848
331
F35
331
F36
331
1A42
331
1A44
331
1ABF
331
1AC4
331
1B09
331
1B0A
331
1D07
331
1D08
331
1D12
331
1D13
331
1D1B
331
1D1C
331
1D28
331
1D29
331
1D3F
331
1D40
331
1D47
331
1D48
331
1D4D
331
1EA5
331
1EA6
102
}
  0
ENDTAB
  0
ENDSEC
  0
SECTION
  2
BLOCKS
  0
BLOCK
  5
19
330
18
100
AcDbEntity
  8
0
100
AcDbBlockBegin
  2
*MODEL_SPACE
 70
     0
 10
0.0
 20
0.0
 30
0.0
  3
*MODEL_SPACE
  1

  0
ENDBLK
  5
1A
330
18
100
AcDbEntity
  8
0
100
AcDbBlockEnd
  0
BLOCK
  5
16
330
15
100
AcDbEntity
 67
     1
  8
0
100
AcDbBlockBegin
  2
*PAPER_SPACE
 70
     0
 10
0.0
 20
0.0
 30
0.0
  3
*PAPER_SPACE
  1

  0
ENDBLK
  5
17
330
15
100
AcDbEntity
 67
     1
  8
0
100
AcDbBlockEnd
  0
BLOCK
  5
46
330
45
100
AcDbEntity
  8
0
100
AcDbBlockBegin
  2
_OPEN
 70
     0
 10
0.0
 20
0.0
 30
0.0
  3
_OPEN
  1

  0
LINE
  5
47
330
45
100
AcDbEntity
  8
0
  6
ByBlock
 62
     0
100
AcDbLine
 10
-1.0
 20
0.1666666666666666
 30
0.0
 11
0.0
 21
0.0
 31
0.0
  0
LINE
  5
48
330
45
100
AcDbEntity
  8
0
  6
ByBlock
 62
     0
100
AcDbLine
 10
0.0
 20
0.0
 30
0.0
 11
-1.0
 21
-0.1666666666666666
 31
0.0
  0
LINE
  5
49
330
45
100
AcDbEntity
  8
0
  6
ByBlock
 62
     0
100
AcDbLine
 10
0.0
 20
0.0
 30
0.0
 11
-1.0
 21
0.0
 31
0.0
  0
ENDBLK
  5
4A
330
45
100
AcDbEntity
  8
0
100
AcDbBlockEnd
  0
ENDSEC
  0
SECTION
  2
ENTITIES
  0
LINE
  5
244
330
18
100
AcDbEntity
  8
中心線
 48
0.5
100
AcDbLine
 10
286.585089789544
 20
291.2078388776974
 30
0.0
 11
354.7673128157045
 21
291.2078388776974
 31
0.0
  0
LINE
  5
245
330
18
100
AcDbEntity
  8
中心線
 48
0.5
100
AcDbLine
 10
324.6280170849181
 20
335.8496478615129
 30
0.0
 11
324.6280170849182
 21
221.0841254985266
 31
0.0
  0
CIRCLE
  5
247
330
18
100
AcDbEntity
  8
外形線
100
AcDbCircle
 10
324.6280170849182
 20
291.2078388776974
 30
0.0
 40
23.0
  0
CIRCLE
  5
248
330
18
100
AcDbEntity
  8
外形線
100
AcDbCircle
 10
324.6280170849182
 20
291.2078388776974
 30
0.0
 40
26.4
  0
LINE
  5
2D5
330
18
100
AcDbEntity
  8
外形線
100
AcDbLine
 10
328.6280170849182
 20
265.1126285892173
 30
0.0
 11
328.6280170849182
 21
235.8078388776974
 31
0.0
  0
LINE
  5
2D6
330
18
100
AcDbEntity
  8
外形線
100
AcDbLine
 10
320.6280170849182
 20
265.1126285892173
 30
0.0
 11
320.6280170849182
 21
235.8078388776974
 31
0.0
  0
LINE
  5
5CF
330
18
100
AcDbEntity
  8
外形線
  6
Continuous
100
AcDbLine
 10
328.3280170849182
 20
331.7078388776973
 30
0.0
 11
328.3280170849182
 21
325.2078388776973
 31
0.0
  0
LINE
  5
5D0
330
18
100
AcDbEntity
  8
外形線
  6
Continuous
100
AcDbLine
 10
320.9280170849182
 20
331.7078388776973
 30
0.0
 11
320.9280170849182
 21
325.2078388776973
 31
0.0
  0
LINE
  5
5D1
330
18
100
AcDbEntity
  8
外形線
  6
Continuous
100
AcDbLine
 10
320.9280170849182
 20
331.7078388776973
 30
0.0
 11
328.3280170849182
 21
331.7078388776973
 31
0.0
  0
LINE
  5
5D2
330
18
100
AcDbEntity
  8
外形線
  6
Continuous
100
AcDbLine
 10
320.6280170849183
 20
325.2078388776973
 30
0.0
 11
328.6280170849182
 21
325.2078388776973
 31
0.0
  0
LINE
  5
5D3
330
18
100
AcDbEntity
  8
外形線
  6
Continuous
100
AcDbLine
 10
320.6280170849181
 20
319.2078388776973
 30
0.0
 11
328.6280170849182
 21
319.2078388776973
 31
0.0
  0
LINE
  5
5D4
330
18
100
AcDbEntity
  8
外形線
  6
Continuous
100
AcDbLine
 10
328.6280170849182
 20
325.2078388776973
 30
0.0
 11
328.6280170849182
 21
319.2078388776973
 31
0.0
  0
LINE
  5
5D5
330
18
100
AcDbEntity
  8
外形線
  6
Continuous
100
AcDbLine
 10
320.6280170849183
 20
325.2078388776973
 30
0.0
 11
320.6280170849183
 21
319.2078388776973
 31
0.0
  0
LINE
  5
5D6
330
18
100
AcDbEntity
  8
外形線
  6
Continuous
100
AcDbLine
 10
328.3280170849182
 20
319.2078388776973
 30
0.0
 11
328.3280170849182
 21
317.3472726894692
 31
0.0
  0
LINE
  5
5D7
330
18
100
AcDbEntity
  8
外形線
  6
Continuous
100
AcDbLine
 10
320.9280170849182
 20
319.2078388776973
 30
0.0
 11
320.9280170849182
 21
317.3472726894692
 31
0.0
  0
ARC
  5
5D9
330
18
100
AcDbEntity
  8
外形線
  6
Continuous
100
AcDbCircle
 10
324.6280170849181
 20
325.3628388776975
 30
0.0
 40
7.344999999999885
100
AcDbArc
 50
59.75198538337817
 51
120.2480146166212
  0
ARC
  5
692
330
18
100
AcDbEntity
  8
外形線
  6
Continuous
100
AcDbCircle
 10
498.2919735813823
 20
291.2078388776974
 30
0.0
 40
105.6666666666664
100
AcDbArc
 50
166.3144531747381
 51
193.685546825262
  0
LINE
  5
693
330
18
100
AcDbEntity
  8
外形線
  6
Continuous
100
AcDbLine
 10
395.6253069147161
 20
316.2078388776974
 30
0.0
 11
395.6253069147161
 21
266.2078388776974
 31
0.0
  0
LINE
  5
694
330
18
100
AcDbEntity
  8
外形線
  6
Continuous
100
AcDbLine
 10
396.8253069147161
 20
317.6078388776974
 30
0.0
 11
396.8253069147161
 21
264.8078388776974
 31
0.0
  0
LINE
  5
695
330
18
100
AcDbEntity
  8
外形線
  6
Continuous
100
AcDbLine
 10
400.625306914716
 20
317.6078388776974
 30
0.0
 11
400.625306914716
 21
264.8078388776974
 31
0.0
  0
LINE
  5
696
330
18
100
AcDbEntity
  8
外形線
  6
Continuous
100
AcDbLine
 10
402.125306914716
 20
316.2078388776974
 30
0.0
 11
402.125306914716
 21
266.2078388776974
 31
0.0
  0
LINE
  5
69C
330
18
100
AcDbEntity
  8
外形線
  6
Continuous
100
AcDbLine
 10
396.8253069147161
 20
265.7078388776974
 30
0.0
 11
395.6253069147161
 21
266.2078388776974
 31
0.0
  0
LINE
  5
6AD
330
18
100
AcDbEntity
  8
外形線
  6
CENTER2
100
AcDbLine
 10
402.125306914716
 20
266.2078388776974
 30
0.0
 11
400.625306914716
 21
266.2078388776974
 31
0.0
  0
LINE
  5
6AE
330
18
100
AcDbEntity
  8
外形線
  6
Continuous
100
AcDbLine
 10
396.8253069147161
 20
264.8078388776974
 30
0.0
 11
400.625306914716
 21
264.8078388776974
 31
0.0
  0
LINE
  5
6AF
330
18
100
AcDbEntity
  8
外形線
  6
Continuous
 62
     4
100
AcDbLine
 10
396.8253069147161
 20
268.8078388776974
 30
0.0
 11
400.625306914716
 21
268.8078388776974
 31
0.0
  0
LINE
  5
6B0
330
18
100
AcDbEntity
  8
外形線
  6
Continuous
 62
     4
100
AcDbLine
 10
396.8253069147161
 20
267.8078388776974
 30
0.0
 11
400.625306914716
 21
267.8078388776974
 31
0.0
  0
LINE
  5
6B1
330
18
100
AcDbEntity
  8
外形線
  6
Continuous
 62
     4
100
AcDbLine
 10
396.8253069147161
 20
266.8078388776974
 30
0.0
 11
400.625306914716
 21
266.8078388776974
 31
0.0
  0
LINE
  5
6B2
330
18
100
AcDbEntity
  8
外形線
  6
Continuous
 62
     4
100
AcDbLine
 10
396.8253069147161
 20
265.8078388776974
 30
0.0
 11
400.625306914716
 21
265.8078388776974
 31
0.0
  0
ARC
  5
6B8
330
18
100
AcDbEntity
  8
外形線
  6
Continuous
100
AcDbCircle
 10
407.125306914716
 20
325.3628388776975
 30
0.0
 40
7.344999999999885
100
AcDbArc
 50
59.75198538337879
 51
120.2480146166218
  0
LINE
  5
6B9
330
18
100
AcDbEntity
  8
外形線
  6
Continuous
100
AcDbLine
 10
396.8253069147161
 20
316.7078388776974
 30
0.0
 11
395.6253069147161
 21
316.2078388776974
 31
0.0
  0
LINE
  5
6BA
330
18
100
AcDbEntity
  8
外形線
  6
Continuous
 62
     4
100
AcDbLine
 10
396.8253069147161
 20
269.8078388776974
 30
0.0
 11
400.625306914716
 21
269.8078388776974
 31
0.0
  0
LINE
  5
6BB
330
18
100
AcDbEntity
  8
外形線
  6
Continuous
 62
     4
100
AcDbLine
 10
400.625306914716
 20
289.2078388776974
 30
0.0
 11
396.8253069147161
 21
289.2078388776974
 31
0.0
  0
LINE
  5
6BC
330
18
100
AcDbEntity
  8
外形線
  6
Continuous
 62
     4
100
AcDbLine
 10
400.625306914716
 20
290.2078388776974
 30
0.0
 11
396.8253069147161
 21
290.2078388776974
 31
0.0
  0
LINE
  5
6BD
330
18
100
AcDbEntity
  8
外形線
  6
Continuous
 62
     4
100
AcDbLine
 10
400.625306914716
 20
291.2078388776974
 30
0.0
 11
396.8253069147161
 21
291.2078388776974
 31
0.0
  0
LINE
  5
6BE
330
18
100
AcDbEntity
  8
外形線
  6
Continuous
 62
     4
100
AcDbLine
 10
400.625306914716
 20
292.2078388776974
 30
0.0
 11
396.8253069147161
 21
292.2078388776974
 31
0.0
  0
LINE
  5
6BF
330
18
100
AcDbEntity
  8
外形線
  6
Continuous
 62
     4
100
AcDbLine
 10
400.625306914716
 20
294.2078388776974
 30
0.0
 11
396.8253069147161
 21
294.2078388776974
 31
0.0
  0
LINE
  5
6C0
330
18
100
AcDbEntity
  8
外形線
  6
Continuous
 62
     4
100
AcDbLine
 10
400.625306914716
 20
293.2078388776974
 30
0.0
 11
396.8253069147161
 21
293.2078388776974
 31
0.0
  0
LINE
  5
6C1
330
18
100
AcDbEntity
  8
外形線
  6
Continuous
 62
     4
100
AcDbLine
 10
396.8253069147161
 20
312.6078388776974
 30
0.0
 11
400.625306914716
 21
312.6078388776974
 31
0.0
  0
LINE
  5
6C2
330
18
100
AcDbEntity
  8
外形線
  6
Continuous
 62
     4
100
AcDbLine
 10
396.8253069147161
 20
313.6078388776974
 30
0.0
 11
400.625306914716
 21
313.6078388776974
 31
0.0
  0
LINE
  5
6C3
330
18
100
AcDbEntity
  8
外形線
  6
Continuous
 62
     4
100
AcDbLine
 10
396.8253069147161
 20
314.6078388776974
 30
0.0
 11
400.625306914716
 21
314.6078388776974
 31
0.0
  0
LINE
  5
6C4
330
18
100
AcDbEntity
  8
外形線
  6
Continuous
 62
     4
100
AcDbLine
 10
396.8253069147161
 20
315.6078388776974
 30
0.0
 11
400.625306914716
 21
315.6078388776974
 31
0.0
  0
LINE
  5
6C5
330
18
100
AcDbEntity
  8
外形線
  6
Continuous
100
AcDbLine
 10
410.825306914716
 20
331.7078388776973
 30
0.0
 11
403.4253069147159
 21
331.7078388776973
 31
0.0
  0
LINE
  5
6C6
330
18
100
AcDbEntity
  8
外形線
  6
Continuous
100
AcDbLine
 10
411.125306914716
 20
325.2078388776973
 30
0.0
 11
403.125306914716
 21
325.2078388776973
 31
0.0
  0
LINE
  5
6C7
330
18
100
AcDbEntity
  8
外形線
  6
Continuous
100
AcDbLine
 10
411.125306914716
 20
319.2078388776973
 30
0.0
 11
403.125306914716
 21
319.2078388776973
 31
0.0
  0
LINE
  5
6C9
330
18
100
AcDbEntity
  8
外形線
  6
Continuous
100
AcDbLine
 10
411.125306914716
 20
325.2078388776973
 30
0.0
 11
411.125306914716
 21
319.2078388776973
 31
0.0
  0
LINE
  5
6CA
330
18
100
AcDbEntity
  8
外形線
  6
Continuous
100
AcDbLine
 10
410.825306914716
 20
319.2078388776973
 30
0.0
 11
410.825306914716
 21
315.7078388776974
 31
0.0
  0
LINE
  5
6CB
330
18
100
AcDbEntity
  8
外形線
  6
Continuous
100
AcDbLine
 10
410.825306914716
 20
331.7078388776973
 30
0.0
 11
410.825306914716
 21
325.2078388776973
 31
0.0
  0
LINE
  5
6CC
330
18
100
AcDbEntity
  8
外形線
  6
Continuous
100
AcDbLine
 10
403.125306914716
 20
325.2078388776973
 30
0.0
 11
403.125306914716
 21
319.2078388776973
 31
0.0
  0
LINE
  5
6CD
330
18
100
AcDbEntity
  8
外形線
  6
CENTER2
100
AcDbLine
 10
402.125306914716
 20
316.2078388776974
 30
0.0
 11
400.625306914716
 21
316.2078388776974
 31
0.0
  0
LINE
  5
6CE
330
18
100
AcDbEntity
  8
外形線
  6
Continuous
100
AcDbLine
 10
403.4253069147159
 20
319.2078388776973
 30
0.0
 11
403.4253069147159
 21
315.7078388776974
 31
0.0
  0
LINE
  5
6CF
330
18
100
AcDbEntity
  8
外形線
  6
Continuous
 62
     4
100
AcDbLine
 10
396.8253069147161
 20
316.6078388776974
 30
0.0
 11
400.625306914716
 21
316.6078388776974
 31
0.0
  0
LINE
  5
6D0
330
18
100
AcDbEntity
  8
外形線
  6
Continuous
100
AcDbLine
 10
396.8253069147161
 20
317.6078388776974
 30
0.0
 11
400.625306914716
 21
317.6078388776974
 31
0.0
  0
LINE
  5
6D1
330
18
100
AcDbEntity
  8
外形線
  6
Continuous
100
AcDbLine
 10
403.4253069147159
 20
331.7078388776973
 30
0.0
 11
403.4253069147159
 21
325.2078388776973
 31
0.0
  0
MTEXT
  5
778
330
18
100
AcDbEntity
  8
DEFPOINTS
  6
Continuous
100
AcDbMText
 10
735.8166661286731
 20
235.565234348894
 30
0.0
 40
1.0
 41
0.0
 71
     4
 72
     1
  1
\A1;
 73
     1
 44
1.0
  0
LINE
  5
789
330
18
100
AcDbEntity
  8
中心線
 48
0.5
100
AcDbLine
 10
407.1253069147161
 20
336.1607902218765
 30
0.0
 11
407.1253069147162
 21
224.0399543342038
 31
0.0
  0
LINE
  5
78E
330
18
100
AcDbEntity
  8
外形線
100
AcDbLine
 10
402.125306914716
 20
266.7078388776974
 30
0.0
 11
413.6253069147161
 21
266.7078388776974
 31
0.0
  0
LINE
  5
78F
330
18
100
AcDbEntity
  8
外形線
100
AcDbLine
 10
402.125306914716
 20
315.7078388776974
 30
0.0
 11
413.6253069147161
 21
315.7078388776974
 31
0.0
  0
LINE
  5
7D6
330
18
100
AcDbEntity
  8
中心線
 48
0.5
100
AcDbLine
 10
387.7879928045515
 20
291.2078388776974
 30
0.0
 11
417.7388581017941
 21
291.2078388776974
 31
0.0
  0
LINE
  5
833
330
18
100
AcDbEntity
  8
0
  6
ByBlock
 62
     2
100
AcDbLine
 10
324.6280170849181
 20
332.7078388776974
 30
0.0
 11
279.4900531801418
 21
332.7078388776974
 31
0.0
  0
LINE
  5
835
330
18
100
AcDbEntity
  8
0
  6
ByBlock
 62
     2
100
AcDbLine
 10
287.835089789544
 20
330.2078388776974
 30
0.0
 11
287.835089789544
 21
293.7078388776974
 31
0.0
  0
INSERT
  5
836
330
18
100
AcDbEntity
  8
0
  6
ByBlock
 62
     2
100
AcDbBlockReference
  2
_OPEN
 10
287.835089789544
 20
332.7078388776974
 30
0.0
 41
2.5
 42
2.5
 43
2.5
 50
90.0
  0
INSERT
  5
837
330
18
100
AcDbEntity
  8
0
  6
ByBlock
 62
     2
100
AcDbBlockReference
  2
_OPEN
 10
287.835089789544
 20
291.2078388776974
 30
0.0
 41
2.5
 42
2.5
 43
2.5
 50
270.0
  0
MTEXT
  5
838
330
18
100
AcDbEntity
  8
0
  6
ByBlock
 62
     6
100
AcDbMText
 10
285.960089789544
 20
311.9578388776974
 30
0.0
 40
2.5
 41
0.0
 71
     5
 72
     1
  1
\A1;41.5
  7
STYLE3
 11
0.0000000000000001
 21
1.0
 31
0.0
 73
     1
 44
1.0
  0
POINT
  5
839
330
18
100
AcDbEntity
  8
DEFPOINTS
  6
ByBlock
 62
     0
100
AcDbPoint
 10
324.6280170849181
 20
332.7078388776974
 30
0.0
  0
POINT
  5
83B
330
18
100
AcDbEntity
  8
DEFPOINTS
  6
ByBlock
 62
     0
100
AcDbPoint
 10
287.835089789544
 20
291.2078388776974
 30
0.0
  0
LINE
  5
83C
330
18
100
AcDbEntity
  8
0
  6
ByBlock
 62
     2
100
AcDbLine
 10
324.6280170849182
 20
224.8078388776974
 30
0.0
 11
279.4900531801419
 21
224.8078388776974
 31
0.0
  0
LINE
  5
83D
330
18
100
AcDbEntity
  8
0
  6
ByBlock
 62
     2
100
AcDbLine
 10
287.835089789544
 20
288.7078388776974
 30
0.0
 11
287.835089789544
 21
227.3078388776974
 31
0.0
  0
INSERT
  5
83E
330
18
100
AcDbEntity
  8
0
  6
ByBlock
 62
     2
100
AcDbBlockReference
  2
_OPEN
 10
287.835089789544
 20
291.2078388776974
 30
0.0
 41
2.5
 42
2.5
 43
2.5
 50
90.0
  0
INSERT
  5
83F
330
18
100
AcDbEntity
  8
0
  6
ByBlock
 62
     2
100
AcDbBlockReference
  2
_OPEN
 10
287.835089789544
 20
224.8078388776974
 30
0.0
 41
2.5
 42
2.5
 43
2.5
 50
270.0
  0
MTEXT
  5
840
330
18
100
AcDbEntity
  8
0
  6
ByBlock
 62
     6
100
AcDbMText
 10
285.947721438611
 20
258.4262409929197
 30
0.0
 40
2.5
 41
0.0
 71
     5
 72
     1
  1
66.4
  7
STYLE3
 11
0.0000000000000001
 21
1.0
 31
0.0
 73
     1
 44
1.0
  0
POINT
  5
843
330
18
100
AcDbEntity
  8
DEFPOINTS
  6
ByBlock
 62
     0
100
AcDbPoint
 10
287.835089789544
 20
224.8078388776974
 30
0.0
  0
LINE
  5
846
330
18
100
AcDbEntity
  8
0
  6
ByBlock
 62
     2
100
AcDbLine
 10
280.7400531801418
 20
330.2078388776974
 30
0.0
 11
280.7400531801418
 21
227.3078388776974
 31
0.0
  0
INSERT
  5
847
330
18
100
AcDbEntity
  8
0
  6
ByBlock
 62
     2
100
AcDbBlockReference
  2
_OPEN
 10
280.7400531801418
 20
332.7078388776974
 30
0.0
 41
2.5
 42
2.5
 43
2.5
 50
90.0
  0
INSERT
  5
848
330
18
100
AcDbEntity
  8
0
  6
ByBlock
 62
     2
100
AcDbBlockReference
  2
_OPEN
 10
280.7400531801418
 20
224.8078388776974
 30
0.0
 41
2.5
 42
2.5
 43
2.5
 50
270.0
  0
MTEXT
  5
849
330
18
100
AcDbEntity
  8
0
  6
ByBlock
 62
     6
100
AcDbMText
 10
278.8650531801418
 20
279.4578388776974
 30
0.0
 40
2.5
 41
0.0
 71
     5
 72
     1
  1
107.9
  7
STYLE3
 11
0.0000000000000001
 21
1.0
 31
0.0
 73
     1
 44
1.0
  0
POINT
  5
84A
330
18
100
AcDbEntity
  8
DEFPOINTS
  6
ByBlock
 62
     0
100
AcDbPoint
 10
286.585089789544
 20
332.7078388776974
 30
0.0
  0
POINT
  5
84B
330
18
100
AcDbEntity
  8
DEFPOINTS
  6
ByBlock
 62
     0
100
AcDbPoint
 10
286.585089789544
 20
224.8078388776974
 30
0.0
  0
POINT
  5
84C
330
18
100
AcDbEntity
  8
DEFPOINTS
  6
ByBlock
 62
     0
100
AcDbPoint
 10
280.7400531801418
 20
224.8078388776974
 30
0.0
  0
MTEXT
  5
887
330
18
100
AcDbEntity
  8
文字
100
AcDbMText
 10
302.9558756866726
 20
261.6432165871282
 30
0.0
 40
1.0
 41
6.927999999999999
 71
     1
 72
     5
  1

  7
STYLE3
 73
     1
 44
1.0
  0
TEXT
  5
93E
330
18
100
AcDbEntity
  8
文字
100
AcDbText
 10
425.6629724437189
 20
286.1007565906801
 30
0.0
 40
2.5
  1
φ
 50
90.0
  7
STYLE3
100
AcDbText
  0
LWPOLYLINE
  5
96E
330
18
100
AcDbEntity
  8
C
100
AcDbPolyline
 90
        5
 70
     0
 43
0.4
 10
236.6915604445414
 20
366.8501752555372
 10
491.6915604445414
 20
366.8501752555372
 10
491.6915604445414
 20
171.8501752555372
 10
236.6915604445414
 20
171.8501752555372
 10
236.6915604445414
 20
366.8501752555372
  0
MTEXT
  5
EB4
330
18
100
AcDbEntity
  8
DEFPOINTS
  6
Continuous
100
AcDbMText
 10
624.6916853418142
 20
184.890767874579
 30
0.0
 40
0.35
 41
0.0
 71
     4
 72
     1
  1
\A1;
 73
     1
 44
1.0
  0
LINE
  5
F32
330
18
100
AcDbEntity
  8
0
  6
ByBlock
 62
     2
100
AcDbLine
 10
413.6253069147161
 20
315.7078388776974
 30
0.0
 11
427.7114534887417
 21
315.7078388776974
 31
0.0
  0
LINE
  5
F33
330
18
100
AcDbEntity
  8
0
  6
ByBlock
 62
     2
100
AcDbLine
 10
413.6253069147161
 20
266.7078388776974
 30
0.0
 11
427.7114534887417
 21
266.7078388776974
 31
0.0
  0
LINE
  5
F34
330
18
100
AcDbEntity
  8
0
  6
ByBlock
 62
     2
100
AcDbLine
 10
426.4614534887418
 20
313.2078388776974
 30
0.0
 11
426.4614534887418
 21
269.2078388776974
 31
0.0
  0
INSERT
  5
F35
330
18
100
AcDbEntity
  8
0
  6
ByBlock
 62
     2
100
AcDbBlockReference
  2
_OPEN
 10
426.4614534887418
 20
315.7078388776974
 30
0.0
 41
2.5
 42
2.5
 43
2.5
 50
90.0
  0
INSERT
  5
F36
330
18
100
AcDbEntity
  8
0
  6
ByBlock
 62
     2
100
AcDbBlockReference
  2
_OPEN
 10
426.4614534887418
 20
266.7078388776974
 30
0.0
 41
2.5
 42
2.5
 43
2.5
 50
270.0
  0
MTEXT
  5
F37
330
18
100
AcDbEntity
  8
0
  6
ByBlock
 62
     6
100
AcDbMText
 10
424.3771948610809
 20
291.2078388776974
 30
0.0
 40
2.5
 41
0.0
 71
     5
 72
     1
  1
\A1;49
  7
STYLE3
 11
0.0000000000000001
 21
1.0
 31
0.0
 73
     1
 44
1.0
  0
POINT
  5
F3A
330
18
100
AcDbEntity
  8
DEFPOINTS
  6
ByBlock
 62
     0
100
AcDbPoint
 10
426.4614534887418
 20
266.7078388776974
 30
0.0
  0
LINE
  5
FF7
330
18
100
AcDbEntity
  8
外形線
  6
Continuous
100
AcDbLine
 10
414.725306914716
 20
314.2078388776974
 30
0.0
 11
414.725306914716
 21
268.2078388776974
 31
0.0
  0
LINE
  5
FF8
330
18
100
AcDbEntity
  8
外形線
100
AcDbLine
 10
413.6253069147161
 20
314.2078388776974
 30
0.0
 11
414.725306914716
 21
314.2078388776974
 31
0.0
  0
LINE
  5
FF9
330
18
100
AcDbEntity
  8
外形線
100
AcDbLine
 10
413.6253069147161
 20
268.2078388776974
 30
0.0
 11
414.725306914716
 21
268.2078388776974
 31
0.0
  0
POINT
  5
100E
330
18
100
AcDbEntity
  8
DEFPOINTS
  6
ByBlock
 62
     0
100
AcDbPoint
 10
414.725306914716
 20
314.2078388776974
 30
0.0
  0
MTEXT
  5
13D2
330
18
100
AcDbEntity
  8
DEFPOINTS
  6
Continuous
100
AcDbMText
 10
1236.255313500774
 20
410.7784228578957
 30
0.0
 40
1.0
 41
0.0
 71
     4
 72
     1
  1
\A1;
 73
     1
 44
1.0
  0
MTEXT
  5
142F
330
18
100
AcDbEntity
  8
文字
100
AcDbMText
 10
803.3945230587734
 20
436.8564050961298
 30
0.0
 40
1.0
 41
6.927999999999999
 71
     1
 72
     5
  1

  7
STYLE3
 73
     1
 44
1.0
  0
MTEXT
  5
14AC
330
18
100
AcDbEntity
  8
DEFPOINTS
  6
Continuous
100
AcDbMText
 10
1125.130332713915
 20
360.1039563835807
 30
0.0
 40
0.35
 41
0.0
 71
     4
 72
     1
  1
\A1;
 73
     1
 44
1.0
  0
POINT
  5
1644
330
18
100
AcDbEntity
  8
DEFPOINTS
  6
ByBlock
 62
     0
100
AcDbPoint
 10
392.625306914716
 20
291.2078388776974
 30
0.0
  0
POINT
  5
1645
330
18
100
AcDbEntity
  8
DEFPOINTS
  6
ByBlock
 62
     0
100
AcDbPoint
 10
407.125306914716
 20
332.7078388776974
 30
0.0
  0
TEXT
  5
18E5
330
18
100
AcDbEntity
  8
文字
100
AcDbText
 10
338.8928313148023
 20
295.4643838406487
 30
0.0
 40
2.5
  1
20
  7
STYLE3
100
AcDbText
  0
TEXT
  5
18ED
330
18
100
AcDbEntity
  8
文字
100
AcDbText
 10
305.7734813653901
 20
283.7732062738473
 30
0.0
 40
2.5
  1
30
  7
STYLE3
100
AcDbText
  0
TEXT
  5
18EE
330
18
100
AcDbEntity
  8
文字
100
AcDbText
 10
305.4729844681058
 20
295.9692669532559
 30
0.0
 40
2.5
  1
20
  7
STYLE3
100
AcDbText
  0
TEXT
  5
18EF
330
18
100
AcDbEntity
  8
文字
100
AcDbText
 10
311.4868172231888
 20
304.3693367524508
 30
0.0
 40
2.5
  1
10
  7
STYLE3
100
AcDbText
  0
MTEXT
  5
18F1
330
18
100
AcDbEntity
  8
DEFPOINTS
  6
Continuous
100
AcDbMText
 10
1172.470139544913
 20
240.188441215189
 30
0.0
 40
1.0
 41
0.0
 71
     4
 72
     1
  1
\A1;
 73
     1
 44
1.0
  0
LINE
  5
18F2
102
{ACAD_REACTORS
330
192E
102
}
330
18
100
AcDbEntity
  8
ROGO
 62
     4
100
AcDbLine
 10
317.9983888592825
 20
273.9300773547599
 30
0.0
 11
319.511149957302
 21
273.9300773547599
 31
0.0
  0
LINE
  5
18F3
102
{ACAD_REACTORS
330
192E
330
193C
102
}
330
18
100
AcDbEntity
  8
ROGO
 62
     4
100
AcDbLine
 10
317.0459342058867
 20
272.0051126098908
 30
0.0
 11
330.0760297314778
 21
272.0051126098908
 31
0.0
  0
LINE
  5
18F4
102
{ACAD_REACTORS
330
192E
102
}
330
18
100
AcDbEntity
  8
ROGO
 62
     4
100
AcDbLine
 10
317.9983888592825
 20
273.9300773547599
 30
0.0
 11
317.0459342058867
 21
272.0051126098907
 31
0.0
  0
SPLINE
  5
18F5
102
{ACAD_REACTORS
330
192E
102
}
330
18
100
AcDbEntity
  8
ROGO
 62
     4
100
AcDbSpline
210
0.0
220
0.0
230
1.0
 70
     8
 71
     3
 72
    18
 73
    14
 74
     0
 42
0.0000000001
 43
0.0000000001
 40
0.1087402787915014
 40
0.1087402787915014
 40
0.1087402787915014
 40
0.1087402787915014
 40
0.5992371417938475
 40
1.083176791562496
 40
1.448211145705696
 40
1.714037220764907
 40
2.164002567013297
 40
2.740236056362883
 40
3.395137510199602
 40
4.071816045172726
 40
4.784906178399433
 40
5.506895915094292
 40
6.060470601257719
 40
6.060470601257719
 40
6.060470601257719
 40
6.060470601257719
 10
319.511149957302
 20
273.9300773547599
 30
0.0
 10
319.5596142181623
 20
273.912316015305
 30
0.0
 10
319.6549186871955
 20
273.8747658294798
 30
0.0
 10
319.7712351134232
 20
273.7890638976676
 30
0.0
 10
319.8346690698756
 20
273.6901280201743
 30
0.0
 10
319.8956854341952
 20
273.5926444275677
 30
0.0
 10
319.9042245630005
 20
273.4527877266678
 30
0.0
 10
319.8902368931261
 20
273.2759749592154
 30
0.0
 10
319.7999337600896
 20
273.0914890823592
 30
0.0
 10
319.6549919204086
 20
272.9301305152978
 30
0.0
 10
319.4750365115989
 20
272.8009812225918
 30
0.0
 10
319.2852673257748
 20
272.6996023536184
 30
0.0
 10
319.1496202584025
 20
272.6985922309802
 30
0.0
 10
319.090751587088
 20
272.6981538538097
 30
0.0
  0
LINE
  5
18F6
102
{ACAD_REACTORS
330
192E
102
}
330
18
100
AcDbEntity
  8
ROGO
 62
     4
100
AcDbLine
 10
319.090751587378
 20
272.6981538538097
 30
0.0
 11
318.2542916094857
 21
272.6981538538097
 31
0.0
  0
LINE
  5
18F7
102
{ACAD_REACTORS
330
192E
102
}
330
18
100
AcDbEntity
  8
ROGO
 62
     4
100
AcDbLine
 10
318.5961171428478
 20
273.4536890033476
 30
0.0
 11
318.4478919211668
 21
273.1260675880412
 31
0.0
  0
SPLINE
  5
18F8
102
{ACAD_REACTORS
330
192E
102
}
330
18
100
AcDbEntity
  8
ROGO
 62
     4
100
AcDbSpline
210
0.0
220
0.0
230
1.0
 70
     8
 71
     3
 72
    15
 73
    11
 74
     9
 42
0.0000000001
 43
0.0000000001
 44
0.0000000001
 40
0.0
 40
0.0
 40
0.0
 40
0.0
 40
0.1444470268156599
 40
0.2103069258834997
 40
0.2850622957513877
 40
0.3359891294319132
 40
0.4165304450834989
 40
0.4647724930146942
 40
0.5475400388213481
 40
0.5751292383652494
 40
0.5751292383652494
 40
0.5751292383652494
 40
0.5751292383652494
 10
318.9769927900286
 20
273.4536890033476
 30
0.0
 10
319.0312442921458
 20
273.4539375041859
 30
0.0
 10
319.1102314951803
 20
273.454299307738
 30
0.0
 10
319.1534245110059
 20
273.3565919091618
 30
0.0
 10
319.1340633418629
 20
273.2936835866468
 30
0.0
 10
319.109724774289
 20
273.229096346531
 30
0.0
 10
319.0667130130648
 20
273.1852083427583
 30
0.0
 10
319.0089849294429
 20
273.1429367966293
 30
0.0
 10
318.9544291317151
 20
273.1378196366874
 30
0.0
 10
318.918946709388
 20
273.1284179986705
 30
0.0
 10
318.9100760995601
 20
273.1260675880412
 30
0.0
 11
318.9769927900286
 21
273.4536890033476
 31
0.0
 11
319.117517955448
 21
273.4202581577143
 31
0.0
 11
319.1442847085923
 21
273.3600828535494
 31
0.0
 11
319.1309015244124
 21
273.2865352111311
 31
0.0
 11
319.1108265557502
 21
273.2397320272443
 31
0.0
 11
319.0572930494616
 21
273.1795567230794
 31
0.0
 11
319.0171431121373
 21
273.1528120465727
 31
0.0
 11
318.9368428527043
 21
273.1327537571678
 31
0.0
 11
318.9100760995601
 21
273.1260675880412
 31
0.0
  0
LINE
  5
18F9
102
{ACAD_REACTORS
330
192E
102
}
330
18
100
AcDbEntity
  8
ROGO
 62
     4
100
AcDbLine
 10
318.9769927900286
 20
273.4536890033476
 30
0.0
 11
318.5961171428478
 21
273.4536890033476
 31
0.0
  0
LINE
  5
18FA
102
{ACAD_REACTORS
330
192E
102
}
330
18
100
AcDbEntity
  8
ROGO
 62
     4
100
AcDbLine
 10
318.9100760995601
 20
273.1260675880412
 30
0.0
 11
318.4478919211668
 21
273.1260675880412
 31
0.0
  0
LINE
  5
18FB
102
{ACAD_REACTORS
330
192E
102
}
330
18
100
AcDbEntity
  8
ROGO
 62
     4
100
AcDbLine
 10
318.2542916094857
 20
272.6981538538097
 30
0.0
 11
317.9407400917443
 21
272.0051126098908
 31
0.0
  0
LINE
  5
18FC
102
{ACAD_REACTORS
330
192A
102
}
330
18
100
AcDbEntity
  8
ROGO
 62
     4
100
AcDbLine
 10
320.4048516786351
 20
273.9300773547599
 30
0.0
 11
319.7953073873772
 21
272.6981538538097
 31
0.0
  0
LINE
  5
18FD
102
{ACAD_REACTORS
330
192A
102
}
330
18
100
AcDbEntity
  8
ROGO
 62
     4
100
AcDbLine
 10
322.0710794645733
 20
273.9300773547599
 30
0.0
 11
321.9314510509811
 21
273.6478804306452
 31
0.0
  0
LINE
  5
18FE
102
{ACAD_REACTORS
330
192A
102
}
330
18
100
AcDbEntity
  8
ROGO
 62
     4
100
AcDbLine
 10
319.7953073873772
 20
272.6981538538097
 30
0.0
 11
321.4615351733154
 21
272.6981538538097
 31
0.0
  0
LINE
  5
18FF
102
{ACAD_REACTORS
330
192A
102
}
330
18
100
AcDbEntity
  8
ROGO
 62
     4
100
AcDbLine
 10
321.0557238313337
 20
273.6478804306452
 30
0.0
 11
320.9465517629294
 21
273.4272375033903
 31
0.0
  0
LINE
  5
1900
102
{ACAD_REACTORS
330
192A
102
}
330
18
100
AcDbEntity
  8
ROGO
 62
     4
100
AcDbLine
 10
321.0557238313337
 20
273.6478804306452
 30
0.0
 11
321.9314510509811
 21
273.6478804306452
 31
0.0
  0
LINE
  5
1901
102
{ACAD_REACTORS
330
192A
102
}
330
18
100
AcDbEntity
  8
ROGO
 62
     4
100
AcDbLine
 10
320.9465517629294
 20
273.4272375033903
 30
0.0
 11
321.8222789825768
 21
273.4272375033903
 31
0.0
  0
LINE
  5
1902
102
{ACAD_REACTORS
330
192A
102
}
330
18
100
AcDbEntity
  8
ROGO
 62
     4
100
AcDbLine
 10
320.7254293437956
 20
272.980336583105
 30
0.0
 11
321.6011565634431
 21
272.980336583105
 31
0.0
  0
LINE
  5
1903
102
{ACAD_REACTORS
330
192A
102
}
330
18
100
AcDbEntity
  8
ROGO
 62
     4
100
AcDbLine
 10
320.8346060340204
 20
273.2009888513207
 30
0.0
 11
321.7103332536679
 21
273.2009888513208
 31
0.0
  0
LINE
  5
1904
102
{ACAD_REACTORS
330
192A
102
}
330
18
100
AcDbEntity
  8
ROGO
 62
     4
100
AcDbLine
 10
321.8222789825768
 20
273.4272375033903
 30
0.0
 11
321.7103332536679
 21
273.2009888513207
 31
0.0
  0
LINE
  5
1905
102
{ACAD_REACTORS
330
192A
102
}
330
18
100
AcDbEntity
  8
ROGO
 62
     4
100
AcDbLine
 10
321.6011565634431
 20
272.980336583105
 30
0.0
 11
321.4615351733154
 21
272.6981538538097
 31
0.0
  0
LINE
  5
1906
102
{ACAD_REACTORS
330
192A
102
}
330
18
100
AcDbEntity
  8
ROGO
 62
     4
100
AcDbLine
 10
320.8346060340204
 20
273.2009888513207
 30
0.0
 11
320.7254293437956
 21
272.980336583105
 31
0.0
  0
LINE
  5
1907
102
{ACAD_REACTORS
330
1932
102
}
330
18
100
AcDbEntity
  8
ROGO
 62
     4
100
AcDbLine
 10
322.5537509212053
 20
273.9300773547599
 30
0.0
 11
321.6653869425161
 21
272.6981538538097
 31
0.0
  0
LINE
  5
1908
102
{ACAD_REACTORS
330
1932
102
}
330
18
100
AcDbEntity
  8
ROGO
 62
     4
100
AcDbLine
 10
322.9985527366392
 20
273.6007791960503
 30
0.0
 11
322.6951870740837
 21
273.1800920699978
 31
0.0
  0
LINE
  5
1909
102
{ACAD_REACTORS
330
1932
102
}
330
18
100
AcDbEntity
  8
ROGO
 62
     4
100
AcDbLine
 10
322.5167910650893
 20
272.9327044662363
 30
0.0
 11
323.2953380035047
 21
272.9327044662363
 31
0.0
  0
LINE
  5
190A
102
{ACAD_REACTORS
330
1932
102
}
330
18
100
AcDbEntity
  8
ROGO
 62
     4
100
AcDbLine
 10
322.6951870740837
 20
273.1800920699979
 30
0.0
 11
323.1854386273944
 21
273.1800920699979
 31
0.0
  0
LINE
  5
190B
102
{ACAD_REACTORS
330
1932
102
}
330
18
100
AcDbEntity
  8
ROGO
 62
     4
100
AcDbLine
 10
322.5167910650893
 20
272.9327044662363
 30
0.0
 11
322.3476520600306
 21
272.6981538538097
 31
0.0
  0
LINE
  5
190C
102
{ACAD_REACTORS
330
1932
102
}
330
18
100
AcDbEntity
  8
ROGO
 62
     4
100
AcDbLine
 10
321.6653869425161
 20
272.6981538538097
 30
0.0
 11
322.3476520600306
 21
272.6981538538097
 31
0.0
  0
LINE
  5
190D
102
{ACAD_REACTORS
330
1932
102
}
330
18
100
AcDbEntity
  8
ROGO
 62
     4
100
AcDbLine
 10
322.5537509212053
 20
273.9300773547599
 30
0.0
 11
323.539184216338
 21
273.9300773547599
 31
0.0
  0
LINE
  5
190E
102
{ACAD_REACTORS
330
1932
102
}
330
18
100
AcDbEntity
  8
ROGO
 62
     4
100
AcDbLine
 10
324.086453449361
 20
272.6981538538097
 30
0.0
 11
323.3995346794093
 21
272.6981538538097
 31
0.0
  0
LINE
  5
190F
102
{ACAD_REACTORS
330
192B
102
}
330
18
100
AcDbEntity
  8
ROGO
 62
     4
100
AcDbLine
 10
324.4238294681342
 20
272.6981538538097
 30
0.0
 11
325.4849013966144
 21
272.6981538538097
 31
0.0
  0
LINE
  5
1910
102
{ACAD_REACTORS
330
192B
102
}
330
18
100
AcDbEntity
  8
ROGO
 62
     4
100
AcDbLine
 10
326.0991782416135
 20
273.9300773547599
 30
0.0
 11
325.8706274284951
 21
273.4717219403667
 31
0.0
  0
LINE
  5
1911
102
{ACAD_REACTORS
330
192B
102
}
330
18
100
AcDbEntity
  8
ROGO
 62
     4
100
AcDbLine
 10
325.0996889268707
 20
273.4717219403667
 30
0.0
 11
325.8706274284951
 21
273.4717219403668
 31
0.0
  0
LINE
  5
1912
102
{ACAD_REACTORS
330
192B
102
}
330
18
100
AcDbEntity
  8
ROGO
 62
     4
100
AcDbLine
 10
324.9257052238249
 20
273.1565044143444
 30
0.0
 11
325.713449789442
 21
273.1565044143444
 31
0.0
  0
SPLINE
  5
1913
102
{ACAD_REACTORS
330
192B
102
}
330
18
100
AcDbEntity
  8
ROGO
 62
     4
100
AcDbSpline
210
0.0
220
0.0
230
1.0
 70
     8
 71
     3
 72
    26
 73
    22
 74
    20
 42
0.0000000001
 43
0.0000000001
 44
0.0000000001
 40
0.0
 40
0.0
 40
0.0
 40
0.0
 40
0.2234850368020611
 40
0.3730909640173049
 40
0.4809690209812992
 40
0.5615180755186499
 40
0.6659944268058665
 40
0.7422519781245713
 40
0.8799553417461909
 40
0.9920439000268267
 40
1.068282079911162
 40
1.143037518666553
 40
1.276760465249744
 40
1.371318548977523
 40
1.422245382657944
 40
1.49458544554505
 40
1.546823828113403
 40
1.622499997844155
 40
1.665326164070649
 40
1.758520705595898
 40
1.801074142830069
 40
1.801074142830069
 40
1.801074142830069
 40
1.801074142830069
 10
324.8654803178387
 20
273.9300773547599
 30
0.0
 10
324.7896260433133
 20
273.9255517586653
 30
0.0
 10
324.6629932055518
 20
273.9179966264119
 30
0.0
 10
324.523951120033
 20
273.8335300526606
 30
0.0
 10
324.422080748212
 20
273.7844248985564
 30
0.0
 10
324.3494269225732
 20
273.7176706250358
 30
0.0
 10
324.296171373863
 20
273.6487183367962
 30
0.0
 10
324.2290327570409
 20
273.5665621909297
 30
0.0
 10
324.1742831335101
 20
273.4708946836073
 30
0.0
 10
324.1464024786899
 20
273.3654524125197
 30
0.0
 10
324.121706059266
 20
273.2814143106676
 30
0.0
 10
324.1033907811807
 20
273.1877648133492
 30
0.0
 10
324.1080507064244
 20
273.0865904120752
 30
0.0
 10
324.114723932641
 20
272.9926248077626
 30
0.0
 10
324.144518264985
 20
272.9255474348639
 30
0.0
 10
324.1784487320389
 20
272.8777929676069
 30
0.0
 10
324.2199961242714
 20
272.8251967162119
 30
0.0
 10
324.265458057042
 20
272.7903623892262
 30
0.0
 10
324.3030587863048
 20
272.7272576650816
 30
0.0
 10
324.3688775944423
 20
272.7192050471662
 30
0.0
 10
324.4107146473965
 20
272.7031779341302
 30
0.0
 10
324.4238294681342
 20
272.6981538538097
 30
0.0
 11
324.8654803178387
 21
273.9300773547599
 31
0.0
 11
324.6446548929865
 21
273.8957015869395
 31
0.0
 11
324.5108211272649
 21
273.8288401136479
 31
0.0
 11
324.4171376836519
 21
273.7753509786096
 31
0.0
 11
324.3569127776655
 21
273.7218616255963
 31
0.0
 11
324.289996087197
 21
273.6416278140513
 31
0.0
 11
324.2431543653907
 21
273.5814525098864
 31
0.0
 11
324.1762372901377
 21
273.4611016835814
 31
0.0
 11
324.1427791372955
 21
273.3541231955298
 31
0.0
 11
324.1227041686333
 21
273.2805755531115
 31
0.0
 11
324.1093205996691
 21
273.2070279106932
 31
0.0
 11
324.1093205996691
 21
273.07330496411
 31
0.0
 11
324.1227041686333
 21
272.9796988143117
 31
0.0
 11
324.1427791372955
 21
272.9328956304251
 31
0.0
 11
324.1829290746198
 21
272.87272032626
 31
0.0
 11
324.2163876122463
 21
272.8326033115
 31
0.0
 11
324.2699207337504
 21
272.7791141764618
 31
0.0
 11
324.2966874868949
 21
272.7456833308284
 31
0.0
 11
324.3836795308098
 21
272.7122527031702
 31
0.0
 11
324.4238294681342
 21
272.6981538538097
 31
0.0
  0
SPLINE
  5
1914
102
{ACAD_REACTORS
330
192B
102
}
330
18
100
AcDbEntity
  8
ROGO
 62
     4
100
AcDbSpline
210
0.0
220
0.0
230
1.0
 70
     8
 71
     3
 72
    16
 73
    12
 74
    10
 42
0.0000000001
 43
0.0000000001
 44
0.0000000001
 40
0.0
 40
0.0
 40
0.0
 40
0.0
 40
0.1178225909324045
 40
0.1753704298790176
 40
0.2037490853281923
 40
0.2336555668943688
 40
0.2764815629657672
 40
0.315476765318778
 40
0.3561478528852858
 40
0.4243358699943621
 40
0.4918277573139375
 40
0.4918277573139375
 40
0.4918277573139375
 40
0.4918277573139375
 10
325.0996889268707
 20
273.4717219403667
 30
0.0
 10
325.0597888541433
 20
273.4656389050995
 30
0.0
 10
325.0004004732647
 20
273.4565847457797
 30
0.0
 10
324.9466955205004
 20
273.4140724960407
 30
0.0
 10
324.9164096559586
 20
273.3887805372118
 30
0.0
 10
324.9061062699142
 20
273.355286804235
 30
0.0
 10
324.8784346105733
 20
273.3295687588223
 30
0.0
 10
324.8556252922576
 20
273.2942238860313
 30
0.0
 10
324.8501789440837
 20
273.2456771307524
 30
0.0
 10
324.8541766883384
 20
273.1775491582811
 30
0.0
 10
324.9019440716708
 20
273.1634952937092
 30
0.0
 10
324.9257052238251
 20
273.1565044143443
 30
0.0
 11
325.0996889268707
 21
273.4717219403667
 31
0.0
 11
324.9859305145958
 21
273.4410431762015
 31
0.0
 11
324.9390887927893
 21
273.4076125485432
 31
0.0
 11
324.9190138241271
 21
273.3875540411631
 31
0.0
 11
324.905630255163
 21
273.3608093646564
 31
0.0
 11
324.8788635020186
 21
273.3273787369983
 31
0.0
 11
324.8587885333564
 21
273.2939478913648
 31
0.0
 11
324.8520967488742
 21
273.2538310945799
 31
0.0
 11
324.8654803178386
 21
273.1869694033132
 31
0.0
 11
324.9257052238251
 21
273.1565044143443
 31
0.0
  0
LINE
  5
1915
102
{ACAD_REACTORS
330
192B
102
}
330
18
100
AcDbEntity
  8
ROGO
 62
     4
100
AcDbLine
 10
325.713449789442
 20
273.1565044143444
 30
0.0
 11
325.4849013966144
 21
272.6981538538097
 31
0.0
  0
LINE
  5
1916
102
{ACAD_REACTORS
330
192B
102
}
330
18
100
AcDbEntity
  8
ROGO
 62
     4
100
AcDbLine
 10
324.8654803178389
 20
273.9300773547599
 30
0.0
 11
326.0991782416135
 21
273.9300773547599
 31
0.0
  0
LINE
  5
1917
102
{ACAD_REACTORS
330
192C
102
}
330
18
100
AcDbEntity
  8
ROGO
 62
     4
100
AcDbLine
 10
328.3931965681944
 20
272.6981538538097
 30
0.0
 11
329.4542684966747
 21
272.6981538538097
 31
0.0
  0
LINE
  5
1918
102
{ACAD_REACTORS
330
192C
102
}
330
18
100
AcDbEntity
  8
ROGO
 62
     4
100
AcDbLine
 10
328.8348474178993
 20
273.9300773547599
 30
0.0
 11
330.0685453416738
 21
273.9300773547599
 31
0.0
  0
SPLINE
  5
1919
102
{ACAD_REACTORS
330
192C
102
}
330
18
100
AcDbEntity
  8
ROGO
 62
     4
100
AcDbSpline
210
0.0
220
0.0
230
1.0
 70
     8
 71
     3
 72
    16
 73
    12
 74
    10
 42
0.0000000001
 43
0.0000000001
 44
0.0000000001
 40
0.0
 40
0.0
 40
0.0
 40
0.0
 40
0.1178225909325142
 40
0.1753704298789753
 40
0.2037490853281099
 40
0.2336555668943627
 40
0.2764815629657256
 40
0.3154767653188144
 40
0.3561478528852567
 40
0.4243358699944445
 40
0.4918277573139686
 40
0.4918277573139686
 40
0.4918277573139686
 40
0.4918277573139686
 10
329.0690560269311
 20
273.4717219403667
 30
0.0
 10
329.0291559542036
 20
273.4656389050996
 30
0.0
 10
328.9697675733248
 20
273.4565847457798
 30
0.0
 10
328.9160626205609
 20
273.4140724960404
 30
0.0
 10
328.8857767560191
 20
273.3887805372118
 30
0.0
 10
328.8754733699744
 20
273.355286804235
 30
0.0
 10
328.8478017106337
 20
273.3295687588222
 30
0.0
 10
328.824992392318
 20
273.2942238860313
 30
0.0
 10
328.8195460441441
 20
273.2456771307524
 30
0.0
 10
328.8235437883987
 20
273.177549158281
 30
0.0
 10
328.8713111717311
 20
273.1634952937092
 30
0.0
 10
328.8950723238854
 20
273.1565044143443
 30
0.0
 11
329.0690560269311
 21
273.4717219403667
 31
0.0
 11
328.955297614656
 21
273.4410431762015
 31
0.0
 11
328.9084558928498
 21
273.4076125485431
 31
0.0
 11
328.8883809241876
 21
273.3875540411631
 31
0.0
 11
328.8749973552233
 21
273.3608093646564
 31
0.0
 11
328.848230602079
 21
273.3273787369983
 31
0.0
 11
328.8281556334167
 21
273.2939478913648
 31
0.0
 11
328.8214638489345
 21
273.2538310945799
 31
0.0
 11
328.8348474178989
 21
273.1869694033131
 31
0.0
 11
328.8950723238854
 21
273.1565044143443
 31
0.0
  0
SPLINE
  5
191A
102
{ACAD_REACTORS
330
192C
102
}
330
18
100
AcDbEntity
  8
ROGO
 62
     4
100
AcDbSpline
210
0.0
220
0.0
230
1.0
 70
     8
 71
     3
 72
    26
 73
    22
 74
    20
 42
0.0000000001
 43
0.0000000001
 44
0.0000000001
 40
0.0
 40
0.0
 40
0.0
 40
0.0
 40
0.2234850368019487
 40
0.3730909640170909
 40
0.4809690209811345
 40
0.5615180755184426
 40
0.6659944268057684
 40
0.7422519781244385
 40
0.8799553417461849
 40
0.9920439000266952
 40
1.068282079911015
 40
1.143037518666407
 40
1.276760465249598
 40
1.371318548977377
 40
1.42224538265788
 40
1.494585445544954
 40
1.546823828113199
 40
1.62249999784403
 40
1.665326164070453
 40
1.75852070559585
 40
1.801074142829983
 40
1.801074142829983
 40
1.801074142829983
 40
1.801074142829983
 10
328.8348474178989
 20
273.9300773547599
 30
0.0
 10
328.7589931433736
 20
273.9255517586653
 30
0.0
 10
328.6323603056121
 20
273.917996626412
 30
0.0
 10
328.4933182200933
 20
273.8335300526606
 30
0.0
 10
328.3914478482724
 20
273.7844248985565
 30
0.0
 10
328.3187940226336
 20
273.7176706250357
 30
0.0
 10
328.2655384739233
 20
273.6487183367962
 30
0.0
 10
328.1983998571011
 20
273.5665621909297
 30
0.0
 10
328.1436502335702
 20
273.4708946836071
 30
0.0
 10
328.1157695787503
 20
273.3654524125197
 30
0.0
 10
328.0910731593263
 20
273.2814143106675
 30
0.0
 10
328.0727578812411
 20
273.1877648133492
 30
0.0
 10
328.0774178064846
 20
273.0865904120751
 30
0.0
 10
328.0840910327015
 20
272.9926248077626
 30
0.0
 10
328.1138853650452
 20
272.9255474348637
 30
0.0
 10
328.1478158320996
 20
272.8777929676071
 30
0.0
 10
328.1893632243315
 20
272.8251967162118
 30
0.0
 10
328.2348251571024
 20
272.7903623892262
 30
0.0
 10
328.2724258863649
 20
272.7272576650815
 30
0.0
 10
328.3382446945028
 20
272.7192050471661
 30
0.0
 10
328.3800817474567
 20
272.7031779341301
 30
0.0
 10
328.3931965681945
 20
272.6981538538097
 30
0.0
 11
328.8348474178989
 21
273.9300773547599
 31
0.0
 11
328.6140219930468
 21
273.8957015869395
 31
0.0
 11
328.4801882273253
 21
273.8288401136479
 31
0.0
 11
328.3865047837123
 21
273.7753509786096
 31
0.0
 11
328.326279877726
 21
273.7218616255963
 31
0.0
 11
328.2593631872573
 21
273.6416278140513
 31
0.0
 11
328.2125214654509
 21
273.5814525098864
 31
0.0
 11
328.1456043901979
 21
273.4611016835813
 31
0.0
 11
328.1121462373558
 21
273.3541231955298
 31
0.0
 11
328.0920712686937
 21
273.2805755531115
 31
0.0
 11
328.0786876997295
 21
273.2070279106932
 31
0.0
 11
328.0786876997295
 21
273.07330496411
 31
0.0
 11
328.0920712686937
 21
272.9796988143117
 31
0.0
 11
328.1121462373558
 21
272.932895630425
 31
0.0
 11
328.1522961746802
 21
272.87272032626
 31
0.0
 11
328.1857547123065
 21
272.8326033115
 31
0.0
 11
328.2392878338108
 21
272.7791141764618
 31
0.0
 11
328.2660545869552
 21
272.7456833308284
 31
0.0
 11
328.3530466308702
 21
272.7122527031701
 31
0.0
 11
328.3931965681945
 21
272.6981538538097
 31
0.0
  0
LINE
  5
191B
102
{ACAD_REACTORS
330
192C
102
}
330
18
100
AcDbEntity
  8
ROGO
 62
     4
100
AcDbLine
 10
329.6828168895024
 20
273.1565044143443
 30
0.0
 11
329.4542684966747
 21
272.6981538538097
 31
0.0
  0
LINE
  5
191C
102
{ACAD_REACTORS
330
192C
102
}
330
18
100
AcDbEntity
  8
ROGO
 62
     4
100
AcDbLine
 10
328.8950723238853
 20
273.1565044143443
 30
0.0
 11
329.6828168895024
 21
273.1565044143443
 31
0.0
  0
LINE
  5
191D
102
{ACAD_REACTORS
330
192C
102
}
330
18
100
AcDbEntity
  8
ROGO
 62
     4
100
AcDbLine
 10
329.0690560269311
 20
273.4717219403667
 30
0.0
 11
329.8399945285556
 21
273.4717219403667
 31
0.0
  0
LINE
  5
191E
102
{ACAD_REACTORS
330
192C
102
}
330
18
100
AcDbEntity
  8
ROGO
 62
     4
100
AcDbLine
 10
330.0685453416738
 20
273.9300773547599
 30
0.0
 11
329.8399945285556
 21
273.4717219403667
 31
0.0
  0
LINE
  5
191F
102
{ACAD_REACTORS
330
193C
102
}
330
18
100
AcDbEntity
  8
ROGO
 62
     4
100
AcDbLine
 10
330.3265613274801
 20
273.9300773547599
 30
0.0
 11
331.0358793238432
 21
273.9300773547599
 31
0.0
  0
LINE
  5
1920
102
{ACAD_REACTORS
330
193C
102
}
330
18
100
AcDbEntity
  8
ROGO
 62
     4
100
AcDbLine
 10
330.3265613274801
 20
273.9300773547599
 30
0.0
 11
329.3667117351146
 21
272.0051126098908
 31
0.0
  0
LINE
  5
1921
102
{ACAD_REACTORS
330
193C
102
}
330
18
100
AcDbEntity
  8
ROGO
 62
     4
100
AcDbLine
 10
331.0358793238432
 20
273.9300773547599
 30
0.0
 11
330.8628249402275
 21
273.5830192426817
 31
0.0
  0
LINE
  5
1922
102
{ACAD_REACTORS
330
193C
102
}
330
18
100
AcDbEntity
  8
ROGO
 62
     4
100
AcDbLine
 10
330.3265613274801
 20
272.5075501726262
 30
0.0
 11
330.5770929234828
 21
272.0051126098908
 31
0.0
  0
LINE
  5
1923
102
{ACAD_REACTORS
330
193C
102
}
330
18
100
AcDbEntity
  8
ROGO
 62
     4
100
AcDbLine
 10
330.8064706043557
 20
272.9675949823254
 30
0.0
 11
331.2863954005385
 21
272.0051126098908
 31
0.0
  0
LINE
  5
1924
102
{ACAD_REACTORS
330
193C
102
}
330
18
100
AcDbEntity
  8
ROGO
 62
     4
100
AcDbLine
 10
330.3265613274801
 20
272.5075501726262
 30
0.0
 11
330.0760297314777
 21
272.0051126098908
 31
0.0
  0
LINE
  5
1925
102
{ACAD_REACTORS
330
193C
102
}
330
18
100
AcDbEntity
  8
ROGO
 62
     4
100
AcDbLine
 10
330.8064706043557
 20
272.9675949823254
 30
0.0
 11
331.972502210829
 21
273.9300773547599
 31
0.0
  0
LINE
  5
1926
102
{ACAD_REACTORS
330
193C
102
}
330
18
100
AcDbEntity
  8
ROGO
 62
     4
100
AcDbLine
 10
331.2631997337732
 20
273.9300773547599
 30
0.0
 11
331.972502210829
 21
273.9300773547599
 31
0.0
  0
LINE
  5
1927
102
{ACAD_REACTORS
330
193C
102
}
330
18
100
AcDbEntity
  8
ROGO
 62
     4
100
AcDbLine
 10
330.5770929234828
 20
272.0051126098908
 30
0.0
 11
331.2863954005385
 21
272.0051126098908
 31
0.0
  0
LINE
  5
1928
102
{ACAD_REACTORS
330
192A
102
}
330
18
100
AcDbEntity
  8
ROGO
 62
     4
100
AcDbLine
 10
320.4048516786351
 20
273.9300773547599
 30
0.0
 11
322.0710794645733
 21
273.9300773547599
 31
0.0
  0
LINE
  5
1929
330
18
100
AcDbEntity
  8
ROGO
 62
     4
100
AcDbLine
 10
318.0146544629642
 20
272.1980615789493
 30
0.0
 11
329.4629223227587
 21
272.1980615789493
 31
0.0
  0
HATCH
  5
192A
330
18
100
AcDbEntity
  8
ROGO
 62
     4
100
AcDbHatch
 10
0.0
 20
0.0
 30
0.0
210
0.0
220
0.0
230
1.0
  2
SOLID
 70
     1
 71
     1
 91
        1
 92
        1
 93
       12
 72
     1
 10
320.4048516786351
 20
273.9300773547599
 11
322.0710794645733
 21
273.9300773547599
 72
     1
 10
322.0710794645733
 20
273.9300773547599
 11
321.9314510509811
 21
273.6478804306452
 72
     1
 10
321.9314510509811
 20
273.6478804306452
 11
321.0557238313337
 21
273.6478804306452
 72
     1
 10
321.0557238313337
 20
273.6478804306452
 11
320.9465517629294
 21
273.4272375033903
 72
     1
 10
320.9465517629294
 20
273.4272375033903
 11
321.8222789825768
 21
273.4272375033903
 72
     1
 10
321.8222789825768
 20
273.4272375033903
 11
321.7103332536679
 21
273.2009888513207
 72
     1
 10
321.7103332536679
 20
273.2009888513208
 11
320.8346060340204
 21
273.2009888513207
 72
     1
 10
320.8346060340204
 20
273.2009888513207
 11
320.7254293437956
 21
272.980336583105
 72
     1
 10
320.7254293437956
 20
272.980336583105
 11
321.6011565634431
 21
272.980336583105
 72
     1
 10
321.6011565634431
 20
272.980336583105
 11
321.4615351733154
 21
272.6981538538097
 72
     1
 10
321.4615351733154
 20
272.6981538538097
 11
319.7953073873772
 21
272.6981538538097
 72
     1
 10
319.7953073873772
 20
272.6981538538097
 11
320.4048516786351
 21
273.9300773547599
 97
       12
330
1928
330
18FD
330
1900
330
18FF
330
1901
330
1904
330
1903
330
1906
330
1902
330
1905
330
18FE
330
18FC
 75
     0
 76
     1
 98
        1
 10
252.2483221492273
 20
188.7480797242987
450
        0
451
        0
460
0.0
461
0.0
452
        0
462
0.0
453
        0
470

  0
HATCH
  5
192B
330
18
100
AcDbEntity
  8
ROGO
 62
     4
100
AcDbHatch
 10
0.0
 20
0.0
 30
0.0
210
0.0
220
0.0
230
1.0
  2
SOLID
 70
     1
 71
     1
 91
        1
 92
        5
 93
        8
 72
     1
 10
325.8706274284951
 20
273.4717219403667
 11
326.0991782416135
 21
273.9300773547599
 72
     1
 10
326.0991782416135
 20
273.9300773547599
 11
324.8654803178389
 21
273.93007735476
 72
     4
 94
        3
 73
     0
 74
     0
 95
       26
 96
       22
 40
0.0
 40
0.0
 40
0.0
 40
0.0
 40
0.2234850368020611
 40
0.3730909640173049
 40
0.4809690209812992
 40
0.5615180755186499
 40
0.6659944268058665
 40
0.7422519781245713
 40
0.8799553417461909
 40
0.9920439000268267
 40
1.068282079911162
 40
1.143037518666553
 40
1.276760465249744
 40
1.371318548977523
 40
1.422245382657944
 40
1.49458544554505
 40
1.546823828113403
 40
1.622499997844155
 40
1.665326164070649
 40
1.758520705595898
 40
1.801074142830069
 40
1.801074142830069
 40
1.801074142830069
 40
1.801074142830069
 10
324.8654803178387
 20
273.9300773547599
 10
324.7896260433133
 20
273.9255517586653
 10
324.6629932055518
 20
273.9179966264119
 10
324.523951120033
 20
273.8335300526606
 10
324.422080748212
 20
273.7844248985564
 10
324.3494269225732
 20
273.7176706250358
 10
324.296171373863
 20
273.6487183367962
 10
324.2290327570409
 20
273.5665621909297
 10
324.1742831335101
 20
273.4708946836073
 10
324.1464024786899
 20
273.3654524125197
 10
324.121706059266
 20
273.2814143106676
 10
324.1033907811807
 20
273.1877648133492
 10
324.1080507064244
 20
273.0865904120752
 10
324.114723932641
 20
272.9926248077626
 10
324.144518264985
 20
272.9255474348639
 10
324.1784487320389
 20
272.8777929676069
 10
324.2199961242714
 20
272.8251967162119
 10
324.265458057042
 20
272.7903623892262
 10
324.3030587863048
 20
272.7272576650816
 10
324.3688775944423
 20
272.7192050471662
 10
324.4107146473965
 20
272.7031779341302
 10
324.4238294681342
 20
272.6981538538097
 72
     1
 10
324.4238294681341
 20
272.6981538538097
 11
325.4849013966144
 21
272.6981538538097
 72
     1
 10
325.4849013966144
 20
272.6981538538097
 11
325.713449789442
 21
273.1565044143444
 72
     1
 10
325.713449789442
 20
273.1565044143444
 11
324.925705223825
 21
273.1565044143444
 72
     4
 94
        3
 73
     0
 74
     0
 95
       16
 96
       12
 40
0.0
 40
0.0
 40
0.0
 40
0.0
 40
0.0674918873195754
 40
0.1356799044286516
 40
0.1763509919951594
 40
0.2153461943481703
 40
0.2581721904195687
 40
0.2880786719857451
 40
0.3164573274349199
 40
0.374005166381533
 40
0.4918277573139375
 40
0.4918277573139375
 40
0.4918277573139375
 40
0.4918277573139375
 10
324.9257052238251
 20
273.1565044143443
 10
324.9019440716708
 20
273.1634952937092
 10
324.8541766883384
 20
273.1775491582811
 10
324.8501789440837
 20
273.2456771307524
 10
324.8556252922576
 20
273.2942238860313
 10
324.8784346105733
 20
273.3295687588223
 10
324.9061062699142
 20
273.355286804235
 10
324.9164096559586
 20
273.3887805372118
 10
324.9466955205004
 20
273.4140724960407
 10
325.0004004732647
 20
273.4565847457797
 10
325.0597888541433
 20
273.4656389050995
 10
325.0996889268707
 20
273.4717219403667
 72
     1
 10
325.0996889268707
 20
273.4717219403667
 11
325.8706274284951
 21
273.4717219403667
 97
        8
330
1916
330
1913
330
190F
330
1915
330
1912
330
1914
330
1911
330
1910
 75
     0
 76
     1
 47
0.0514683685270805
 98
        1
 10
325.2969501586525
 20
273.6558367408522
450
        0
451
        0
460
0.0
461
0.0
452
        0
462
0.0
453
        0
470

  0
HATCH
  5
192C
330
18
100
AcDbEntity
  8
ROGO
 62
     4
100
AcDbHatch
 10
0.0
 20
0.0
 30
0.0
210
0.0
220
0.0
230
1.0
  2
SOLID
 70
     1
 71
     1
 91
        1
 92
        5
 93
        8
 72
     4
 94
        3
 73
     0
 74
     0
 95
       26
 96
       22
 40
0.0
 40
0.0
 40
0.0
 40
0.0
 40
0.2234850368019487
 40
0.3730909640170909
 40
0.4809690209811345
 40
0.5615180755184426
 40
0.6659944268057684
 40
0.7422519781244385
 40
0.8799553417461849
 40
0.9920439000266952
 40
1.068282079911015
 40
1.143037518666407
 40
1.276760465249598
 40
1.371318548977377
 40
1.42224538265788
 40
1.494585445544954
 40
1.546823828113199
 40
1.62249999784403
 40
1.665326164070453
 40
1.75852070559585
 40
1.801074142829983
 40
1.801074142829983
 40
1.801074142829983
 40
1.801074142829983
 10
328.8348474178989
 20
273.9300773547599
 10
328.7589931433736
 20
273.9255517586653
 10
328.6323603056121
 20
273.917996626412
 10
328.4933182200933
 20
273.8335300526606
 10
328.3914478482724
 20
273.7844248985565
 10
328.3187940226336
 20
273.7176706250357
 10
328.2655384739233
 20
273.6487183367962
 10
328.1983998571011
 20
273.5665621909297
 10
328.1436502335702
 20
273.4708946836071
 10
328.1157695787503
 20
273.3654524125197
 10
328.0910731593263
 20
273.2814143106675
 10
328.0727578812411
 20
273.1877648133492
 10
328.0774178064846
 20
273.0865904120751
 10
328.0840910327015
 20
272.9926248077626
 10
328.1138853650452
 20
272.9255474348637
 10
328.1478158320996
 20
272.8777929676071
 10
328.1893632243315
 20
272.8251967162118
 10
328.2348251571024
 20
272.7903623892262
 10
328.2724258863649
 20
272.7272576650815
 10
328.3382446945028
 20
272.7192050471661
 10
328.3800817474567
 20
272.7031779341301
 10
328.3931965681945
 20
272.6981538538097
 72
     1
 10
328.3931965681945
 20
272.6981538538097
 11
329.4542684966746
 21
272.6981538538097
 72
     1
 10
329.4542684966746
 20
272.6981538538097
 11
329.6828168895024
 21
273.1565044143443
 72
     1
 10
329.6828168895024
 20
273.1565044143443
 11
328.8950723238853
 21
273.1565044143443
 72
     4
 94
        3
 73
     0
 74
     0
 95
       16
 96
       12
 40
0.0
 40
0.0
 40
0.0
 40
0.0
 40
0.0674918873195241
 40
0.1356799044287118
 40
0.1763509919951541
 40
0.215346194348243
 40
0.2581721904196059
 40
0.2880786719858587
 40
0.3164573274349932
 40
0.3740051663814543
 40
0.4918277573139686
 40
0.4918277573139686
 40
0.4918277573139686
 40
0.4918277573139686
 10
328.8950723238854
 20
273.1565044143443
 10
328.8713111717311
 20
273.1634952937092
 10
328.8235437883987
 20
273.177549158281
 10
328.8195460441441
 20
273.2456771307524
 10
328.824992392318
 20
273.2942238860313
 10
328.8478017106337
 20
273.3295687588222
 10
328.8754733699744
 20
273.355286804235
 10
328.8857767560191
 20
273.3887805372118
 10
328.9160626205609
 20
273.4140724960404
 10
328.9697675733248
 20
273.4565847457798
 10
329.0291559542036
 20
273.4656389050996
 10
329.0690560269311
 20
273.4717219403667
 72
     1
 10
329.0690560269311
 20
273.4717219403667
 11
329.8399945285555
 21
273.4717219403667
 72
     1
 10
329.8399945285555
 20
273.4717219403667
 11
330.0685453416738
 21
273.9300773547599
 72
     1
 10
330.0685453416738
 20
273.9300773547599
 11
328.8348474178987
 21
273.9300773547599
 97
        8
330
1918
330
191A
330
1917
330
191B
330
191C
330
1919
330
191D
330
191E
 75
     0
 76
     1
 47
0.0514683685270805
 98
        1
 10
329.0477294143175
 20
273.7045079715999
450
        0
451
        0
460
0.0
461
0.0
452
        0
462
0.0
453
        0
470

  0
HATCH
  5
192D
330
18
100
AcDbEntity
  8
ROGO
 62
     4
100
AcDbHatch
 10
0.0
 20
0.0
 30
0.0
210
0.0
220
0.0
230
1.0
  2
SOLID
 70
     1
 71
     0
 91
        1
 92
        7
 72
     0
 73
     1
 93
        4
 10
318.0280356785882
 20
272.1980615789493
 10
317.9407400917443
 20
272.0051126098908
 10
329.3667117351146
 20
272.0051126098908
 10
329.4629223227587
 20
272.1980615789493
 97
        0
 75
     0
 76
     1
 47
0.0514683685270805
 98
        1
 10
325.2482387697311
 20
272.1470296775474
450
        0
451
        0
460
0.0
461
0.0
452
        0
462
0.0
453
        0
470

  0
HATCH
  5
192E
330
18
100
AcDbEntity
  8
ROGO
 62
     4
100
AcDbHatch
 10
0.0
 20
0.0
 30
0.0
210
0.0
220
0.0
230
1.0
  2
SOLID
 70
     1
 71
     1
 91
        2
 92
        5
 93
        6
 72
     1
 10
317.0459342058867
 20
272.0051126098908
 11
317.9407400917443
 21
272.0051126098908
 72
     1
 10
317.9407400917443
 20
272.0051126098908
 11
318.2542916094857
 21
272.6981538538097
 72
     1
 10
318.2542916094857
 20
272.6981538538097
 11
319.0907515870881
 21
272.6981538538097
 72
     4
 94
        3
 73
     0
 74
     0
 95
       18
 96
       14
 40
0.108740278791501
 40
0.108740278791501
 40
0.108740278791501
 40
0.108740278791501
 40
0.6623149649549278
 40
1.384304701649787
 40
2.097394834876493
 40
2.774073369849618
 40
3.428974823686337
 40
4.005208313035923
 40
4.455173659284313
 40
4.720999734343524
 40
5.086034088486724
 40
5.569973738255373
 40
6.060470601257719
 40
6.060470601257719
 40
6.060470601257719
 40
6.060470601257719
 10
319.090751587088
 20
272.6981538538097
 10
319.1496202584025
 20
272.6985922309802
 10
319.2852673257748
 20
272.6996023536184
 10
319.4750365115989
 20
272.8009812225918
 10
319.6549919204086
 20
272.9301305152978
 10
319.7999337600896
 20
273.0914890823592
 10
319.8902368931261
 20
273.2759749592154
 10
319.9042245630005
 20
273.4527877266678
 10
319.8956854341952
 20
273.5926444275677
 10
319.8346690698756
 20
273.6901280201743
 10
319.7712351134232
 20
273.7890638976676
 10
319.6549186871955
 20
273.8747658294798
 10
319.5596142181623
 20
273.912316015305
 10
319.511149957302
 20
273.9300773547599
 72
     1
 10
319.511149957302
 20
273.9300773547598
 11
317.9983888592825
 21
273.9300773547599
 72
     1
 10
317.9983888592825
 20
273.9300773547599
 11
317.0459342058867
 21
272.0051126098908
 97
        6
330
18F5
330
18F2
330
18F4
330
18F3
330
18FB
330
18F6
 92
       20
 93
        4
 72
     1
 10
318.4478919211669
 20
273.1260675880411
 11
318.5961171428478
 21
273.4536890033477
 72
     1
 10
318.5961171428478
 20
273.4536890033477
 11
318.9769927900286
 21
273.4536890033476
 72
     4
 94
        3
 73
     0
 74
     0
 95
       15
 96
       11
 40
0.0
 40
0.0
 40
0.0
 40
0.0
 40
0.1444470268156599
 40
0.2103069258834997
 40
0.2850622957513877
 40
0.3359891294319132
 40
0.4165304450834989
 40
0.4647724930146942
 40
0.5475400388213481
 40
0.5751292383652494
 40
0.5751292383652494
 40
0.5751292383652494
 40
0.5751292383652494
 10
318.9769927900286
 20
273.4536890033476
 10
319.0312442921458
 20
273.4539375041859
 10
319.1102314951803
 20
273.454299307738
 10
319.1534245110059
 20
273.3565919091618
 10
319.1340633418629
 20
273.2936835866468
 10
319.109724774289
 20
273.229096346531
 10
319.0667130130648
 20
273.1852083427583
 10
319.0089849294429
 20
273.1429367966293
 10
318.9544291317151
 20
273.1378196366874
 10
318.918946709388
 20
273.1284179986705
 10
318.9100760995601
 20
273.1260675880412
 72
     1
 10
318.9100760995601
 20
273.1260675880412
 11
318.4478919211669
 21
273.1260675880411
 97
        4
330
18F7
330
18F9
330
18F8
330
18FA
 75
     0
 76
     1
 47
0.0514683685270805
 98
        2
 10
318.0064743326493
 20
273.3313622324924
 10
318.0064743326493
 20
273.3313622324924
450
        0
451
        0
460
0.0
461
0.0
452
        0
462
0.0
453
        0
470

  0
LINE
  5
192F
102
{ACAD_REACTORS
330
1932
102
}
330
18
100
AcDbEntity
  8
ROGO
 62
     4
100
AcDbLine
 10
323.539184216338
 20
273.9300773547599
 30
0.0
 11
324.086453449361
 21
272.6981538538097
 31
0.0
  0
LINE
  5
1930
102
{ACAD_REACTORS
330
1932
102
}
330
18
100
AcDbEntity
  8
ROGO
 62
     4
100
AcDbLine
 10
322.9985527366392
 20
273.6007791960504
 30
0.0
 11
323.1854386273944
 21
273.1800920699978
 31
0.0
  0
LINE
  5
1931
102
{ACAD_REACTORS
330
1932
102
}
330
18
100
AcDbEntity
  8
ROGO
 62
     4
100
AcDbLine
 10
323.2953380035047
 20
272.9327044662363
 30
0.0
 11
323.3995346794093
 21
272.6981538538097
 31
0.0
  0
HATCH
  5
1932
330
18
100
AcDbEntity
  8
ROGO
 62
     4
100
AcDbHatch
 10
0.0
 20
0.0
 30
0.0
210
0.0
220
0.0
230
1.0
  2
SOLID
 70
     1
 71
     1
 91
        2
 92
        7
 72
     0
 73
     1
 93
        8
 10
323.539184216338
 20
273.9300773547599
 10
322.5537509212053
 20
273.9300773547599
 10
321.665386942516
 20
272.6981538538097
 10
322.3476520600306
 20
272.6981538538097
 10
322.5167910650893
 20
272.9327044662363
 10
323.2953380035048
 20
272.9327044662363
 10
323.3995346794093
 20
272.6981538538097
 10
324.0864534493611
 20
272.6981538538097
 97
        8
330
190D
330
1907
330
190C
330
190B
330
1909
330
1931
330
190E
330
192F
 92
       22
 72
     0
 73
     1
 93
        3
 10
323.1854386273943
 20
273.1800920699979
 10
322.6951870740837
 20
273.1800920699979
 10
322.9985527366393
 20
273.6007791960504
 97
        3
330
190A
330
1908
330
1930
 75
     0
 76
     1
 47
0.0128389261915577
 98
        2
 10
323.4620170028983
 20
273.6345215999684
 10
323.4620170028983
 20
273.6345215999684
450
        0
451
        0
460
0.0
461
0.0
452
        0
462
0.0
453
        0
470

  0
SPLINE
  5
1933
102
{ACAD_REACTORS
330
193A
102
}
330
18
100
AcDbEntity
  8
ROGO
 62
     4
100
AcDbSpline
210
0.0
220
0.0
230
1.0
 70
     8
 71
     3
 72
    38
 73
    34
 74
    32
 42
0.0000000001
 43
0.0000000001
 44
0.0000000001
 40
0.0
 40
0.0
 40
0.0
 40
0.0
 40
0.1695870429095464
 40
0.2228468679889985
 40
0.2912821220253952
 40
0.348311612018577
 40
0.3964299014800401
 40
0.4603419710655682
 40
0.4929985196839283
 40
0.5297783653748024
 40
0.583984936721121
 40
0.6453892195888884
 40
0.6852215765239728
 40
0.7284928789664047
 40
0.7765938613609417
 40
0.849589539512636
 40
0.9189430460054206
 40
0.9511851450558513
 40
0.9879529458657232
 40
1.031510647719719
 40
1.062518134121203
 40
1.088511337635065
 40
1.125623760137804
 40
1.166403955147492
 40
1.207183923099725
 40
1.242866451822257
 40
1.324585785261427
 40
1.356827884311857
 40
1.42131212071152
 40
1.478313317082646
 40
1.587437834126957
 40
1.722086189114383
 40
1.91653800761297
 40
1.91653800761297
 40
1.91653800761297
 40
1.91653800761297
 10
326.7832990788064
 20
273.9352157936794
 30
0.0
 10
326.7267706342555
 20
273.9312224575421
 30
0.0
 10
326.6524890936124
 20
273.9259749903078
 30
0.0
 10
326.5581689056963
 20
273.9001340708801
 30
0.0
 10
326.5067539678716
 20
273.8693492148055
 30
0.0
 10
326.4532464482964
 20
273.8467208699794
 30
0.0
 10
326.4076263044088
 20
273.8132127785939
 30
0.0
 10
326.3614824919799
 20
273.7959463819286
 30
0.0
 10
326.3291711819783
 20
273.7648119825325
 30
0.0
 10
326.2917734762356
 20
273.745793747597
 30
0.0
 10
326.2619930191747
 20
273.7032254088032
 30
0.0
 10
326.2287069147761
 20
273.663425554575
 30
0.0
 10
326.1900908461307
 20
273.6343734359944
 30
0.0
 10
326.158398120331
 20
273.6038602115824
 30
0.0
 10
326.1293244512409
 20
273.5567691381332
 30
0.0
 10
326.1121173526423
 20
273.4941990458547
 30
0.0
 10
326.0636134299366
 20
273.454694546108
 30
0.0
 10
326.0563102578195
 20
273.4071983501294
 30
0.0
 10
326.0294812590447
 20
273.3791763937457
 30
0.0
 10
326.0178150720511
 20
273.3430040737584
 30
0.0
 10
326.0133720264935
 20
273.3098638392824
 30
0.0
 10
326.0080393123794
 20
273.2789131544249
 30
0.0
 10
325.9940899421987
 20
273.2463544011401
 30
0.0
 10
325.998643064754
 20
273.2061357604682
 30
0.0
 10
325.9973460168323
 20
273.1671907157838
 30
0.0
 10
325.9981093310569
 20
273.1146136927398
 30
0.0
 10
325.9953544243076
 20
273.0634234951806
 30
0.0
 10
326.0173237260411
 20
273.0077164188076
 30
0.0
 10
326.0303244297235
 20
272.9580612670434
 30
0.0
 10
326.0659289716083
 20
272.8893076880575
 30
0.0
 10
326.1273460602184
 20
272.8099809238378
 30
0.0
 10
326.2441357916315
 20
272.7136932618434
 30
0.0
 10
326.3564325330199
 20
272.7039253267423
 30
0.0
 10
326.4227840798548
 20
272.6981538538097
 30
0.0
 11
326.7832990788064
 21
273.9352157936794
 31
0.0
 11
326.6149423016431
 21
273.9148255826459
 31
0.0
 11
326.5639251085883
 21
273.8995332649569
 31
0.0
 11
326.5027047174124
 21
273.8689481754639
 31
0.0
 11
326.4516875243574
 21
273.8434607522582
 31
0.0
 11
326.4108739302402
 21
273.817973101995
 31
0.0
 11
326.3547551381247
 21
273.7873882395594
 31
0.0
 11
326.3292463411888
 21
273.7669982555833
 31
0.0
 11
326.2986359451925
 21
273.7466080445498
 31
0.0
 11
326.2629239501356
 21
273.7058280765976
 31
0.0
 11
326.2221103560183
 21
273.6599506694156
 31
0.0
 11
326.1914999600219
 21
273.6344630191523
 31
0.0
 11
326.1608899648427
 21
273.6038781567169
 31
0.0
 11
326.1353811679065
 21
273.5630981887646
 31
0.0
 11
326.1047711727273
 21
273.4968305705491
 31
0.0
 11
326.0639571777929
 21
273.4407580578505
 31
0.0
 11
326.0537539796723
 21
273.4101729683576
 31
0.0
 11
326.0333471826135
 21
273.3795881059221
 31
0.0
 11
326.0180419846153
 21
273.3388079109123
 31
0.0
 11
326.0129399847381
 21
273.3082230484769
 31
0.0
 11
326.0078383856775
 21
273.2827353982137
 31
0.0
 11
325.9976351875567
 21
273.2470530965485
 31
0.0
 11
325.9976351875567
 21
273.2062729015388
 31
0.0
 11
325.9976351875567
 21
273.1654929335866
 31
0.0
 11
325.9976351875567
 21
273.129810404864
 31
0.0
 11
326.0027367866172
 21
273.0482504689594
 31
0.0
 11
326.0129399847381
 21
273.0176653794666
 31
0.0
 11
326.0333471826135
 21
272.9564954275382
 31
0.0
 11
326.0588555787326
 21
272.9055203540692
 31
0.0
 11
326.1251779697857
 21
272.818862978935
 31
0.0
 11
326.2323139549561
 21
272.737302815973
 31
0.0
 11
326.4227840798548
 21
272.6981538538097
 31
0.0
  0
SPLINE
  5
1934
102
{ACAD_REACTORS
330
193A
102
}
330
18
100
AcDbEntity
  8
ROGO
 62
     4
100
AcDbSpline
210
0.0
220
0.0
230
1.0
 70
     8
 71
     3
 72
    25
 73
    21
 74
     0
 42
0.0000000001
 43
0.0000000001
 40
0.0
 40
0.0
 40
0.0
 40
0.0
 40
0.4087168505087288
 40
0.6887487002771746
 40
0.9415836120477687
 40
1.17452070575514
 40
1.41154617586699
 40
1.599156012919487
 40
1.80099909059943
 40
2.178735911501585
 40
2.521686161369157
 40
2.762704659361267
 40
3.06256558063785
 40
3.222432137207705
 40
3.399493810628493
 40
3.567459719866414
 40
3.743172740007509
 40
3.995988754699505
 40
4.17170091132118
 40
4.337226830236035
 40
4.337226830236035
 40
4.337226830236035
 40
4.337226830236035
 10
327.4873353810045
 20
273.9352157936794
 30
0.0
 10
327.5335110432838
 20
273.9337322172746
 30
0.0
 10
327.6113239040447
 20
273.9312321703122
 30
0.0
 10
327.6948656096509
 20
273.8659345883197
 30
0.0
 10
327.7587893042203
 20
273.8117978898743
 30
0.0
 10
327.8041631360786
 20
273.7463491564262
 30
0.0
 10
327.8439345709926
 20
273.6861725324081
 30
0.0
 10
327.870140931258
 20
273.622639863391
 30
0.0
 10
327.9057867588813
 20
273.5464064790191
 30
0.0
 10
327.9205423705114
 20
273.4444175366052
 30
0.0
 10
327.9105732003358
 20
273.3390025543659
 30
0.0
 10
327.8845583209001
 20
273.2455618691348
 30
0.0
 10
327.8572708039875
 20
273.1738763704212
 30
0.0
 10
327.8251092171121
 20
273.1114696965666
 30
0.0
 10
327.7867684957628
 20
273.0710613704047
 30
0.0
 10
327.7601692442735
 20
273.0196825776105
 30
0.0
 10
327.7090754847039
 20
272.9776574835197
 30
0.0
 10
327.6676561271214
 20
272.925804415837
 30
0.0
 10
327.6206537822874
 20
272.8812983764414
 30
0.0
 10
327.5941536519202
 20
272.8538386864762
 30
0.0
 10
327.5801821441238
 20
272.8422931466549
 30
0.0
  0
LINE
  5
1935
102
{ACAD_REACTORS
330
193A
102
}
330
18
100
AcDbEntity
  8
ROGO
 62
     4
100
AcDbLine
 10
326.7832990788063
 20
273.9352157936794
 30
0.0
 11
327.4873353810045
 21
273.9352157936794
 31
0.0
  0
LINE
  5
1936
102
{ACAD_REACTORS
330
193A
102
}
330
18
100
AcDbEntity
  8
ROGO
 62
     4
100
AcDbLine
 10
326.4227840798548
 20
272.6981538538097
 30
0.0
 11
327.1268203820529
 21
272.6981538538097
 31
0.0
  0
SPLINE
  5
1937
102
{ACAD_REACTORS
330
193A
102
}
330
18
100
AcDbEntity
  8
ROGO
 62
     4
100
AcDbSpline
210
0.0
220
0.0
230
1.0
 70
     8
 71
     3
 72
    11
 73
     7
 74
     0
 42
0.0000000001
 43
0.0000000001
 40
0.1647869275458134
 40
0.1647869275458134
 40
0.1647869275458134
 40
0.1647869275458134
 40
0.2895635144633836
 40
0.5387013147903714
 40
0.7953622617455423
 40
0.8850764140209602
 40
0.8850764140209602
 40
0.8850764140209602
 40
0.8850764140209602
 10
327.3613736105291
 20
272.7256194763253
 30
0.0
 10
327.3482596769604
 20
272.7219692079181
 30
0.0
 10
327.3075994198188
 20
272.715470107582
 30
0.0
 10
327.2393972605266
 20
272.7065460795434
 30
0.0
 10
327.1745745192875
 20
272.6972335306957
 30
0.0
 10
327.1366445680994
 20
272.6979645209892
 30
0.0
 10
327.1268203820529
 20
272.6981538538097
 30
0.0
  0
SPLINE
  5
1938
102
{ACAD_REACTORS
330
193A
102
}
330
18
100
AcDbEntity
  8
ROGO
 62
     4
100
AcDbSpline
210
0.0
220
0.0
230
1.0
 70
     8
 71
     3
 72
     9
 73
     5
 74
     3
 42
0.0000000001
 43
0.0000000001
 44
0.0000000001
 40
0.0
 40
0.0
 40
0.0
 40
0.0
 40
0.1065541570915573
 40
0.2498228725988719
 40
0.2498228725988719
 40
0.2498228725988719
 40
0.2498228725988719
 10
327.3613736105291
 20
272.7256194763253
 30
0.0
 10
327.3956018886547
 20
272.736091396302
 30
0.0
 10
327.4758522233096
 20
272.7606434663631
 30
0.0
 10
327.5421573829834
 20
272.8125345734091
 30
0.0
 10
327.5801821441238
 20
272.8422931466549
 30
0.0
 11
327.3613736105291
 21
272.7256194763253
 31
0.0
 11
327.4615215623146
 21
272.7620087075162
 31
0.0
 11
327.5801821441238
 21
272.8422931466549
 31
0.0
  0
ELLIPSE
  5
1939
102
{ACAD_REACTORS
330
193A
102
}
330
18
100
AcDbEntity
  8
ROGO
 62
     4
100
AcDbEllipse
 10
326.9450904731436
 20
273.2994370613503
 30
0.0
 11
0.1672573360709411
 21
0.1470818975306736
 31
0.0
210
0.0
220
0.0
230
1.0
 40
0.6788083417438791
 41
0.0
 42
6.283185307179586
  0
HATCH
  5
193A
330
18
100
AcDbEntity
  8
ROGO
 62
     4
100
AcDbHatch
 10
0.0
 20
0.0
 30
0.0
210
0.0
220
0.0
230
1.0
  2
SOLID
 70
     1
 71
     1
 91
        2
 92
        5
 93
        6
 72
     4
 94
        3
 73
     0
 74
     0
 95
       38
 96
       34
 40
0.0
 40
0.0
 40
0.0
 40
0.0
 40
0.1695870429095464
 40
0.2228468679889985
 40
0.2912821220253952
 40
0.348311612018577
 40
0.3964299014800401
 40
0.4603419710655682
 40
0.4929985196839283
 40
0.5297783653748024
 40
0.583984936721121
 40
0.6453892195888884
 40
0.6852215765239728
 40
0.7284928789664047
 40
0.7765938613609417
 40
0.849589539512636
 40
0.9189430460054206
 40
0.9511851450558513
 40
0.9879529458657232
 40
1.031510647719719
 40
1.062518134121203
 40
1.088511337635065
 40
1.125623760137804
 40
1.166403955147492
 40
1.207183923099725
 40
1.242866451822257
 40
1.324585785261427
 40
1.356827884311857
 40
1.42131212071152
 40
1.478313317082646
 40
1.587437834126957
 40
1.722086189114383
 40
1.91653800761297
 40
1.91653800761297
 40
1.91653800761297
 40
1.91653800761297
 10
326.7832990788064
 20
273.9352157936794
 10
326.7267706342555
 20
273.9312224575421
 10
326.6524890936124
 20
273.9259749903078
 10
326.5581689056963
 20
273.9001340708801
 10
326.5067539678716
 20
273.8693492148055
 10
326.4532464482964
 20
273.8467208699794
 10
326.4076263044088
 20
273.8132127785939
 10
326.3614824919799
 20
273.7959463819286
 10
326.3291711819783
 20
273.7648119825325
 10
326.2917734762356
 20
273.745793747597
 10
326.2619930191747
 20
273.7032254088032
 10
326.2287069147761
 20
273.663425554575
 10
326.1900908461307
 20
273.6343734359944
 10
326.158398120331
 20
273.6038602115824
 10
326.1293244512409
 20
273.5567691381332
 10
326.1121173526423
 20
273.4941990458547
 10
326.0636134299366
 20
273.454694546108
 10
326.0563102578195
 20
273.4071983501294
 10
326.0294812590447
 20
273.3791763937457
 10
326.0178150720511
 20
273.3430040737584
 10
326.0133720264935
 20
273.3098638392824
 10
326.0080393123794
 20
273.2789131544249
 10
325.9940899421987
 20
273.2463544011401
 10
325.998643064754
 20
273.2061357604682
 10
325.9973460168323
 20
273.1671907157838
 10
325.9981093310569
 20
273.1146136927398
 10
325.9953544243076
 20
273.0634234951806
 10
326.0173237260411
 20
273.0077164188076
 10
326.0303244297235
 20
272.9580612670434
 10
326.0659289716083
 20
272.8893076880575
 10
326.1273460602184
 20
272.8099809238378
 10
326.2441357916315
 20
272.7136932618434
 10
326.3564325330199
 20
272.7039253267423
 10
326.4227840798548
 20
272.6981538538097
 72
     1
 10
326.422784079855
 20
272.6981538538097
 11
327.1268203820536
 21
272.6981538538097
 72
     4
 94
        3
 73
     0
 74
     0
 95
       11
 96
        7
 40
0.1647869275458135
 40
0.1647869275458135
 40
0.1647869275458135
 40
0.1647869275458135
 40
0.2545010798212315
 40
0.5111620267764023
 40
0.7602998271033902
 40
0.8850764140209603
 40
0.8850764140209603
 40
0.8850764140209603
 40
0.8850764140209603
 10
327.1268203820529
 20
272.6981538538097
 10
327.1366445680994
 20
272.6979645209892
 10
327.1745745192875
 20
272.6972335306957
 10
327.2393972605266
 20
272.7065460795434
 10
327.3075994198188
 20
272.715470107582
 10
327.3482596769604
 20
272.7219692079181
 10
327.3613736105291
 20
272.7256194763253
 72
     4
 94
        3
 73
     0
 74
     0
 95
        9
 96
        5
 40
0.0
 40
0.0
 40
0.0
 40
0.0
 40
0.1065541570915573
 40
0.2498228725988719
 40
0.2498228725988719
 40
0.2498228725988719
 40
0.2498228725988719
 10
327.3613736105291
 20
272.7256194763253
 10
327.3956018886547
 20
272.736091396302
 10
327.4758522233096
 20
272.7606434663631
 10
327.5421573829834
 20
272.8125345734091
 10
327.5801821441238
 20
272.8422931466549
 72
     4
 94
        3
 73
     0
 74
     0
 95
       25
 96
       21
 40
0.0
 40
0.0
 40
0.0
 40
0.0
 40
0.165525918914855
 40
0.3412380755365305
 40
0.5940540902285263
 40
0.7697671103696209
 40
0.9377330196075423
 40
1.11479469302833
 40
1.274661249598185
 40
1.574522170874768
 40
1.815540668866877
 40
2.15849091873445
 40
2.536227739636605
 40
2.738070817316548
 40
2.925680654369045
 40
3.162706124480894
 40
3.395643218188267
 40
3.648478129958861
 40
3.928509979727306
 40
4.337226830236035
 40
4.337226830236035
 40
4.337226830236035
 40
4.337226830236035
 10
327.5801821441238
 20
272.8422931466549
 10
327.5941536519202
 20
272.8538386864762
 10
327.6206537822874
 20
272.8812983764414
 10
327.6676561271214
 20
272.925804415837
 10
327.7090754847039
 20
272.9776574835197
 10
327.7601692442735
 20
273.0196825776105
 10
327.7867684957628
 20
273.0710613704047
 10
327.8251092171121
 20
273.1114696965666
 10
327.8572708039875
 20
273.1738763704212
 10
327.8845583209001
 20
273.2455618691348
 10
327.9105732003358
 20
273.3390025543659
 10
327.9205423705114
 20
273.4444175366052
 10
327.9057867588813
 20
273.5464064790191
 10
327.870140931258
 20
273.622639863391
 10
327.8439345709926
 20
273.6861725324081
 10
327.8041631360786
 20
273.7463491564262
 10
327.7587893042203
 20
273.8117978898743
 10
327.6948656096509
 20
273.8659345883197
 10
327.6113239040447
 20
273.9312321703122
 10
327.5335110432838
 20
273.9337322172746
 10
327.4873353810045
 20
273.9352157936794
 72
     1
 10
327.4873353810045
 20
273.9352157936794
 11
326.7832990788065
 21
273.9352157936795
 97
        6
330
1934
330
1935
330
1933
330
1936
330
1937
330
1938
 92
       20
 93
        1
 72
     3
 10
326.9450904731436
 20
273.2994370613503
 11
0.1672573360709411
 21
0.1470818975306736
 40
0.6788083417438791
 50
0.0
 51
360.0
 73
     1
 97
        1
330
1939
 75
     0
 76
     1
 47
0.088756267210375
 98
        2
 10
326.9942787381258
 20
273.5935343285856
 10
326.9942787381258
 20
273.5935343285856
450
        0
451
        0
460
0.0
461
0.0
452
        0
462
0.0
453
        0
470

  0
LINE
  5
193B
102
{ACAD_REACTORS
330
193C
102
}
330
18
100
AcDbEntity
  8
ROGO
 62
     4
100
AcDbLine
 10
330.8628249402275
 20
273.5830192426817
 30
0.0
 11
331.2631997337732
 21
273.9300773547599
 31
0.0
  0
HATCH
  5
193C
330
18
100
AcDbEntity
  8
ROGO
 62
     4
100
AcDbHatch
 10
0.0
 20
0.0
 30
0.0
210
0.0
220
0.0
230
1.0
  2
SOLID
 70
     1
 71
     1
 91
        1
 92
        7
 72
     0
 73
     1
 93
       11
 10
330.8628249402274
 20
273.583019242682
 10
331.0358793238432
 20
273.9300773547599
 10
330.3265613274801
 20
273.9300773547599
 10
329.3667117351145
 20
272.0051126098908
 10
330.0760297314777
 20
272.0051126098908
 10
330.3265613274801
 20
272.5075501726262
 10
330.5770929234828
 20
272.0051126098907
 10
331.2863954005384
 20
272.0051126098908
 10
330.8064706043556
 20
272.9675949823254
 10
331.972502210829
 20
273.9300773547599
 10
331.2631997337732
 20
273.9300773547599
 97
       11
330
1926
330
193B
330
1921
330
191F
330
1920
330
18F3
330
1924
330
1922
330
1927
330
1923
330
1925
 75
     0
 76
     1
 47
0.015942268611278
 98
        1
 10
330.7094564078874
 20
273.3055817628313
450
        0
451
        0
460
0.0
461
0.0
452
        0
462
0.0
453
        0
470

  0
TEXT
  5
193D
330
18
100
AcDbEntity
  8
文字
100
AcDbText
 10
321.4765217490099
 20
276.3772541087336
 30
0.0
 40
1.0
  1
0.01mm
  7
STYLE3
100
AcDbText
  0
LINE
  5
193E
102
{ACAD_REACTORS
330
1940
102
}
330
18
100
AcDbEntity
  8
外形線
100
AcDbLine
 10
324.0594062797641
 20
278.6578388776974
 30
0.0
 11
322.8927396130974
 21
279.0824708176746
 31
0.0
  0
LINE
  5
193F
102
{ACAD_REACTORS
330
1940
102
}
330
18
100
AcDbEntity
  8
外形線
100
AcDbLine
 10
324.0594062797641
 20
278.6578388776974
 30
0.0
 11
322.8927396130974
 21
278.2332069377201
 31
0.0
  0
HATCH
  5
1940
330
18
100
AcDbEntity
  8
外形線
100
AcDbHatch
 10
0.0
 20
0.0
 30
0.0
210
0.0
220
0.0
230
1.0
  2
SOLID
 70
     1
 71
     1
 91
        2
 92
        1
 93
        4
 72
     1
 10
324.2260729464307
 20
277.9078388776974
 11
324.0594062797641
 21
277.9078388776974
 72
     1
 10
324.0594062797641
 20
277.9078388776974
 11
324.0594062797641
 21
279.4078388776973
 72
     1
 10
324.0594062797641
 20
279.4078388776973
 11
324.2260729464307
 21
279.4078388776973
 72
     1
 10
324.2260729464307
 20
279.4078388776973
 11
324.2260729464307
 21
277.9078388776974
 97
        4
330
1954
330
1952
330
1953
330
1949
 92
        1
 93
        7
 72
     1
 10
322.8927396130974
 20
278.4911722110307
 11
322.8927396130974
 21
278.2332069377202
 72
     1
 10
322.8927396130974
 20
278.2332069377201
 11
324.0594062797641
 21
278.6578388776974
 72
     1
 10
324.0594062797641
 20
278.6578388776974
 11
322.8927396130974
 21
279.0824708176746
 72
     1
 10
322.8927396130974
 20
279.0824708176746
 11
322.8927396130974
 21
278.8245055443641
 72
     1
 10
322.8927396130974
 20
278.824505544364
 11
321.8927396130974
 21
278.8245055443639
 72
     1
 10
321.8927396130974
 20
278.8245055443639
 11
321.8927396130974
 21
278.4911722110307
 72
     1
 10
321.8927396130974
 20
278.4911722110307
 11
322.8927396130974
 21
278.4911722110307
 97
        7
330
1945
330
193F
330
193E
330
1944
330
1941
330
1942
330
1943
 75
     0
 76
     1
 98
        1
 10
690.2281280500274
 20
40.89792582385888
450
        0
451
        0
460
0.0
461
0.0
452
        0
462
0.0
453
        0
470

  0
LINE
  5
1941
102
{ACAD_REACTORS
330
1940
102
}
330
18
100
AcDbEntity
  8
外形線
100
AcDbLine
 10
322.8927396130974
 20
278.824505544364
 30
0.0
 11
321.8927396130974
 21
278.8245055443639
 31
0.0
  0
LINE
  5
1942
102
{ACAD_REACTORS
330
1940
102
}
330
18
100
AcDbEntity
  8
外形線
100
AcDbLine
 10
321.8927396130974
 20
278.8245055443639
 30
0.0
 11
321.8927396130974
 21
278.4911722110307
 31
0.0
  0
LINE
  5
1943
102
{ACAD_REACTORS
330
1940
102
}
330
18
100
AcDbEntity
  8
外形線
100
AcDbLine
 10
322.8927396130974
 20
278.4911722110307
 30
0.0
 11
321.8927396130974
 21
278.4911722110307
 31
0.0
  0
LINE
  5
1944
102
{ACAD_REACTORS
330
1940
102
}
330
18
100
AcDbEntity
  8
外形線
100
AcDbLine
 10
322.8927396130974
 20
279.0824708176746
 30
0.0
 11
322.8927396130974
 21
278.8245055443641
 31
0.0
  0
LINE
  5
1945
102
{ACAD_REACTORS
330
1940
102
}
330
18
100
AcDbEntity
  8
外形線
100
AcDbLine
 10
322.8927396130974
 20
278.4911722110307
 30
0.0
 11
322.8927396130974
 21
278.2332069377202
 31
0.0
  0
HATCH
  5
1946
330
18
100
AcDbEntity
  8
外形線
100
AcDbHatch
 10
0.0
 20
0.0
 30
0.0
210
0.0
220
0.0
230
1.0
  2
SOLID
 70
     1
 71
     1
 91
        2
 92
        1
 93
        4
 72
     1
 10
325.0594062797641
 20
277.9078388776974
 11
325.2260729464307
 21
277.9078388776974
 72
     1
 10
325.2260729464307
 20
277.9078388776974
 11
325.2260729464307
 21
279.4078388776973
 72
     1
 10
325.2260729464307
 20
279.4078388776973
 11
325.0594062797641
 21
279.4078388776973
 72
     1
 10
325.0594062797641
 20
279.4078388776973
 11
325.0594062797641
 21
277.9078388776974
 97
        4
330
194B
330
194C
330
194D
330
194A
 92
        1
 93
        7
 72
     1
 10
326.3927396130974
 20
278.4911722110307
 11
326.3927396130974
 21
278.2332069377202
 72
     1
 10
326.3927396130974
 20
278.2332069377201
 11
325.2260729464307
 21
278.6578388776974
 72
     1
 10
325.2260729464307
 20
278.6578388776974
 11
326.3927396130974
 21
279.0824708176746
 72
     1
 10
326.3927396130974
 20
279.0824708176746
 11
326.3927396130974
 21
278.8245055443641
 72
     1
 10
326.3927396130974
 20
278.824505544364
 11
327.3927396130974
 21
278.8245055443639
 72
     1
 10
327.3927396130974
 20
278.8245055443639
 11
327.3927396130974
 21
278.4911722110307
 72
     1
 10
327.3927396130974
 20
278.4911722110307
 11
326.3927396130974
 21
278.4911722110307
 97
        7
330
194E
330
1950
330
1951
330
194F
330
1948
330
1955
330
1947
 75
     0
 76
     1
 98
        1
 10
-40.94264882383254
 20
40.89792582385888
450
        0
451
        0
460
0.0
461
0.0
452
        0
462
0.0
453
        0
470

  0
LINE
  5
1947
102
{ACAD_REACTORS
330
1946
102
}
330
18
100
AcDbEntity
  8
外形線
100
AcDbLine
 10
326.3927396130974
 20
278.4911722110307
 30
0.0
 11
327.3927396130974
 21
278.4911722110307
 31
0.0
  0
LINE
  5
1948
102
{ACAD_REACTORS
330
1946
102
}
330
18
100
AcDbEntity
  8
外形線
100
AcDbLine
 10
326.3927396130974
 20
278.824505544364
 30
0.0
 11
327.3927396130974
 21
278.8245055443639
 31
0.0
  0
LINE
  5
1949
102
{ACAD_REACTORS
330
1940
102
}
330
18
100
AcDbEntity
  8
外形線
100
AcDbLine
 10
324.2260729464307
 20
279.4078388776973
 30
0.0
 11
324.2260729464307
 21
277.9078388776974
 31
0.0
  0
LINE
  5
194A
102
{ACAD_REACTORS
330
1946
102
}
330
18
100
AcDbEntity
  8
外形線
100
AcDbLine
 10
325.0594062797641
 20
279.4078388776973
 30
0.0
 11
325.0594062797641
 21
277.9078388776974
 31
0.0
  0
LINE
  5
194B
102
{ACAD_REACTORS
330
1946
102
}
330
18
100
AcDbEntity
  8
外形線
100
AcDbLine
 10
325.0594062797641
 20
277.9078388776974
 30
0.0
 11
325.2260729464307
 21
277.9078388776974
 31
0.0
  0
LINE
  5
194C
102
{ACAD_REACTORS
330
1946
102
}
330
18
100
AcDbEntity
  8
外形線
100
AcDbLine
 10
325.2260729464307
 20
279.4078388776973
 30
0.0
 11
325.2260729464307
 21
277.9078388776974
 31
0.0
  0
LINE
  5
194D
102
{ACAD_REACTORS
330
1946
102
}
330
18
100
AcDbEntity
  8
外形線
100
AcDbLine
 10
325.0594062797641
 20
279.4078388776973
 30
0.0
 11
325.2260729464307
 21
279.4078388776973
 31
0.0
  0
LINE
  5
194E
102
{ACAD_REACTORS
330
1946
102
}
330
18
100
AcDbEntity
  8
外形線
100
AcDbLine
 10
326.3927396130974
 20
278.4911722110307
 30
0.0
 11
326.3927396130974
 21
278.2332069377202
 31
0.0
  0
LINE
  5
194F
102
{ACAD_REACTORS
330
1946
102
}
330
18
100
AcDbEntity
  8
外形線
100
AcDbLine
 10
326.3927396130974
 20
279.0824708176746
 30
0.0
 11
326.3927396130974
 21
278.8245055443641
 31
0.0
  0
LINE
  5
1950
102
{ACAD_REACTORS
330
1946
102
}
330
18
100
AcDbEntity
  8
外形線
100
AcDbLine
 10
325.2260729464307
 20
278.6578388776974
 30
0.0
 11
326.3927396130974
 21
278.2332069377201
 31
0.0
  0
LINE
  5
1951
102
{ACAD_REACTORS
330
1946
102
}
330
18
100
AcDbEntity
  8
外形線
100
AcDbLine
 10
325.2260729464307
 20
278.6578388776974
 30
0.0
 11
326.3927396130974
 21
279.0824708176746
 31
0.0
  0
LINE
  5
1952
102
{ACAD_REACTORS
330
1940
102
}
330
18
100
AcDbEntity
  8
外形線
100
AcDbLine
 10
324.0594062797641
 20
279.4078388776973
 30
0.0
 11
324.0594062797641
 21
277.9078388776974
 31
0.0
  0
LINE
  5
1953
102
{ACAD_REACTORS
330
1940
102
}
330
18
100
AcDbEntity
  8
外形線
100
AcDbLine
 10
324.2260729464307
 20
279.4078388776973
 30
0.0
 11
324.0594062797641
 21
279.4078388776973
 31
0.0
  0
LINE
  5
1954
102
{ACAD_REACTORS
330
1940
102
}
330
18
100
AcDbEntity
  8
外形線
100
AcDbLine
 10
324.2260729464307
 20
277.9078388776974
 30
0.0
 11
324.0594062797641
 21
277.9078388776974
 31
0.0
  0
LINE
  5
1955
102
{ACAD_REACTORS
330
1946
102
}
330
18
100
AcDbEntity
  8
外形線
100
AcDbLine
 10
327.3927396130974
 20
278.8245055443639
 30
0.0
 11
327.3927396130974
 21
278.4911722110307
 31
0.0
  0
LINE
  5
1958
330
18
100
AcDbEntity
  8
外形線
100
AcDbLine
 10
325.4369977388917
 20
289.4886674780121
 30
0.0
 11
334.4209407909148
 21
270.3968166709791
 31
0.0
  0
POINT
  5
19EB
330
18
100
AcDbEntity
  8
DEFPOINTS
  6
ByBlock
 62
     0
100
AcDbPoint
 10
317.0459342058867
 20
272.0051126098907
 30
0.0
  0
POINT
  5
19EC
330
18
100
AcDbEntity
  8
DEFPOINTS
  6
ByBlock
 62
     0
100
AcDbPoint
 10
331.972502210829
 20
273.9300773547599
 30
0.0
  0
CIRCLE
  5
19FE
330
18
100
AcDbEntity
  8
針
100
AcDbCircle
 10
324.6280170849181
 20
291.2078388776974
 30
0.0
 40
1.9
  0
CIRCLE
  5
19FF
330
18
100
AcDbEntity
  8
針
100
AcDbCircle
 10
324.6280170849181
 20
291.2078388776974
 30
0.0
 40
1.5
  0
POINT
  5
1A00
330
18
100
AcDbEntity
  8
DEFPOINTS
  6
ByBlock
 62
     0
100
AcDbPoint
 10
324.6280170849181
 20
291.2078388776973
 30
0.0
  0
POINT
  5
1A01
330
18
100
AcDbEntity
  8
DEFPOINTS
  6
ByBlock
 62
     0
100
AcDbPoint
 10
324.6280170849181
 20
291.2078388776973
 30
0.0
  0
CIRCLE
  5
1A02
330
18
100
AcDbEntity
  8
針
100
AcDbCircle
 10
324.6280170849181
 20
291.2078388776974
 30
0.0
 40
0.475
  0
ARC
  5
1A03
330
18
100
AcDbEntity
  8
針
100
AcDbCircle
 10
328.0263386678182
 20
287.8891176753072
 30
0.0
 40
3.0
100
AcDbArc
 50
146.9277208229603
 51
176.4
  0
HATCH
  5
1A04
330
18
100
AcDbEntity
  8
針
100
AcDbHatch
 10
0.0
 20
0.0
 30
0.0
210
0.0
220
0.0
230
1.0
  2
SOLID
 70
     1
 71
     0
 91
        2
 92
        7
 72
     1
 73
     1
 93
        5
 10
323.1568032497147
 20
269.256901999033
 42
0.0
 10
323.2466256552732
 20
269.2512508522753
 42
0.0
 10
323.3364480608317
 20
269.2455997055177
 42
0.0
 10
323.9198298972643
 20
275.7240256875544
 42
-0.0085634322047721
 10
323.3899836300456
 20
275.7573607891521
 42
0.0
 97
        0
 92
        7
 72
     1
 73
     1
 93
        6
 10
323.3899836300456
 20
275.7573607891521
 42
0.0085634322047721
 10
323.9198298972643
 20
275.7240256875544
 42
0.0
 10
325.0322584825335
 20
288.0774892338954
 42
-0.1293106770632391
 10
325.51239016758
 20
289.5262074523657
 42
-0.2805221108582334
 10
323.5398532439622
 20
289.6503089565607
 42
-0.1293106770632486
 10
323.8346264084194
 20
288.1528378573305
 42
0.0
 97
        0
 75
     0
 76
     1
 47
0.0423559757596284
 98
        2
 10
323.6559410889534
 20
275.1111319850472
 10
323.8056194935875
 20
279.5154460113983
450
        0
451
        0
460
0.0
461
0.0
452
        0
462
0.0
453
        0
470

  0
LINE
  5
1A05
330
18
100
AcDbEntity
  8
針
100
AcDbLine
 10
323.3364480608317
 20
269.2455997055177
 30
0.0
 11
325.0322584825334
 21
288.077489233895
 31
0.0
  0
ARC
  5
1A06
330
18
100
AcDbEntity
  8
針
100
AcDbCircle
 10
320.8405462231346
 20
288.3412094159183
 30
0.0
 40
3.0
100
AcDbArc
 50
356.4
 51
25.87227917703959
  0
LINE
  5
1A07
330
18
100
AcDbEntity
  8
針
100
AcDbLine
 10
323.2466256552732
 20
269.2512508522753
 30
0.0
 11
323.3364480608317
 21
269.2455997055177
 31
0.0
  0
LINE
  5
1A08
330
18
100
AcDbEntity
  8
針
100
AcDbLine
 10
323.2466256552732
 20
269.2512508522753
 30
0.0
 11
323.1568032497147
 21
269.256901999033
 31
0.0
  0
LINE
  5
1A09
330
18
100
AcDbEntity
  8
針
100
AcDbLine
 10
323.1568032497147
 20
269.256901999033
 30
0.0
 11
323.8346264084193
 21
288.1528378573302
 31
0.0
  0
LINE
  5
1A1B
330
18
100
AcDbEntity
  8
外形線
100
AcDbLine
 10
321.6280170849182
 20
234.8078388776974
 30
0.0
 11
327.6280170849182
 21
234.8078388776974
 31
0.0
  0
ARC
  5
1A27
330
18
100
AcDbEntity
  8
外形線
100
AcDbCircle
 10
321.6280170849182
 20
235.8078388776974
 30
0.0
 40
1.0
100
AcDbArc
 50
180.0
 51
270.0
  0
ARC
  5
1A29
330
18
100
AcDbEntity
  8
外形線
100
AcDbCircle
 10
327.6280170849182
 20
235.8078388776974
 30
0.0
 40
1.0
100
AcDbArc
 50
270.0
 51
0.0
  0
LINE
  5
1A2A
330
18
100
AcDbEntity
  8
外形線
100
AcDbLine
 10
326.6280170849183
 20
234.8078388776974
 30
0.0
 11
326.6280170849182
 21
225.1078388776974
 31
0.0
  0
LINE
  5
1A2B
330
18
100
AcDbEntity
  8
外形線
100
AcDbLine
 10
322.6280170849182
 20
234.8078388776974
 30
0.0
 11
322.6280170849182
 21
225.1078388776974
 31
0.0
  0
LINE
  5
1A2C
330
18
100
AcDbEntity
  8
外形線
100
AcDbLine
 10
322.6280170849182
 20
230.8078388776974
 30
0.0
 11
326.6280170849183
 21
230.8078388776974
 31
0.0
  0
LINE
  5
1A2D
330
18
100
AcDbEntity
  8
外形線
100
AcDbLine
 10
322.9280170849182
 20
224.8078388776974
 30
0.0
 11
326.3280170849182
 21
224.8078388776974
 31
0.0
  0
LINE
  5
1A30
330
18
100
AcDbEntity
  8
外形線
100
AcDbLine
 10
322.6280170849182
 20
225.1078388776974
 30
0.0
 11
322.9280170849182
 21
224.8078388776974
 31
0.0
  0
LINE
  5
1A31
330
18
100
AcDbEntity
  8
外形線
100
AcDbLine
 10
326.3280170849182
 20
224.8078388776974
 30
0.0
 11
326.6280170849182
 21
225.1078388776974
 31
0.0
  0
LINE
  5
1A33
330
18
100
AcDbEntity
  8
外形線
100
AcDbLine
 10
322.6280170849181
 20
225.8078388776973
 30
0.0
 11
326.6280170849183
 21
225.8078388776974
 31
0.0
  0
LINE
  5
1A36
330
18
100
AcDbEntity
  8
外形線
100
AcDbLine
 10
403.125306914716
 20
266.7078388776974
 30
0.0
 11
403.1253069147161
 21
235.8078388776974
 31
0.0
  0
LINE
  5
1A37
330
18
100
AcDbEntity
  8
外形線
100
AcDbLine
 10
411.1253069147161
 20
266.7078388776974
 30
0.0
 11
411.1253069147161
 21
235.8078388776974
 31
0.0
  0
LINE
  5
1A38
330
18
100
AcDbEntity
  8
外形線
100
AcDbLine
 10
409.1253069147161
 20
234.8078388776974
 30
0.0
 11
409.1253069147161
 21
225.1078388776974
 31
0.0
  0
LINE
  5
1A39
330
18
100
AcDbEntity
  8
外形線
100
AcDbLine
 10
405.1253069147161
 20
234.8078388776974
 30
0.0
 11
405.1253069147161
 21
225.1078388776974
 31
0.0
  0
LINE
  5
1A3A
330
18
100
AcDbEntity
  8
外形線
100
AcDbLine
 10
405.4253069147161
 20
224.8078388776974
 30
0.0
 11
408.8253069147161
 21
224.8078388776974
 31
0.0
  0
LINE
  5
1A3B
330
18
100
AcDbEntity
  8
外形線
100
AcDbLine
 10
405.1253069147161
 20
225.1078388776974
 30
0.0
 11
405.4253069147161
 21
224.8078388776974
 31
0.0
  0
LINE
  5
1A3C
330
18
100
AcDbEntity
  8
外形線
100
AcDbLine
 10
408.8253069147161
 20
224.8078388776974
 30
0.0
 11
409.1253069147161
 21
225.1078388776974
 31
0.0
  0
LINE
  5
1A3D
330
18
100
AcDbEntity
  8
外形線
100
AcDbLine
 10
404.1253069147161
 20
234.8078388776974
 30
0.0
 11
410.1253069147161
 21
234.8078388776974
 31
0.0
  0
LINE
  5
1A3E
330
18
100
AcDbEntity
  8
外形線
100
AcDbLine
 10
405.1253069147161
 20
230.8078388776974
 30
0.0
 11
409.1253069147161
 21
230.8078388776974
 31
0.0
  0
LINE
  5
1A3F
330
18
100
AcDbEntity
  8
外形線
100
AcDbLine
 10
405.125306914716
 20
225.8078388776973
 30
0.0
 11
409.1253069147161
 21
225.8078388776974
 31
0.0
  0
ARC
  5
1A40
330
18
100
AcDbEntity
  8
外形線
100
AcDbCircle
 10
404.1253069147161
 20
235.8078388776974
 30
0.0
 40
1.0
100
AcDbArc
 50
180.0
 51
270.0
  0
ARC
  5
1A41
330
18
100
AcDbEntity
  8
外形線
100
AcDbCircle
 10
410.1253069147161
 20
235.8078388776974
 30
0.0
 40
1.0
100
AcDbArc
 50
270.0
 51
0.0
  0
INSERT
  5
1A42
330
18
100
AcDbEntity
  8
0
  6
ByBlock
 62
     2
100
AcDbBlockReference
  2
_OPEN
 10
411.1253069147161
 20
248.6471346566074
 30
0.0
 41
2.5
 42
2.5
 43
2.5
  0
MTEXT
  5
1A43
330
18
100
AcDbEntity
  8
0
  6
ByBlock
 62
     6
100
AcDbMText
 10
407.9364094048572
 20
250.5221346566074
 30
0.0
 40
2.5
 41
0.0
 71
     5
 72
     1
  1
8.0
  7
STYLE3
 73
     1
 44
1.0
  0
INSERT
  5
1A44
330
18
100
AcDbEntity
  8
0
  6
ByBlock
 62
     2
100
AcDbBlockReference
  2
_OPEN
 10
403.1253069147161
 20
248.6471346566074
 30
0.0
 41
2.5
 42
2.5
 43
2.5
 50
180.0
  0
POINT
  5
1A45
330
18
100
AcDbEntity
  8
DEFPOINTS
  6
ByBlock
 62
     0
100
AcDbPoint
 10
403.1253069147161
 20
248.0798317793387
 30
0.0
  0
LINE
  5
1A46
330
18
100
AcDbEntity
  8
0
  6
ByBlock
 62
     2
100
AcDbLine
 10
405.6253069147161
 20
248.6471346566074
 30
0.0
 11
408.6253069147161
 21
248.6471346566074
 31
0.0
  0
TEXT
  5
1A47
330
18
100
AcDbEntity
  8
文字
100
AcDbText
 10
403.0617748543496
 20
250.5894568910221
 30
0.0
 40
2.5
  1
φ
  7
STYLE3
100
AcDbText
  0
POINT
  5
1A49
330
18
100
AcDbEntity
  8
DEFPOINTS
  6
ByBlock
 62
     0
100
AcDbPoint
 10
411.1253069147161
 20
247.917745437993
 30
0.0
  0
POINT
  5
1A4A
330
18
100
AcDbEntity
  8
DEFPOINTS
  6
ByBlock
 62
     0
100
AcDbPoint
 10
411.1253069147161
 20
248.6471346566074
 30
0.0
  0
POINT
  5
1A6D
330
18
100
AcDbEntity
  8
DEFPOINTS
  6
ByBlock
 62
     0
100
AcDbPoint
 10
323.9285804348173
 20
289.4412635545098
 30
0.0
  0
POINT
  5
1A6E
330
18
100
AcDbEntity
  8
DEFPOINTS
  6
ByBlock
 62
     0
100
AcDbPoint
 10
326.5242678689318
 20
291.0885368905915
 30
0.0
  0
LINE
  5
1AAF
330
18
100
AcDbEntity
  8
0
  6
ByBlock
 62
     2
100
AcDbLine
 10
405.4253069147161
 20
224.8078388776974
 30
0.0
 11
395.7729875036091
 21
224.8078388776974
 31
0.0
  0
LINE
  5
1AB2
330
18
100
AcDbEntity
  8
0
  6
ByBlock
 62
     2
100
AcDbLine
 10
397.0229875036091
 20
230.8078388776974
 30
0.0
 11
397.0229875036091
 21
224.8078388776974
 31
0.0
  0
MTEXT
  5
1AB5
330
18
100
AcDbEntity
  8
0
  6
ByBlock
 62
     6
100
AcDbMText
 10
395.1479875036091
 20
227.8078388776974
 30
0.0
 40
2.5
 41
0.0
 71
     5
 72
     1
  1
\A1;6
  7
STYLE3
 11
0.0000000000000001
 21
1.0
 31
0.0
 73
     1
 44
1.0
  0
POINT
  5
1AB6
330
18
100
AcDbEntity
  8
DEFPOINTS
  6
ByBlock
 62
     0
100
AcDbPoint
 10
405.1253069147161
 20
230.8078388776974
 30
0.0
  0
POINT
  5
1AB7
330
18
100
AcDbEntity
  8
DEFPOINTS
  6
ByBlock
 62
     0
100
AcDbPoint
 10
405.4253069147161
 20
224.8078388776974
 30
0.0
  0
POINT
  5
1AB8
330
18
100
AcDbEntity
  8
DEFPOINTS
  6
ByBlock
 62
     0
100
AcDbPoint
 10
397.0229875036091
 20
224.8078388776974
 30
0.0
  0
LINE
  5
1AB9
330
18
100
AcDbEntity
  8
0
  6
ByBlock
 62
     2
100
AcDbLine
 10
394.7677338047443
 20
234.8078388776974
 30
0.0
 11
385.7999866823454
 21
234.8078388776974
 31
0.0
  0
LINE
  5
1ABA
330
18
100
AcDbEntity
  8
0
  6
ByBlock
 62
     2
100
AcDbLine
 10
405.1253069147161
 20
230.8078388776974
 30
0.0
 11
395.7729875036091
 21
230.8078388776974
 31
0.0
  0
LINE
  5
1ABC
330
18
100
AcDbEntity
  8
0
  6
ByBlock
 62
     2
100
AcDbLine
 10
397.0229875036091
 20
228.3078388776974
 30
0.0
 11
397.0229875036091
 21
225.8078388776974
 31
0.0
  0
INSERT
  5
1ABF
330
18
100
AcDbEntity
  8
0
  6
ByBlock
 62
     2
100
AcDbBlockReference
  2
_OPEN
 10
397.0229875036091
 20
230.8078388776974
 30
0.0
 41
2.5
 42
2.5
 43
2.5
 50
90.0
  0
POINT
  5
1AC1
330
18
100
AcDbEntity
  8
DEFPOINTS
  6
ByBlock
 62
     0
100
AcDbPoint
 10
394.7677338047443
 20
234.8078388776974
 30
0.0
  0
POINT
  5
1AC2
330
18
100
AcDbEntity
  8
DEFPOINTS
  6
ByBlock
 62
     0
100
AcDbPoint
 10
405.1253069147161
 20
230.8078388776974
 30
0.0
  0
POINT
  5
1AC3
330
18
100
AcDbEntity
  8
DEFPOINTS
  6
ByBlock
 62
     0
100
AcDbPoint
 10
397.0229875036091
 20
230.8078388776974
 30
0.0
  0
INSERT
  5
1AC4
330
18
100
AcDbEntity
  8
0
  6
ByBlock
 62
     2
100
AcDbBlockReference
  2
_OPEN
 10
397.0229875036091
 20
224.8078388776974
 30
0.0
 41
-2.5
 42
2.5
 43
2.5
 50
90.0
  0
LINE
  5
1B04
330
18
100
AcDbEntity
  8
0
  6
ByBlock
 62
     2
100
AcDbLine
 10
405.1253069147161
 20
225.1078388776974
 30
0.0
 11
405.1253069147161
 21
210.8442136915673
 31
0.0
  0
LINE
  5
1B05
330
18
100
AcDbEntity
  8
0
  6
ByBlock
 62
     2
100
AcDbLine
 10
409.1253069147161
 20
225.8078388776974
 30
0.0
 11
409.1253069147161
 21
210.8442136915673
 31
0.0
  0
LINE
  5
1B06
330
18
100
AcDbEntity
  8
0
  6
ByBlock
 62
     2
100
AcDbLine
 10
402.6253069147161
 20
212.0942136915673
 30
0.0
 11
400.1253069147161
 21
212.0942136915673
 31
0.0
  0
LINE
  5
1B07
330
18
100
AcDbEntity
  8
0
  6
ByBlock
 62
     2
100
AcDbLine
 10
411.6253069147162
 20
212.0942136915673
 30
0.0
 11
417.0971768028729
 21
212.0942136915673
 31
0.0
  0
LINE
  5
1B08
330
18
100
AcDbEntity
  8
0
  6
ByBlock
 62
     2
100
AcDbLine
 10
405.1253069147161
 20
212.0942136915673
 30
0.0
 11
409.1253069147161
 21
212.0942136915673
 31
0.0
  0
INSERT
  5
1B09
330
18
100
AcDbEntity
  8
0
  6
ByBlock
 62
     2
100
AcDbBlockReference
  2
_OPEN
 10
405.1253069147161
 20
212.0942136915673
 30
0.0
 41
2.5
 42
2.5
 43
2.5
  0
INSERT
  5
1B0A
330
18
100
AcDbEntity
  8
0
  6
ByBlock
 62
     2
100
AcDbBlockReference
  2
_OPEN
 10
409.1253069147161
 20
212.0942136915673
 30
0.0
 41
2.5
 42
2.5
 43
2.5
 50
180.0
  0
MTEXT
  5
1B0B
330
18
100
AcDbEntity
  8
0
  6
ByBlock
 62
     6
100
AcDbMText
 10
414.1507482314443
 20
213.9692136915673
 30
0.0
 40
2.5
 41
0.0
 71
     5
 72
     1
  1
\A1;φ4
  7
STYLE3
 73
     1
 44
1.0
  0
POINT
  5
1B0C
330
18
100
AcDbEntity
  8
DEFPOINTS
  6
ByBlock
 62
     0
100
AcDbPoint
 10
405.1253069147161
 20
225.1078388776974
 30
0.0
  0
POINT
  5
1B0D
330
18
100
AcDbEntity
  8
DEFPOINTS
  6
ByBlock
 62
     0
100
AcDbPoint
 10
409.1253069147161
 20
225.8078388776974
 30
0.0
  0
POINT
  5
1B0E
330
18
100
AcDbEntity
  8
DEFPOINTS
  6
ByBlock
 62
     0
100
AcDbPoint
 10
409.1253069147161
 20
212.0942136915673
 30
0.0
  0
LINE
  5
1B4C
330
18
100
AcDbEntity
  8
目盛
100
AcDbLine
 10
336.5600577064553
 20
274.7847938918858
 30
0.0
 11
338.147077887645
 21
272.6004480070735
 31
0.0
  0
LINE
  5
1B55
330
18
100
AcDbEntity
  8
目盛
100
AcDbLine
 10
338.2051480665652
 20
274.795906806573
 30
0.0
 11
339.288768849138
 21
273.4860342938542
 31
0.0
  0
LINE
  5
1B56
330
18
100
AcDbEntity
  8
目盛
100
AcDbLine
 10
339.2088704411992
 20
275.6808071136212
 30
0.0
 11
340.3726005212779
 21
274.4415604470048
 31
0.0
  0
LINE
  5
1B57
330
18
100
AcDbEntity
  8
目盛
100
AcDbLine
 10
340.1550488489942
 20
276.6269855214162
 30
0.0
 11
341.3942955156106
 21
275.4632554413374
 31
0.0
  0
LINE
  5
1B58
330
18
100
AcDbEntity
  8
目盛
100
AcDbLine
 10
341.0399491560424
 20
277.6307078960503
 30
0.0
 11
342.3498216687613
 21
276.5470871134774
 31
0.0
  0
LINE
  5
1BA5
330
18
100
AcDbEntity
  8
目盛
100
AcDbLine
 10
343.2933493698525
 20
280.9464856193308
 30
0.0
 11
344.7830707259269
 21
280.1275043733578
 31
0.0
  0
LINE
  5
1BA6
330
18
100
AcDbEntity
  8
目盛
100
AcDbLine
 10
343.9008333024444
 20
282.1387399673612
 30
0.0
 11
345.4390392916366
 21
281.4149151717005
 31
0.0
  0
LINE
  5
1BA7
330
18
100
AcDbEntity
  8
目盛
100
AcDbLine
 10
342.612201898111
 20
279.7947281446446
 30
0.0
 11
344.0475593714645
 21
278.8838225931804
 31
0.0
  0
LINE
  5
1BA8
330
18
100
AcDbEntity
  8
目盛
100
AcDbLine
 10
341.0510620707296
 20
279.27579825616
 30
0.0
 11
343.2354079555419
 21
277.6887780749704
 31
0.0
  0
LINE
  5
1BA9
330
18
100
AcDbEntity
  8
目盛
100
AcDbLine
 10
344.4322562343379
 20
283.3667859055136
 30
0.0
 11
346.0128762603479
 21
282.7409741659496
 31
0.0
  0
LINE
  5
1BAA
330
18
100
AcDbEntity
  8
目盛
100
AcDbLine
 10
345.5507355254393
 20
287.2166168770213
 30
0.0
 11
347.220623851678
 21
286.8980686422256
 31
0.0
  0
LINE
  5
1BAB
330
18
100
AcDbEntity
  8
目盛
100
AcDbLine
 10
345.7600602229166
 20
288.5382410027776
 30
0.0
 11
347.4466552151512
 21
288.3251745057182
 31
0.0
  0
LINE
  5
1BAC
330
18
100
AcDbEntity
  8
目盛
100
AcDbLine
 10
345.2588384169581
 20
285.9107442810858
 30
0.0
 11
346.9054297908767
 21
285.4879714729057
 31
0.0
  0
LINE
  5
1BAD
330
18
100
AcDbEntity
  8
目盛
100
AcDbLine
 10
343.9344643657098
 20
284.9347938918858
 30
0.0
 11
346.5023169597067
 21
284.1004480070735
 31
0.0
  0
LINE
  5
1BAE
330
18
100
AcDbEntity
  8
目盛
100
AcDbLine
 10
345.8859864004404
 20
289.8704008117229
 30
0.0
 11
347.5826318387684
 21
289.763656928523
 31
0.0
  0
LINE
  5
1BAF
330
18
100
AcDbEntity
  8
目盛
100
AcDbLine
 10
345.7600602229166
 20
293.877436752617
 30
0.0
 11
347.4466552151512
 21
294.0905032496762
 31
0.0
  0
LINE
  5
1BB0
330
18
100
AcDbEntity
  8
目盛
100
AcDbLine
 10
345.5507355254393
 20
295.1990608783733
 30
0.0
 11
347.220623851678
 21
295.5176091131688
 31
0.0
  0
LINE
  5
1BB1
330
18
100
AcDbEntity
  8
目盛
100
AcDbLine
 10
345.8859864004404
 20
292.5452769436716
 30
0.0
 11
347.5826318387684
 21
292.6520208268715
 31
0.0
  0
LINE
  5
1BB2
330
18
100
AcDbEntity
  8
目盛
100
AcDbLine
 10
344.9280170849182
 20
291.2078388776972
 30
0.0
 11
347.6280170849182
 21
291.2078388776972
 31
0.0
  0
LINE
  5
1BB3
330
18
100
AcDbEntity
  8
目盛
100
AcDbLine
 10
345.2588384169581
 20
296.5049334743087
 30
0.0
 11
346.9054297908767
 21
296.9277062824888
 31
0.0
  0
LINE
  5
1BB4
330
18
100
AcDbEntity
  8
目盛
100
AcDbLine
 10
343.9008333024445
 20
300.2769377880334
 30
0.0
 11
345.4390392916367
 21
301.0007625836939
 31
0.0
  0
LINE
  5
1BB5
330
18
100
AcDbEntity
  8
目盛
100
AcDbLine
 10
343.2933493698525
 20
301.4691921360638
 30
0.0
 11
344.7830707259271
 21
302.2881733820366
 31
0.0
  0
LINE
  5
1BB6
330
18
100
AcDbEntity
  8
目盛
100
AcDbLine
 10
344.432256234338
 20
299.0488918498808
 30
0.0
 11
346.012876260348
 21
299.6747035894448
 31
0.0
  0
LINE
  5
1BB7
330
18
100
AcDbEntity
  8
目盛
100
AcDbLine
 10
343.9344643657099
 20
297.4808838635087
 30
0.0
 11
346.5023169597068
 21
298.315229748321
 31
0.0
  0
LINE
  5
1BB8
330
18
100
AcDbEntity
  8
目盛
100
AcDbLine
 10
342.6122018981112
 20
302.6209496107499
 30
0.0
 11
344.0475593714647
 21
303.5318551622141
 31
0.0
  0
LINE
  5
1BB9
330
18
100
AcDbEntity
  8
目盛
100
AcDbLine
 10
340.1550488489944
 20
305.7886922339784
 30
0.0
 11
341.3942955156108
 21
306.9524223140571
 31
0.0
  0
LINE
  5
1BBA
330
18
100
AcDbEntity
  8
目盛
100
AcDbLine
 10
339.2088704411994
 20
306.7348706417734
 30
0.0
 11
340.3726005212782
 21
307.9741173083897
 31
0.0
  0
LINE
  5
1BBB
330
18
100
AcDbEntity
  8
目盛
100
AcDbLine
 10
341.0399491560426
 20
304.7849698593444
 30
0.0
 11
342.3498216687615
 21
305.8685906419171
 31
0.0
  0
LINE
  5
1BBC
330
18
100
AcDbEntity
  8
目盛
100
AcDbLine
 10
341.0510620707298
 20
303.1398794992345
 30
0.0
 11
343.2354079555421
 21
304.7268996804242
 31
0.0
  0
LINE
  5
1BBD
330
18
100
AcDbEntity
  8
目盛
100
AcDbLine
 10
338.2051480665654
 20
307.6197709488216
 30
0.0
 11
339.2887688491383
 21
308.9296434615404
 31
0.0
  0
LINE
  5
1BBE
330
18
100
AcDbEntity
  8
目盛
100
AcDbLine
 10
334.8893703432848
 20
309.8731711626316
 30
0.0
 11
335.7083515892577
 21
311.3628925187062
 31
0.0
  0
LINE
  5
1BBF
330
18
100
AcDbEntity
  8
目盛
100
AcDbLine
 10
333.6971159952543
 20
310.4806550952235
 30
0.0
 11
334.420940790915
 21
312.0188610844157
 31
0.0
  0
LINE
  5
1BC0
330
18
100
AcDbEntity
  8
目盛
100
AcDbLine
 10
336.0411278179709
 20
309.1920236908902
 30
0.0
 11
336.9520333694352
 21
310.6273811642437
 31
0.0
  0
LINE
  5
1BC1
330
18
100
AcDbEntity
  8
目盛
100
AcDbLine
 10
336.5600577064555
 20
307.6308838635087
 30
0.0
 11
338.1470778876452
 21
309.8152297483211
 31
0.0
  0
LINE
  5
1BC2
330
18
100
AcDbEntity
  8
目盛
100
AcDbLine
 10
332.4690700571019
 20
311.0120780271171
 30
0.0
 11
333.0948817966659
 21
312.5926980531271
 31
0.0
  0
LINE
  5
1BC3
330
18
100
AcDbEntity
  8
目盛
100
AcDbLine
 10
328.6192390855942
 20
312.1305573182184
 30
0.0
 11
328.93778732039
 21
313.8004456444572
 31
0.0
  0
LINE
  5
1BC4
330
18
100
AcDbEntity
  8
目盛
100
AcDbLine
 10
327.297614959838
 20
312.3398820156958
 30
0.0
 11
327.5106814568974
 21
314.0264770079304
 31
0.0
  0
LINE
  5
1BC5
330
18
100
AcDbEntity
  8
目盛
100
AcDbLine
 10
329.9251116815298
 20
311.8386602097372
 30
0.0
 11
330.34788448971
 21
313.4852515836558
 31
0.0
  0
LINE
  5
1BC6
330
18
100
AcDbEntity
  8
目盛
100
AcDbLine
 10
330.9010620707298
 20
310.514286158489
 30
0.0
 11
331.7354079555422
 21
313.0821387524858
 31
0.0
  0
LINE
  5
1BC7
330
18
100
AcDbEntity
  8
目盛
100
AcDbLine
 10
325.9654551508927
 20
312.4658081932195
 30
0.0
 11
326.0721990340926
 21
314.1624536315476
 31
0.0
  0
LINE
  5
1BC8
330
18
100
AcDbEntity
  8
目盛
100
AcDbLine
 10
321.9584192099986
 20
312.3398820156958
 30
0.0
 11
321.7453527129393
 21
314.0264770079304
 31
0.0
  0
LINE
  5
1BC9
330
18
100
AcDbEntity
  8
目盛
100
AcDbLine
 10
320.6367950842424
 20
312.1305573182184
 30
0.0
 11
320.3182468494467
 21
313.8004456444573
 31
0.0
  0
LINE
  5
1BCA
330
18
100
AcDbEntity
  8
目盛
100
AcDbLine
 10
323.290579018944
 20
312.4658081932196
 30
0.0
 11
323.1838351357441
 21
314.1624536315476
 31
0.0
  0
LINE
  5
1BCB
330
18
100
AcDbEntity
  8
目盛
100
AcDbLine
 10
324.6280170849183
 20
311.5078388776975
 30
0.0
 11
324.6280170849184
 21
314.2078388776974
 31
0.0
  0
LINE
  5
1BCC
330
18
100
AcDbEntity
  8
目盛
100
AcDbLine
 10
319.3309224883069
 20
311.8386602097372
 30
0.0
 11
318.9081496801267
 21
313.485251583656
 31
0.0
  0
LINE
  5
1BCD
330
18
100
AcDbEntity
  8
目盛
100
AcDbLine
 10
315.5589181745822
 20
310.4806550952237
 30
0.0
 11
314.8350933789217
 21
312.018861084416
 31
0.0
  0
LINE
  5
1BCE
330
18
100
AcDbEntity
  8
目盛
100
AcDbLine
 10
314.3666638265518
 20
309.8731711626318
 30
0.0
 11
313.5476825805789
 21
311.3628925187064
 31
0.0
  0
LINE
  5
1BCF
330
18
100
AcDbEntity
  8
目盛
100
AcDbLine
 10
316.7869641127347
 20
311.0120780271172
 30
0.0
 11
316.1611523731707
 21
312.5926980531272
 31
0.0
  0
LINE
  5
1BD0
330
18
100
AcDbEntity
  8
目盛
100
AcDbLine
 10
318.3549720991069
 20
310.5142861584891
 30
0.0
 11
317.5206262142946
 21
313.0821387524859
 31
0.0
  0
LINE
  5
1BD1
330
18
100
AcDbEntity
  8
目盛
100
AcDbLine
 10
313.2149063518657
 20
309.1920236908903
 30
0.0
 11
312.3040008004015
 21
310.6273811642438
 31
0.0
  0
LINE
  5
1BD2
330
18
100
AcDbEntity
  8
目盛
100
AcDbLine
 10
310.0471637286373
 20
306.7348706417736
 30
0.0
 11
308.8834336485585
 21
307.97411730839
 31
0.0
  0
LINE
  5
1BD3
330
18
100
AcDbEntity
  8
目盛
100
AcDbLine
 10
309.1009853208423
 20
305.7886922339786
 30
0.0
 11
307.8617386542259
 21
306.9524223140574
 31
0.0
  0
LINE
  5
1BD4
330
18
100
AcDbEntity
  8
目盛
100
AcDbLine
 10
311.0508861032713
 20
307.6197709488218
 30
0.0
 11
309.9672653206985
 21
308.9296434615406
 31
0.0
  0
LINE
  5
1BD5
330
18
100
AcDbEntity
  8
目盛
100
AcDbLine
 10
312.6959764633812
 20
307.630883863509
 30
0.0
 11
311.1089562821915
 21
309.8152297483213
 31
0.0
  0
LINE
  5
1BD6
330
18
100
AcDbEntity
  8
目盛
100
AcDbLine
 10
308.216085013794
 20
304.7849698593446
 30
0.0
 11
306.9062125010753
 21
305.8685906419174
 31
0.0
  0
LINE
  5
1BD7
330
18
100
AcDbEntity
  8
目盛
100
AcDbLine
 10
305.962684799984
 20
301.469192136064
 30
0.0
 11
304.4729634439095
 21
302.288173382037
 31
0.0
  0
LINE
  5
1BD8
330
18
100
AcDbEntity
  8
目盛
100
AcDbLine
 10
305.3552008673921
 20
300.2769377880335
 30
0.0
 11
303.8169948781999
 21
301.0007625836942
 31
0.0
  0
LINE
  5
1BD9
330
18
100
AcDbEntity
  8
目盛
100
AcDbLine
 10
306.6438322717254
 20
302.6209496107502
 30
0.0
 11
305.208474798372
 21
303.5318551622144
 31
0.0
  0
LINE
  5
1BDA
330
18
100
AcDbEntity
  8
目盛
100
AcDbLine
 10
308.2049720991069
 20
303.1398794992348
 30
0.0
 11
306.0206262142945
 21
304.7268996804244
 31
0.0
  0
LINE
  5
1BDB
330
18
100
AcDbEntity
  8
目盛
100
AcDbLine
 10
304.8237779354986
 20
299.0488918498812
 30
0.0
 11
303.2431579094886
 21
299.6747035894452
 31
0.0
  0
LINE
  5
1BDC
330
18
100
AcDbEntity
  8
目盛
100
AcDbLine
 10
303.7052986443972
 20
295.1990608783733
 30
0.0
 11
302.0354103181584
 21
295.5176091131692
 31
0.0
  0
LINE
  5
1BDD
330
18
100
AcDbEntity
  8
目盛
100
AcDbLine
 10
303.4959739469198
 20
293.8774367526171
 30
0.0
 11
301.8093789546853
 21
294.0905032496765
 31
0.0
  0
LINE
  5
1BDE
330
18
100
AcDbEntity
  8
目盛
100
AcDbLine
 10
303.9971957528785
 20
296.5049334743089
 30
0.0
 11
302.3506043789597
 21
296.9277062824891
 31
0.0
  0
LINE
  5
1BDF
330
18
100
AcDbEntity
  8
目盛
100
AcDbLine
 10
305.3215698041266
 20
297.4808838635089
 30
0.0
 11
302.7537172101297
 21
298.3152297483213
 31
0.0
  0
LINE
  5
1BE0
330
18
100
AcDbEntity
  8
目盛
100
AcDbLine
 10
303.3700477693961
 20
292.5452769436718
 30
0.0
 11
301.673402331068
 21
292.6520208268717
 31
0.0
  0
LINE
  5
1BE1
330
18
100
AcDbEntity
  8
目盛
100
AcDbLine
 10
303.4959739469198
 20
288.5382410027779
 30
0.0
 11
301.8093789546852
 21
288.3251745057185
 31
0.0
  0
LINE
  5
1BE2
330
18
100
AcDbEntity
  8
目盛
100
AcDbLine
 10
303.7052986443971
 20
287.2166168770216
 30
0.0
 11
302.0354103181584
 21
286.8980686422259
 31
0.0
  0
LINE
  5
1BE3
330
18
100
AcDbEntity
  8
目盛
100
AcDbLine
 10
303.370047769396
 20
289.8704008117232
 30
0.0
 11
301.673402331068
 21
289.7636569285233
 31
0.0
  0
LINE
  5
1BE4
330
18
100
AcDbEntity
  8
目盛
100
AcDbLine
 10
304.3280170849182
 20
291.2078388776976
 30
0.0
 11
301.6280170849182
 21
291.2078388776976
 31
0.0
  0
LINE
  5
1BE5
330
18
100
AcDbEntity
  8
目盛
100
AcDbLine
 10
303.9971957528784
 20
285.9107442810861
 30
0.0
 11
302.3506043789597
 21
285.4879714729059
 31
0.0
  0
LINE
  5
1BE6
330
18
100
AcDbEntity
  8
目盛
100
AcDbLine
 10
305.355200867392
 20
282.1387399673615
 30
0.0
 11
303.8169948781996
 21
281.4149151717009
 31
0.0
  0
LINE
  5
1BE7
330
18
100
AcDbEntity
  8
目盛
100
AcDbLine
 10
305.9626847999838
 20
280.946485619331
 30
0.0
 11
304.4729634439093
 21
280.1275043733582
 31
0.0
  0
LINE
  5
1BE8
330
18
100
AcDbEntity
  8
目盛
100
AcDbLine
 10
304.8237779354983
 20
283.366785905514
 30
0.0
 11
303.2431579094884
 21
282.74097416595
 31
0.0
  0
LINE
  5
1BE9
330
18
100
AcDbEntity
  8
目盛
100
AcDbLine
 10
305.3215698041265
 20
284.9347938918861
 30
0.0
 11
302.7537172101296
 21
284.1004480070738
 31
0.0
  0
LINE
  5
1BEA
330
18
100
AcDbEntity
  8
目盛
100
AcDbLine
 10
306.6438322717253
 20
279.7947281446449
 30
0.0
 11
305.2084747983717
 21
278.8838225931807
 31
0.0
  0
LINE
  5
1BEB
330
18
100
AcDbEntity
  8
目盛
100
AcDbLine
 10
314.3666638265516
 20
272.5425065927631
 30
0.0
 11
313.5476825805786
 21
271.0527852366886
 31
0.0
  0
LINE
  5
1BEC
330
18
100
AcDbEntity
  8
目盛
100
AcDbLine
 10
315.5589181745821
 20
271.9350226601712
 30
0.0
 11
314.8350933789214
 21
270.396816670979
 31
0.0
  0
LINE
  5
1BED
330
18
100
AcDbEntity
  8
目盛
100
AcDbLine
 10
313.2149063518655
 20
273.2236540645045
 30
0.0
 11
312.3040008004012
 21
271.7882965911512
 31
0.0
  0
LINE
  5
1BEE
330
18
100
AcDbEntity
  8
目盛
100
AcDbLine
 10
312.6959764633809
 20
274.784793891886
 30
0.0
 11
311.1089562821912
 21
272.6004480070737
 31
0.0
  0
TEXT
  5
1BF7
330
18
100
AcDbEntity
  8
文字
100
AcDbText
 10
338.9110889594622
 20
284.1646375762212
 30
0.0
 40
2.5
  1
30
  7
STYLE3
100
AcDbText
  0
TEXT
  5
1BF8
330
18
100
AcDbEntity
  8
文字
100
AcDbText
 10
332.7163220931745
 20
304.5518115483971
 30
0.0
 40
2.5
  1
10
  7
STYLE3
100
AcDbText
  0
TEXT
  5
1BF9
330
18
100
AcDbEntity
  8
文字
100
AcDbText
 10
323.4238703658255
 20
308.5273816119815
 30
0.0
 40
2.5
  1
0
  7
STYLE3
100
AcDbText
  0
POINT
  5
1C10
330
18
100
AcDbEntity
  8
DEFPOINTS
  6
ByBlock
 62
     0
100
AcDbPoint
 10
323.9285804348173
 20
289.4412635545098
 30
0.0
  0
POINT
  5
1C11
330
18
100
AcDbEntity
  8
DEFPOINTS
  6
ByBlock
 62
     0
100
AcDbPoint
 10
326.091992246192
 20
289.9967332971748
 30
0.0
  0
POINT
  5
1C12
330
18
100
AcDbEntity
  8
DEFPOINTS
  6
ByBlock
 62
     0
100
AcDbPoint
 10
338.147077887645
 20
272.6004480070735
 30
0.0
  0
LINE
  5
1C7A
330
18
100
AcDbEntity
  8
外形線
100
AcDbLine
 10
413.6253069147161
 20
315.7078388776974
 30
0.0
 11
413.6253069147161
 21
266.7078388776974
 31
0.0
  0
LINE
  5
1D05
330
18
100
AcDbEntity
  8
0
  6
ByBlock
 62
     2
100
AcDbLine
 10
413.6253069147161
 20
315.7078388776974
 30
0.0
 11
413.6253069147161
 21
341.6606572467305
 31
0.0
  0
LINE
  5
1D06
330
18
100
AcDbEntity
  8
0
  6
ByBlock
 62
     2
100
AcDbLine
 10
409.625306914716
 20
340.4106572467305
 30
0.0
 11
411.1253069147162
 21
340.4106572467305
 31
0.0
  0
INSERT
  5
1D07
330
18
100
AcDbEntity
  8
0
  6
ByBlock
 62
     2
100
AcDbBlockReference
  2
_OPEN
 10
407.125306914716
 20
340.4106572467305
 30
0.0
 41
2.5
 42
2.5
 43
2.5
 50
180.0
  0
INSERT
  5
1D08
330
18
100
AcDbEntity
  8
0
  6
ByBlock
 62
     2
100
AcDbBlockReference
  2
_OPEN
 10
413.6253069147161
 20
340.4106572467305
 30
0.0
 41
2.5
 42
2.5
 43
2.5
  0
MTEXT
  5
1D09
330
18
100
AcDbEntity
  8
0
  6
ByBlock
 62
     6
100
AcDbMText
 10
410.3753069147161
 20
342.2856572467305
 30
0.0
 40
2.5
 41
0.0
 71
     5
 72
     1
  1
\A1;6.5
  7
STYLE3
 73
     1
 44
1.0
  0
POINT
  5
1D0A
330
18
100
AcDbEntity
  8
DEFPOINTS
  6
ByBlock
 62
     0
100
AcDbPoint
 10
407.125306914716
 20
332.7078388776974
 30
0.0
  0
POINT
  5
1D0B
330
18
100
AcDbEntity
  8
DEFPOINTS
  6
ByBlock
 62
     0
100
AcDbPoint
 10
413.6253069147161
 20
315.7078388776974
 30
0.0
  0
POINT
  5
1D0C
330
18
100
AcDbEntity
  8
DEFPOINTS
  6
ByBlock
 62
     0
100
AcDbPoint
 10
413.6253069147161
 20
340.4106572467305
 30
0.0
  0
TEXT
  5
1D0D
330
18
100
AcDbEntity
  8
文字
100
AcDbText
 10
413.4715408110102
 20
251.3669561805139
 30
0.0
 40
1.5
  1
0
  7
STYLE3
100
AcDbText
  0
TEXT
  5
1D0E
330
18
100
AcDbEntity
  8
文字
100
AcDbText
 10
411.6393831767505
 20
249.6156691510627
 30
0.0
 40
1.5
  1
-0.03
  7
STYLE3
100
AcDbText
  0
LINE
  5
1D0F
330
18
100
AcDbEntity
  8
0
  6
ByBlock
 62
     2
100
AcDbLine
 10
392.625306914716
 20
291.2078388776974
 30
0.0
 11
392.625306914716
 21
341.6606572467305
 31
0.0
  0
LINE
  5
1D10
330
18
100
AcDbEntity
  8
0
  6
ByBlock
 62
     2
100
AcDbLine
 10
407.125306914716
 20
332.7078388776974
 30
0.0
 11
407.125306914716
 21
341.6606572467305
 31
0.0
  0
LINE
  5
1D11
330
18
100
AcDbEntity
  8
0
  6
ByBlock
 62
     2
100
AcDbLine
 10
395.125306914716
 20
340.4106572467305
 30
0.0
 11
404.625306914716
 21
340.4106572467305
 31
0.0
  0
INSERT
  5
1D12
330
18
100
AcDbEntity
  8
0
  6
ByBlock
 62
     2
100
AcDbBlockReference
  2
_OPEN
 10
392.625306914716
 20
340.4106572467305
 30
0.0
 41
2.5
 42
2.5
 43
2.5
 50
180.0
  0
INSERT
  5
1D13
330
18
100
AcDbEntity
  8
0
  6
ByBlock
 62
     2
100
AcDbBlockReference
  2
_OPEN
 10
407.125306914716
 20
340.4106572467305
 30
0.0
 41
2.5
 42
2.5
 43
2.5
  0
MTEXT
  5
1D14
330
18
100
AcDbEntity
  8
0
  6
ByBlock
 62
     6
100
AcDbMText
 10
399.875306914716
 20
342.2856572467305
 30
0.0
 40
2.5
 41
0.0
 71
     5
 72
     1
  1
\A1;14.5
  7
STYLE3
 73
     1
 44
1.0
  0
POINT
  5
1D15
330
18
100
AcDbEntity
  8
DEFPOINTS
  6
ByBlock
 62
     0
100
AcDbPoint
 10
392.625306914716
 20
291.2078388776974
 30
0.0
  0
POINT
  5
1D16
330
18
100
AcDbEntity
  8
DEFPOINTS
  6
ByBlock
 62
     0
100
AcDbPoint
 10
407.125306914716
 20
332.7078388776974
 30
0.0
  0
POINT
  5
1D17
330
18
100
AcDbEntity
  8
DEFPOINTS
  6
ByBlock
 62
     0
100
AcDbPoint
 10
407.125306914716
 20
340.4106572467305
 30
0.0
  0
LINE
  5
1D18
330
18
100
AcDbEntity
  8
0
  6
ByBlock
 62
     2
100
AcDbLine
 10
396.8253069147161
 20
317.6078388776974
 30
0.0
 11
380.6547975618275
 21
317.6078388776974
 31
0.0
  0
LINE
  5
1D19
330
18
100
AcDbEntity
  8
0
  6
ByBlock
 62
     2
100
AcDbLine
 10
396.8253069147161
 20
264.8078388776974
 30
0.0
 11
380.6547975618275
 21
264.8078388776974
 31
0.0
  0
LINE
  5
1D1A
330
18
100
AcDbEntity
  8
0
  6
ByBlock
 62
     2
100
AcDbLine
 10
381.9047975618275
 20
315.1078388776974
 30
0.0
 11
381.9047975618275
 21
267.3078388776974
 31
0.0
  0
INSERT
  5
1D1B
330
18
100
AcDbEntity
  8
0
  6
ByBlock
 62
     2
100
AcDbBlockReference
  2
_OPEN
 10
381.9047975618275
 20
317.6078388776974
 30
0.0
 41
2.5
 42
2.5
 43
2.5
 50
90.0
  0
INSERT
  5
1D1C
330
18
100
AcDbEntity
  8
0
  6
ByBlock
 62
     2
100
AcDbBlockReference
  2
_OPEN
 10
381.9047975618275
 20
264.8078388776974
 30
0.0
 41
2.5
 42
2.5
 43
2.5
 50
270.0
  0
MTEXT
  5
1D1D
330
18
100
AcDbEntity
  8
0
  6
ByBlock
 62
     6
100
AcDbMText
 10
380.0297975618275
 20
291.2078388776974
 30
0.0
 40
2.5
 41
0.0
 71
     5
 72
     1
  1
\A1;φ53
  7
STYLE3
 11
0.0000000000000001
 21
1.0
 31
0.0
 73
     1
 44
1.0
  0
POINT
  5
1D1E
330
18
100
AcDbEntity
  8
DEFPOINTS
  6
ByBlock
 62
     0
100
AcDbPoint
 10
396.8253069147161
 20
317.6078388776974
 30
0.0
  0
POINT
  5
1D1F
330
18
100
AcDbEntity
  8
DEFPOINTS
  6
ByBlock
 62
     0
100
AcDbPoint
 10
396.8253069147161
 20
264.8078388776974
 30
0.0
  0
POINT
  5
1D20
330
18
100
AcDbEntity
  8
DEFPOINTS
  6
ByBlock
 62
     0
100
AcDbPoint
 10
381.9047975618275
 20
264.8078388776974
 30
0.0
  0
LINE
  5
1D23
330
18
100
AcDbEntity
  8
0
  6
ByBlock
 62
     2
100
AcDbLine
 10
322.6280170849182
 20
230.8078388776974
 30
0.0
 11
322.6280170849182
 21
233.6776576471296
 31
0.0
  0
LINE
  5
1D24
330
18
100
AcDbEntity
  8
0
  6
ByBlock
 62
     2
100
AcDbLine
 10
326.6280170849183
 20
230.8078388776974
 30
0.0
 11
326.6280170849183
 21
233.6776576471296
 31
0.0
  0
LINE
  5
1D25
330
18
100
AcDbEntity
  8
0
  6
ByBlock
 62
     2
100
AcDbLine
 10
320.1280170849182
 20
232.4276576471296
 30
0.0
 11
317.6280170849182
 21
232.4276576471296
 31
0.0
  0
LINE
  5
1D26
330
18
100
AcDbEntity
  8
0
  6
ByBlock
 62
     2
100
AcDbLine
 10
329.1280170849183
 20
232.4276576471296
 30
0.0
 11
337.5208742277755
 21
232.4276576471296
 31
0.0
  0
LINE
  5
1D27
330
18
100
AcDbEntity
  8
0
  6
ByBlock
 62
     2
100
AcDbLine
 10
322.6280170849182
 20
232.4276576471296
 30
0.0
 11
326.6280170849183
 21
232.4276576471296
 31
0.0
  0
INSERT
  5
1D28
330
18
100
AcDbEntity
  8
0
  6
ByBlock
 62
     2
100
AcDbBlockReference
  2
_OPEN
 10
322.6280170849182
 20
232.4276576471296
 30
0.0
 41
2.5
 42
2.5
 43
2.5
  0
INSERT
  5
1D29
330
18
100
AcDbEntity
  8
0
  6
ByBlock
 62
     2
100
AcDbBlockReference
  2
_OPEN
 10
326.6280170849183
 20
232.4276576471296
 30
0.0
 41
2.5
 42
2.5
 43
2.5
 50
180.0
  0
MTEXT
  5
1D2A
330
18
100
AcDbEntity
  8
0
  6
ByBlock
 62
     6
100
AcDbMText
 10
334.5744456563468
 20
234.3026576471296
 30
0.0
 40
2.5
 41
0.0
 71
     5
 72
     1
  1
\A1;φ4
  7
STYLE3
 73
     1
 44
1.0
  0
POINT
  5
1D2B
330
18
100
AcDbEntity
  8
DEFPOINTS
  6
ByBlock
 62
     0
100
AcDbPoint
 10
322.6280170849182
 20
230.8078388776974
 30
0.0
  0
POINT
  5
1D2C
330
18
100
AcDbEntity
  8
DEFPOINTS
  6
ByBlock
 62
     0
100
AcDbPoint
 10
326.6280170849183
 20
230.8078388776974
 30
0.0
  0
POINT
  5
1D2D
330
18
100
AcDbEntity
  8
DEFPOINTS
  6
ByBlock
 62
     0
100
AcDbPoint
 10
326.6280170849183
 20
232.4276576471296
 30
0.0
  0
LINE
  5
1D3D
330
18
100
AcDbEntity
  8
0
  6
ByBlock
 62
     2
100
AcDbLine
 10
405.1253069147161
 20
234.8078388776974
 30
0.0
 11
380.6547975618275
 21
234.8078388776974
 31
0.0
  0
LINE
  5
1D3E
330
18
100
AcDbEntity
  8
0
  6
ByBlock
 62
     2
100
AcDbLine
 10
381.9047975618275
 20
262.3078388776974
 30
0.0
 11
381.9047975618275
 21
237.3078388776974
 31
0.0
  0
INSERT
  5
1D3F
330
18
100
AcDbEntity
  8
0
  6
ByBlock
 62
     2
100
AcDbBlockReference
  2
_OPEN
 10
381.9047975618275
 20
264.8078388776974
 30
0.0
 41
2.5
 42
2.5
 43
2.5
 50
90.0
  0
INSERT
  5
1D40
330
18
100
AcDbEntity
  8
0
  6
ByBlock
 62
     2
100
AcDbBlockReference
  2
_OPEN
 10
381.9047975618275
 20
234.8078388776974
 30
0.0
 41
2.5
 42
2.5
 43
2.5
 50
270.0
  0
MTEXT
  5
1D41
330
18
100
AcDbEntity
  8
0
  6
ByBlock
 62
     6
100
AcDbMText
 10
380.0297975618275
 20
249.8078388776974
 30
0.0
 40
2.5
 41
0.0
 71
     5
 72
     1
  1
\A1;30
  7
STYLE3
 11
0.0000000000000001
 21
1.0
 31
0.0
 73
     1
 44
1.0
  0
POINT
  5
1D42
330
18
100
AcDbEntity
  8
DEFPOINTS
  6
ByBlock
 62
     0
100
AcDbPoint
 10
396.8253069147161
 20
264.8078388776974
 30
0.0
  0
POINT
  5
1D43
330
18
100
AcDbEntity
  8
DEFPOINTS
  6
ByBlock
 62
     0
100
AcDbPoint
 10
405.1253069147161
 20
234.8078388776974
 30
0.0
  0
POINT
  5
1D44
330
18
100
AcDbEntity
  8
DEFPOINTS
  6
ByBlock
 62
     0
100
AcDbPoint
 10
381.9047975618275
 20
234.8078388776974
 30
0.0
  0
LINE
  5
1D45
330
18
100
AcDbEntity
  8
0
  6
ByBlock
 62
     2
100
AcDbLine
 10
405.4253069147161
 20
224.8078388776974
 30
0.0
 11
380.6547975618275
 21
224.8078388776974
 31
0.0
  0
LINE
  5
1D46
330
18
100
AcDbEntity
  8
0
  6
ByBlock
 62
     2
100
AcDbLine
 10
381.9047975618275
 20
232.3078388776974
 30
0.0
 11
381.9047975618275
 21
227.3078388776974
 31
0.0
  0
INSERT
  5
1D47
330
18
100
AcDbEntity
  8
0
  6
ByBlock
 62
     2
100
AcDbBlockReference
  2
_OPEN
 10
381.9047975618275
 20
234.8078388776974
 30
0.0
 41
2.5
 42
2.5
 43
2.5
 50
90.0
  0
INSERT
  5
1D48
330
18
100
AcDbEntity
  8
0
  6
ByBlock
 62
     2
100
AcDbBlockReference
  2
_OPEN
 10
381.9047975618275
 20
224.8078388776974
 30
0.0
 41
2.5
 42
2.5
 43
2.5
 50
270.0
  0
MTEXT
  5
1D49
330
18
100
AcDbEntity
  8
0
  6
ByBlock
 62
     6
100
AcDbMText
 10
380.0297975618275
 20
229.8078388776974
 30
0.0
 40
2.5
 41
0.0
 71
     5
 72
     1
  1
\A1;9.9
  7
STYLE3
 11
0.0000000000000001
 21
1.0
 31
0.0
 73
     1
 44
1.0
  0
POINT
  5
1D4A
330
18
100
AcDbEntity
  8
DEFPOINTS
  6
ByBlock
 62
     0
100
AcDbPoint
 10
405.1253069147161
 20
234.8078388776974
 30
0.0
  0
POINT
  5
1D4B
330
18
100
AcDbEntity
  8
DEFPOINTS
  6
ByBlock
 62
     0
100
AcDbPoint
 10
405.4253069147161
 20
224.8078388776974
 30
0.0
  0
POINT
  5
1D4C
330
18
100
AcDbEntity
  8
DEFPOINTS
  6
ByBlock
 62
     0
100
AcDbPoint
 10
381.9047975618275
 20
224.8078388776974
 30
0.0
  0
INSERT
  5
1D4D
330
18
100
AcDbEntity
  8
外形線
 62
     2
100
AcDbBlockReference
  2
_OPEN
 10
405.275306914716
 20
224.9578388776974
 30
0.0
 41
2.5
 42
2.5
 43
2.5
 50
60.09291980179463
  0
LWPOLYLINE
  5
1D4E
330
18
100
AcDbEntity
  8
外形線
 62
     2
100
AcDbPolyline
 90
        3
 70
     0
 43
0.0
 10
404.028819762765
 20
222.7907510206826
 10
397.8413600053706
 20
212.0335050394237
 10
378.0258838148944
 20
212.0335050394237
  0
TEXT
  5
1D4F
330
18
100
AcDbEntity
  8
目盛
 62
     6
100
AcDbText
 10
377.6687409577515
 20
212.6585050394237
 30
0.0
 40
2.5
  1
C0.2～0.3
  7
STYLE3
100
AcDbText
  0
LINE
  5
1D51
330
18
100
AcDbEntity
  8
寸法線
100
AcDbLine
 10
411.1253069147161
 20
249.5131600603919
 30
0.0
 11
411.1253069147161
 21
247.781109252823
 31
0.0
  0
LINE
  5
1D55
330
18
100
AcDbEntity
  8
ﾊｯﾁﾝｸ
  6
Continuous
100
AcDbLine
 10
320.6280170849183
 20
324.9743326739951
 30
0.0
 11
320.8615232886204
 21
325.2078388776973
 31
0.0
  0
LINE
  5
1D56
330
18
100
AcDbEntity
  8
ﾊｯﾁﾝｸ
  6
Continuous
100
AcDbLine
 10
320.6280170849183
 20
323.2065657210287
 30
0.0
 11
322.6292902415868
 21
325.2078388776973
 31
0.0
  0
LINE
  5
1D57
330
18
100
AcDbEntity
  8
ﾊｯﾁﾝｸ
  6
Continuous
100
AcDbLine
 10
320.6280170849183
 20
321.4387987680624
 30
0.0
 11
324.3970571945532
 21
325.2078388776973
 31
0.0
  0
LINE
  5
1D58
330
18
100
AcDbEntity
  8
ﾊｯﾁﾝｸ
  6
Continuous
100
AcDbLine
 10
320.6280170849183
 20
319.671031815096
 30
0.0
 11
324.6280170849183
 21
323.671031815096
 31
0.0
  0
LINE
  5
1D59
330
18
100
AcDbEntity
  8
ﾊｯﾁﾝｸ
  6
Continuous
100
AcDbLine
 10
321.9325911004859
 20
319.2078388776973
 30
0.0
 11
324.6280170849183
 21
321.9032648621297
 31
0.0
  0
LINE
  5
1D5A
330
18
100
AcDbEntity
  8
ﾊｯﾁﾝｸ
  6
Continuous
100
AcDbLine
 10
323.7003580534523
 20
319.2078388776973
 30
0.0
 11
324.6280170849183
 21
320.1354979091632
 31
0.0
  0
LINE
  5
1D5B
330
18
100
AcDbEntity
  8
ﾊｯﾁﾝｸ
  6
Continuous
100
AcDbLine
 10
320.6795627312372
 20
319.2078388776972
 30
0.0
 11
320.6280170849183
 21
319.2593845240162
 31
0.0
  0
LINE
  5
1D5C
330
18
100
AcDbEntity
  8
ﾊｯﾁﾝｸ
  6
Continuous
100
AcDbLine
 10
322.4473296842035
 20
319.2078388776973
 30
0.0
 11
320.6280170849182
 21
321.0271514769826
 31
0.0
  0
LINE
  5
1D5D
330
18
100
AcDbEntity
  8
ﾊｯﾁﾝｸ
  6
Continuous
100
AcDbLine
 10
324.2150966371699
 20
319.2078388776973
 30
0.0
 11
320.6280170849182
 21
322.794918429949
 31
0.0
  0
LINE
  5
1D5E
330
18
100
AcDbEntity
  8
ﾊｯﾁﾝｸ
  6
Continuous
100
AcDbLine
 10
324.6280170849183
 20
320.5626853829153
 30
0.0
 11
320.6280170849183
 21
324.5626853829153
 31
0.0
  0
LINE
  5
1D5F
330
18
100
AcDbEntity
  8
ﾊｯﾁﾝｸ
  6
Continuous
100
AcDbLine
 10
324.6280170849182
 20
322.3304523358817
 30
0.0
 11
321.7506305431026
 21
325.2078388776973
 31
0.0
  0
LINE
  5
1D60
330
18
100
AcDbEntity
  8
ﾊｯﾁﾝｸ
  6
Continuous
100
AcDbLine
 10
324.6280170849182
 20
324.098219288848
 30
0.0
 11
323.518397496069
 21
325.2078388776972
 31
0.0
  0
LINE
  5
1D61
330
18
100
AcDbEntity
  8
ﾊｯﾁﾝｸ
  6
Continuous
100
AcDbLine
 10
403.1253069147159
 20
324.9743326739951
 30
0.0
 11
403.3588131184181
 21
325.2078388776974
 31
0.0
  0
LINE
  5
1D62
330
18
100
AcDbEntity
  8
ﾊｯﾁﾝｸ
  6
Continuous
100
AcDbLine
 10
403.125306914716
 20
323.2065657210288
 30
0.0
 11
405.1265800713845
 21
325.2078388776973
 31
0.0
  0
LINE
  5
1D63
330
18
100
AcDbEntity
  8
ﾊｯﾁﾝｸ
  6
Continuous
100
AcDbLine
 10
403.125306914716
 20
321.4387987680624
 30
0.0
 11
406.8943470243509
 21
325.2078388776973
 31
0.0
  0
LINE
  5
1D64
330
18
100
AcDbEntity
  8
ﾊｯﾁﾝｸ
  6
Continuous
100
AcDbLine
 10
403.1253069147159
 20
319.671031815096
 30
0.0
 11
407.1253069147159
 21
323.671031815096
 31
0.0
  0
LINE
  5
1D65
330
18
100
AcDbEntity
  8
ﾊｯﾁﾝｸ
  6
Continuous
100
AcDbLine
 10
404.4298809302836
 20
319.2078388776974
 30
0.0
 11
407.1253069147159
 21
321.9032648621297
 31
0.0
  0
LINE
  5
1D66
330
18
100
AcDbEntity
  8
ﾊｯﾁﾝｸ
  6
Continuous
100
AcDbLine
 10
406.19764788325
 20
319.2078388776974
 30
0.0
 11
407.1253069147159
 21
320.1354979091632
 31
0.0
  0
LINE
  5
1D67
330
18
100
AcDbEntity
  8
ﾊｯﾁﾝｸ
  6
Continuous
100
AcDbLine
 10
403.1768525610349
 20
319.2078388776974
 30
0.0
 11
403.1253069147159
 21
319.2593845240164
 31
0.0
  0
LINE
  5
1D68
330
18
100
AcDbEntity
  8
ﾊｯﾁﾝｸ
  6
Continuous
100
AcDbLine
 10
404.9446195140014
 20
319.2078388776973
 30
0.0
 11
403.125306914716
 21
321.0271514769826
 31
0.0
  0
LINE
  5
1D69
330
18
100
AcDbEntity
  8
ﾊｯﾁﾝｸ
  6
Continuous
100
AcDbLine
 10
406.7123864669677
 20
319.2078388776973
 30
0.0
 11
403.125306914716
 21
322.794918429949
 31
0.0
  0
LINE
  5
1D6A
330
18
100
AcDbEntity
  8
ﾊｯﾁﾝｸ
  6
Continuous
100
AcDbLine
 10
407.125306914716
 20
320.5626853829155
 30
0.0
 11
403.125306914716
 21
324.5626853829155
 31
0.0
  0
LINE
  5
1D6B
330
18
100
AcDbEntity
  8
ﾊｯﾁﾝｸ
  6
Continuous
100
AcDbLine
 10
407.125306914716
 20
322.3304523358817
 30
0.0
 11
404.2479203729004
 21
325.2078388776973
 31
0.0
  0
LINE
  5
1D6C
330
18
100
AcDbEntity
  8
ﾊｯﾁﾝｸ
  6
Continuous
100
AcDbLine
 10
407.125306914716
 20
324.0982192888481
 30
0.0
 11
406.0156873258668
 21
325.2078388776973
 31
0.0
  0
LINE
  5
1E21
330
18
100
AcDbEntity
  8
目盛
100
AcDbLine
 10
309.1009853208421
 20
276.6269855214164
 30
0.0
 11
307.8617386542256
 21
275.4632554413376
 31
0.0
  0
LINE
  5
1E22
330
18
100
AcDbEntity
  8
目盛
100
AcDbLine
 10
310.0471637286371
 20
275.6808071136214
 30
0.0
 11
308.8834336485583
 21
274.441560447005
 31
0.0
  0
LINE
  5
1E23
330
18
100
AcDbEntity
  8
目盛
100
AcDbLine
 10
308.2160850137938
 20
277.6307078960504
 30
0.0
 11
306.906212501075
 21
276.5470871134776
 31
0.0
  0
LINE
  5
1E24
330
18
100
AcDbEntity
  8
目盛
100
AcDbLine
 10
308.2049720991067
 20
279.2757982561603
 30
0.0
 11
306.0206262142943
 21
277.6887780749706
 31
0.0
  0
LINE
  5
1E25
330
18
100
AcDbEntity
  8
目盛
100
AcDbLine
 10
311.0508861032711
 20
274.7959068065731
 30
0.0
 11
309.9672653206982
 21
273.4860342938544
 31
0.0
  0
LINE
  5
1E26
330
18
100
AcDbEntity
  8
目盛
100
AcDbLine
 10
312.6959764633809
 20
274.784793891886
 30
0.0
 11
311.1089562821913
 21
272.6004480070737
 31
0.0
  0
POINT
  5
1E27
330
18
100
AcDbEntity
  8
DEFPOINTS
  6
ByBlock
 62
     0
100
AcDbPoint
 10
311.1089562821915
 20
272.6004480070736
 30
0.0
  0
LINE
  5
1E2F
330
18
100
AcDbEntity
  8
目盛
100
AcDbLine
 10
334.8893703432848
 20
272.5425065927631
 30
0.0
 11
335.7083515892578
 21
271.0527852366886
 31
0.0
  0
LINE
  5
1E31
330
18
100
AcDbEntity
  8
目盛
100
AcDbLine
 10
336.0411278179709
 20
273.2236540645045
 30
0.0
 11
336.9520333694353
 21
271.7882965911512
 31
0.0
  0
LINE
  5
1E32
330
18
100
AcDbEntity
  8
目盛
100
AcDbLine
 10
336.5600577064555
 20
274.784793891886
 30
0.0
 11
338.1470778876452
 21
272.6004480070737
 31
0.0
  0
LINE
  5
1E35
330
18
100
AcDbEntity
  8
外形線
100
AcDbLine
 10
323.8190364309447
 20
289.4886674780121
 30
0.0
 11
314.8350933789217
 21
270.396816670979
 31
0.0
  0
LINE
  5
1E36
330
18
100
AcDbEntity
  8
目盛
100
AcDbLine
 10
333.6971159952544
 20
271.9350226601712
 30
0.0
 11
334.4209407909151
 21
270.396816670979
 31
0.0
  0
TEXT
  5
1E40
330
18
100
AcDbEntity
  8
文字
100
AcDbText
 10
311.4589097397361
 20
275.4126271619693
 30
0.0
 40
2.5
  1
40
  7
STYLE3
100
AcDbText
  0
TEXT
  5
1E41
330
18
100
AcDbEntity
  8
文字
100
AcDbText
 10
332.3708280861108
 20
275.4779446605061
 30
0.0
 40
2.5
  1
40
  7
STYLE3
100
AcDbText
  0
CIRCLE
  5
1E6D
330
18
100
AcDbEntity
  8
針
100
AcDbCircle
 10
324.6280170849181
 20
291.2078388776974
 30
0.0
 40
1.9
  0
CIRCLE
  5
1E6E
330
18
100
AcDbEntity
  8
針
100
AcDbCircle
 10
324.6280170849181
 20
291.2078388776974
 30
0.0
 40
1.5
  0
POINT
  5
1E6F
330
18
100
AcDbEntity
  8
DEFPOINTS
  6
ByBlock
 62
     0
100
AcDbPoint
 10
324.6280170849181
 20
291.2078388776973
 30
0.0
  0
POINT
  5
1E70
330
18
100
AcDbEntity
  8
DEFPOINTS
  6
ByBlock
 62
     0
100
AcDbPoint
 10
324.6280170849181
 20
291.2078388776973
 30
0.0
  0
CIRCLE
  5
1E71
330
18
100
AcDbEntity
  8
針
100
AcDbCircle
 10
324.6280170849181
 20
291.2078388776974
 30
0.0
 40
0.475
  0
ARC
  5
1E72
330
18
100
AcDbEntity
  8
針
100
AcDbCircle
 10
328.0263386678182
 20
287.8891176753072
 30
0.0
 40
3.0
100
AcDbArc
 50
146.9277208229603
 51
176.4
  0
HATCH
  5
1E73
330
18
100
AcDbEntity
  8
針
100
AcDbHatch
 10
0.0
 20
0.0
 30
0.0
210
0.0
220
0.0
230
1.0
  2
SOLID
 70
     1
 71
     0
 91
        2
 92
        7
 72
     1
 73
     1
 93
        5
 10
323.1568032497147
 20
269.256901999033
 42
0.0
 10
323.2466256552732
 20
269.2512508522753
 42
0.0
 10
323.3364480608317
 20
269.2455997055177
 42
0.0
 10
323.9198298972643
 20
275.7240256875544
 42
-0.0085634322047721
 10
323.3899836300456
 20
275.7573607891521
 42
0.0
 97
        0
 92
        7
 72
     1
 73
     1
 93
        6
 10
323.3899836300456
 20
275.7573607891521
 42
0.0085634322047721
 10
323.9198298972643
 20
275.7240256875544
 42
0.0
 10
325.0322584825335
 20
288.0774892338954
 42
-0.1293106770632391
 10
325.51239016758
 20
289.5262074523657
 42
-0.2805221108582334
 10
323.5398532439622
 20
289.6503089565607
 42
-0.1293106770632486
 10
323.8346264084194
 20
288.1528378573305
 42
0.0
 97
        0
 75
     0
 76
     1
 47
0.0423559757596284
 98
        2
 10
323.6559410889534
 20
275.1111319850472
 10
323.8056194935875
 20
279.5154460113983
450
        0
451
        0
460
0.0
461
0.0
452
        0
462
0.0
453
        0
470

  0
LINE
  5
1E74
330
18
100
AcDbEntity
  8
針
100
AcDbLine
 10
323.3364480608317
 20
269.2455997055177
 30
0.0
 11
325.0322584825334
 21
288.077489233895
 31
0.0
  0
ARC
  5
1E75
330
18
100
AcDbEntity
  8
針
100
AcDbCircle
 10
320.8405462231346
 20
288.3412094159183
 30
0.0
 40
3.0
100
AcDbArc
 50
356.4
 51
25.87227917703959
  0
LINE
  5
1E76
330
18
100
AcDbEntity
  8
針
100
AcDbLine
 10
323.2466256552732
 20
269.2512508522753
 30
0.0
 11
323.3364480608317
 21
269.2455997055177
 31
0.0
  0
LINE
  5
1E77
330
18
100
AcDbEntity
  8
針
100
AcDbLine
 10
323.2466256552732
 20
269.2512508522753
 30
0.0
 11
323.1568032497147
 21
269.256901999033
 31
0.0
  0
LINE
  5
1E78
330
18
100
AcDbEntity
  8
針
100
AcDbLine
 10
323.1568032497147
 20
269.256901999033
 30
0.0
 11
323.8346264084193
 21
288.1528378573302
 31
0.0
  0
POINT
  5
1E79
330
18
100
AcDbEntity
  8
DEFPOINTS
  6
ByBlock
 62
     0
100
AcDbPoint
 10
323.9285804348173
 20
289.4412635545098
 30
0.0
  0
POINT
  5
1E7A
330
18
100
AcDbEntity
  8
DEFPOINTS
  6
ByBlock
 62
     0
100
AcDbPoint
 10
326.5242678689318
 20
291.0885368905915
 30
0.0
  0
POINT
  5
1E7B
330
18
100
AcDbEntity
  8
DEFPOINTS
  6
ByBlock
 62
     0
100
AcDbPoint
 10
323.9285804348173
 20
289.4412635545098
 30
0.0
  0
POINT
  5
1E7C
330
18
100
AcDbEntity
  8
DEFPOINTS
  6
ByBlock
 62
     0
100
AcDbPoint
 10
326.091992246192
 20
289.9967332971748
 30
0.0
  0
LINE
  5
1EA2
330
18
100
AcDbEntity
  8
寸法線
 62
     2
100
AcDbLine
 10
314.8350933789217
 20
270.396816670979
 30
0.0
 11
308.9734004971293
 21
257.9400852193443
 31
0.0
  0
LINE
  5
1EA3
330
18
100
AcDbEntity
  8
寸法線
 62
     2
100
AcDbLine
 10
334.4209407909148
 20
270.3968166709791
 30
0.0
 11
340.2826336727072
 21
257.9400852193443
 31
0.0
  0
ARC
  5
1EA4
330
18
100
AcDbEntity
  8
寸法線
 62
     2
100
AcDbCircle
 10
324.6280170849182
 20
291.2078388776972
 30
0.0
 40
35.51697504532476
100
AcDbArc
 50
248.8338186360024
 51
291.1661813639976
  0
INSERT
  5
1EA5
330
18
100
AcDbEntity
  8
寸法線
 62
     2
100
AcDbBlockReference
  2
_OPEN
 10
309.5056246115856
 20
259.0711190349269
 30
0.0
 41
2.499999999999998
 42
2.5
 43
2.5
 50
156.8169093180022
  0
INSERT
  5
1EA6
330
18
100
AcDbEntity
  8
寸法線
 62
     2
100
AcDbBlockReference
  2
_OPEN
 10
339.7504095582509
 20
259.0711190349269
 30
0.0
 41
2.499999999999998
 42
2.5
 43
2.5
 50
23.18309068199776
  0
MTEXT
  5
1EA7
330
18
100
AcDbEntity
  8
寸法線
 62
     6
100
AcDbMText
 10
327.1486112845908
 20
257.6604233314763
 30
0.0
 40
2.499999999999999
 41
0.0
 71
     5
 72
     1
  1
\A1;50.4°
  7
STYLE3
 11
0.9971892405550995
 21
0.0749240850537643
 31
0.0
 73
     1
 44
1.0
  0
TEXT
  5
1F49
330
18
100
AcDbEntity
  8
文字
100
AcDbText
 10
306.2621739647192
 20
358.5124233483437
 30
0.0
 40
3.5
  1
Model No.107Z One Revolution Dial Gauge
  7
STYLE3
100
AcDbText
  0
LINE
  5
1F4A
330
18
100
AcDbEntity
  8
外形線
100
AcDbLine
 10
306.0191389647193
 20
355.1294593483437
 30
0.0
 11
416.0191389647192
 21
355.1294593483437
 31
0.0
  0
LINE
  5
1F4B
330
18
100
AcDbEntity
  8
外形線
100
AcDbLine
 10
306.0191389647193
 20
356.1294593483436
 30
0.0
 11
416.0191389647192
 21
356.1294593483436
 31
0.0
  0
LINE
  5
1F4D
330
18
100
AcDbEntity
  8
外形線
100
AcDbLine
 10
350.1458429647192
 20
192.6533743483437
 30
0.0
 11
490.9372609647192
 21
192.6533743483437
 31
0.0
  0
LINE
  5
1F4E
330
18
100
AcDbEntity
  8
外形線
100
AcDbLine
 10
350.1458429647192
 20
181.8731683483436
 30
0.0
 11
490.9372609647192
 21
181.8731683483436
 31
0.0
  0
TEXT
  5
1F4F
330
18
100
AcDbEntity
  8
0
  6
Continuous
100
AcDbText
 10
351.6033099647192
 20
183.7711583483437
 30
0.0
 40
2.1
  1
Design and specifications are subject to change without notice for future improvement.
  7
STYLE3
100
AcDbText
  0
TEXT
  5
1F50
330
18
100
AcDbEntity
  8
0
  6
Continuous
100
AcDbText
 10
351.8948039647193
 20
187.7003063483437
 30
0.0
 40
3.5
  1
仕様及び外観は予告なく変更される場合がございますのでご了承下さい。
  7
STYLE3
100
AcDbText
  0
TEXT
  5
1F51
330
18
100
AcDbEntity
  8
0
  6
Continuous
100
AcDbText
 10
351.3118189647193
 20
174.0065303483437
 30
0.0
 40
2.1
  1
3RD Angle Projection
  7
STYLE3
100
AcDbText
  0
TEXT
  5
1F52
330
18
100
AcDbEntity
  8
0
  6
Continuous
100
AcDbText
 10
353.9352619647193
 20
177.5028133483437
 30
0.0
 40
3.0
  1
三　　角　　法
  7
STYLE3
100
AcDbText
  0
LINE
  5
1F53
330
18
100
AcDbEntity
  8
外形線
100
AcDbLine
 10
350.1458429647192
 20
172.2583903483437
 30
0.0
 11
350.1458429647192
 21
192.6533743483437
 31
0.0
  0
LINE
  5
1F54
330
18
100
AcDbEntity
  8
外形線
100
AcDbLine
 10
452.1686099647192
 20
181.8731683483436
 30
0.0
 11
452.1686099647192
 21
172.2583903483437
 31
0.0
  0
LINE
  5
1F55
330
18
100
AcDbEntity
  8
外形線
100
AcDbLine
 10
422.4362599647192
 20
181.8731683483436
 30
0.0
 11
422.4362599647192
 21
172.2583903483437
 31
0.0
  0
LINE
  5
1F56
330
18
100
AcDbEntity
  8
外形線
100
AcDbLine
 10
402.9061879647191
 20
181.8731683483436
 30
0.0
 11
402.9061879647191
 21
172.2583903483437
 31
0.0
  0
LINE
  5
1F57
330
18
100
AcDbEntity
  8
外形線
100
AcDbLine
 10
385.4165709647192
 20
181.8731683483436
 30
0.0
 11
385.4165709647192
 21
172.2583903483437
 31
0.0
  0
TEXT
  5
1F58
330
18
100
AcDbEntity
  8
0
  6
Continuous
100
AcDbText
 10
386.8740399647192
 20
177.5087683483437
 30
0.0
 40
3.0
  1
単位
  7
STYLE3
100
AcDbText
  0
TEXT
  5
1F59
330
18
100
AcDbEntity
  8
0
  6
Continuous
100
AcDbText
 10
387.0457609647193
 20
174.0065313483437
 30
0.0
 40
2.1
  1
Unit
  7
STYLE3
100
AcDbText
  0
TEXT
  5
1F5A
330
18
100
AcDbEntity
  8
0
  6
Continuous
100
AcDbText
 10
404.1919359647192
 20
177.2174103483437
 30
0.0
 40
3.0
  1
尺 度
  7
STYLE3
100
AcDbText
  0
TEXT
  5
1F5B
330
18
100
AcDbEntity
  8
0
  6
Continuous
100
AcDbText
 10
394.9160879647192
 20
175.7546743483437
 30
0.0
 40
2.399999999999999
  1
mm
  7
STYLE3
100
AcDbText
  0
TEXT
  5
1F5C
330
18
100
AcDbEntity
  8
0
  6
Continuous
100
AcDbText
 10
404.6551509647192
 20
174.2978883483437
 30
0.0
 40
2.1
  1
Scale
  7
STYLE3
100
AcDbText
  0
TEXT
  5
1F5D
330
18
100
AcDbEntity
  8
0
  6
Continuous
100
AcDbText
 10
414.2744399647192
 20
176.0460313483437
 30
0.0
 40
2.399999999999999
  1
1/1
  7
STYLE3
100
AcDbText
  0
TEXT
  5
1F5E
330
18
100
AcDbEntity
  8
0
  6
Continuous
100
AcDbText
 10
424.3682109647192
 20
174.0065323483437
 30
0.0
 40
2.1
  1
Date
  7
STYLE3
100
AcDbText
  0
TEXT
  5
1F5F
330
18
100
AcDbEntity
  8
0
  6
Continuous
100
AcDbText
 10
423.9848499647192
 20
177.3396153483437
 30
0.0
 40
3.0
  1
日 付
  7
STYLE3
100
AcDbText
  0
TEXT
  5
1F60
330
18
100
AcDbEntity
  8
0
  6
Continuous
100
AcDbText
 10
433.1130189647192
 20
175.7546733483437
 30
0.0
 40
2.1
  1
2010.06.09
  7
STYLE3
100
AcDbText
  0
TEXT
  5
1F61
330
18
100
AcDbEntity
  8
0
  6
Continuous
100
AcDbText
 10
453.5175729647192
 20
177.7941703483437
 30
0.0
 40
3.0
  1
株式会社　尾崎製作所
  7
STYLE3
100
AcDbText
  0
TEXT
  5
1F62
330
18
100
AcDbEntity
  8
0
  6
Continuous
100
AcDbText
 10
454.3920519647192
 20
174.0065313483437
 30
0.0
 40
2.1
  1
OZAKI MFG. CO., LTD.
  7
STYLE3
100
AcDbText
  0
ENDSEC
  0
SECTION
  2
OBJECTS
  0
DICTIONARY
  5
C
330
0
100
AcDbDictionary
281
     1
  3
ACAD_COLOR
350
1E0C
  3
ACAD_GROUP
350
D
  3
ACAD_IMAGE_DICT
350
E58
  3
ACAD_LAYOUT
350
1E0F
  3
ACAD_MATERIAL
350
1E0B
  3
ACAD_MLINESTYLE
350
1B
  3
ACAD_PLOTSETTINGS
350
1E10
  3
ACAD_PLOTSTYLENAME
350
1E09
  3
ACAD_TABLESTYLE
350
1E0D
  3
ACDBVARIABLEDICTIONARY
350
101E
  0
DICTIONARY
  5
1E0C
102
{ACAD_REACTORS
330
C
102
}
330
C
100
AcDbDictionary
281
     1
  0
DICTIONARY
  5
D
102
{ACAD_REACTORS
330
C
102
}
330
C
100
AcDbDictionary
281
     1
  0
DICTIONARY
  5
E58
102
{ACAD_REACTORS
330
C
102
}
330
C
100
AcDbDictionary
281
     1
  3
ROGO01
350
E59
  0
DICTIONARY
  5
1E0F
102
{ACAD_REACTORS
330
C
102
}
330
C
100
AcDbDictionary
281
     1
  3
Model
350
1E11
  3
レイアウト1
350
1E12
  0
DICTIONARY
  5
1E0B
102
{ACAD_REACTORS
330
C
102
}
330
C
100
AcDbDictionary
281
     1
  0
DICTIONARY
  5
1B
102
{ACAD_REACTORS
330
C
102
}
330
C
100
AcDbDictionary
281
     1
  3
STANDARD
350
1C
  0
DICTIONARY
  5
1E10
102
{ACAD_REACTORS
330
C
102
}
330
C
100
AcDbDictionary
281
     1
  0
ACDBDICTIONARYWDFLT
  5
1E09
102
{ACAD_REACTORS
330
C
102
}
330
C
100
AcDbDictionary
281
     1
  3
Normal
350
1E0A
100
AcDbDictionaryWithDefault
340
1E0A
  0
DICTIONARY
  5
1E0D
102
{ACAD_REACTORS
330
C
102
}
330
C
100
AcDbDictionary
281
     1
  3
Standard
350
1E0E
  0
DICTIONARY
  5
101E
102
{ACAD_REACTORS
330
C
102
}
330
C
100
AcDbDictionary
281
     1
  3
CTABLESTYLE
350
1E18
  3
SORTENTS
350
101F
  0
IMAGEDEF
  5
E59
102
{ACAD_REACTORS
330
E58
102
}
330
E58
100
AcDbRasterImageDef
 90
        0
  1
D:\ﾃｽﾄ\rogo01.TIF
 10
3388.0
 20
4668.0
 11
0.0635
 21
0.0635
280
     1
281
     5
  0
LAYOUT
  5
1E11
102
{ACAD_REACTORS
330
1E0F
102
}
330
1E0F
100
AcDbPlotSettings
  1

  2
A4 EPSON LP-6100.pc3
  4
A4
  6

 40
5.873749732971191
 41
5.873747825622558
 42
5.873748779296875
 43
5.873748779296875
 44
209.9733276367187
 45
297.0106506347656
 46
1.5
 47
25.0
 48
0.0
 49
0.0
140
0.0
141
0.0
142
1.0
143
1.0
 70
 28336
 72
     1
 73
     1
 74
     1
  7
AutoCAD LT 98.ctb
 75
    16
147
1.0
 76
     1
 77
     2
 78
   300
148
-236.4590772944505
149
-171.6235136330668
100
AcDbLayout
  1
Model
 70
     1
 71
     0
 10
0.0
 20
0.0
 11
12.0
 21
9.0
 12
0.0
 22
0.0
 32
0.0
 14
0.0
 24
0.0
 34
0.0
 15
0.0
 25
0.0
 35
0.0
146
0.0
 13
0.0
 23
0.0
 33
0.0
 16
1.0
 26
0.0
 36
0.0
 17
0.0
 27
1.0
 37
0.0
 76
     0
330
18
1001
ACAD_PSEXT
1000
A4 EPSON LP-6100.pc3
1000
EPSON LP-6100
1000
USB002
1000

1070
     0
  0
LAYOUT
  5
1E12
102
{ACAD_REACTORS
330
1E0F
102
}
330
1E0F
100
AcDbPlotSettings
  1

  2
C:\Documents and Settings\佐藤\Application Data\Autodesk\AutoCAD LT 2005\R10\jpn\plotters\PEACOCK EPSON LP-6100.pc3
  4

  6

 40
0.0
 41
0.0
 42
0.0
 43
0.0
 44
0.0
 45
0.0
 46
0.0
 47
0.0
 48
0.0
 49
0.0
140
0.0
141
0.0
142
1.0
143
1.0
 70
   688
 72
     0
 73
     0
 74
     5
  7
AutoCAD LT 98.ctb
 75
    16
147
1.0
 76
     0
 77
     2
 78
   300
148
0.0
149
0.0
100
AcDbLayout
  1
レイアウト1
 70
     1
 71
     1
 10
0.0
 20
0.0
 11
420.0
 21
297.0
 12
0.0
 22
0.0
 32
0.0
 14
1.000000000000000E+20
 24
1.000000000000000E+20
 34
1.000000000000000E+20
 15
-1.000000000000000E+20
 25
-1.000000000000000E+20
 35
-1.000000000000000E+20
146
0.0
 13
0.0
 23
0.0
 33
0.0
 16
1.0
 26
0.0
 36
0.0
 17
0.0
 27
1.0
 37
0.0
 76
     0
330
15
  0
MLINESTYLE
  5
1C
102
{ACAD_REACTORS
330
1B
102
}
330
1B
100
AcDbMlineStyle
  2
STANDARD
 70
     0
  3

 62
   256
 51
90.0
 52
90.0
 71
     2
 49
0.5
 62
   256
  6
BYLAYER
 49
-0.5
 62
   256
  6
BYLAYER
  0
ACDBPLACEHOLDER
  5
1E0A
102
{ACAD_REACTORS
330
1E09
102
}
330
1E09
  0
ACAD_PROXY_OBJECT
  5
1E0E
102
{ACAD_REACTORS
330
1E0D
102
}
330
1E0D
100
AcDbProxyObject
 90
      499
 91
      505
 95
  2555929
 70
     0
 93
     1849
310
4214DD185B99185C992420000000000000F83F0000000000003E0FC00000000000004901028000000C1008070000C3001FDFF8000000C1003FBFF000000182007F7FE00000030400FEFFC00000060801FDFF8000000C1003FBFF000000182000000000000000C2020B0000001820100E000186003FBFF000000182007F7FE0
310
0000030400FEFFC00000060801FDFF8000000C1003FBFF000000182007F7FE0000003040000000000000012404160000003040201C00030C007F7FE00000030400FEFFC00000060801FDFF8000000C1003FBFF000000182007F7FE00000030400FEFFC000000608000
340
F
340
F
340
F
 94
        0
  0
DICTIONARYVAR
  5
1E18
102
{ACAD_REACTORS
330
101E
102
}
330
101E
100
DictionaryVariables
280
     0
  1
STANDARD
  0
DICTIONARYVAR
  5
101F
102
{ACAD_REACTORS
330
101E
102
}
330
101E
100
DictionaryVariables
280
     0
  1
96
  0
ENDSEC
  0
EOF
