  0
SECTION
  2
HEADER
  9
$ACADVER
  1
AC1018
  9
$ACADMAINTVER
 70
     0
  9
$DWGCODEPAGE
  3
ANSI_932
  9
$INSBASE
 10
0.0
 20
0.0
 30
0.0
  9
$EXTMIN
 10
236.4544267393603
 20
171.6339910587469
 30
-0.0000000000000053
  9
$EXTMAX
 10
491.9134737207314
 20
367.055780868036
 30
0.0000000000000099
  9
$LIMMIN
 10
0.0
 20
0.0
  9
$LIMMAX
 10
420.0
 20
297.0
  9
$ORTHOMODE
 70
     0
  9
$REGENMODE
 70
     1
  9
$FILLMODE
 70
     1
  9
$QTEXTMODE
 70
     0
  9
$MIRRTEXT
 70
     1
  9
$LTSCALE
 40
1.0
  9
$ATTMODE
 70
     1
  9
$TEXTSIZE
 40
1.0
  9
$TRACEWID
 40
1.0
  9
$TEXTSTYLE
  7
STYLE3
  9
$CLAYER
  8
寸法線
  9
$CELTYPE
  6
BYLAYER
  9
$CECOLOR
 62
   256
  9
$CELTSCALE
 40
1.0
  9
$DISPSILH
 70
     0
  9
$DIMSCALE
 40
1.0
  9
$DIMASZ
 40
2.5
  9
$DIMEXO
 40
0.0
  9
$DIMDLI
 40
3.75
  9
$DIMRND
 40
0.0
  9
$DIMDLE
 40
0.0
  9
$DIMEXE
 40
1.25
  9
$DIMTP
 40
0.0
  9
$DIMTM
 40
0.0
  9
$DIMTXT
 40
2.5
  9
$DIMCEN
 40
2.5
  9
$DIMTSZ
 40
0.0
  9
$DIMTOL
 70
     0
  9
$DIMLIM
 70
     0
  9
$DIMTIH
 70
     0
  9
$DIMTOH
 70
     0
  9
$DIMSE1
 70
     0
  9
$DIMSE2
 70
     0
  9
$DIMTAD
 70
     1
  9
$DIMZIN
 70
     8
  9
$DIMBLK
  1

  9
$DIMASO
 70
     1
  9
$DIMSHO
 70
     1
  9
$DIMPOST
  1

  9
$DIMAPOST
  1

  9
$DIMALT
 70
     0
  9
$DIMALTD
 70
     4
  9
$DIMALTF
 40
0.0394
  9
$DIMLFAC
 40
1.0
  9
$DIMTOFL
 70
     1
  9
$DIMTVP
 40
0.0
  9
$DIMTIX
 70
     0
  9
$DIMSOXD
 70
     0
  9
$DIMSAH
 70
     1
  9
$DIMBLK1
  1
OPEN
  9
$DIMBLK2
  1
OPEN
  9
$DIMSTYLE
  2
STYLE2
  9
$DIMCLRD
 70
     2
  9
$DIMCLRE
 70
     2
  9
$DIMCLRT
 70
     6
  9
$DIMTFAC
 40
1.0
  9
$DIMGAP
 40
0.625
  9
$DIMJUST
 70
     0
  9
$DIMSD1
 70
     0
  9
$DIMSD2
 70
     0
  9
$DIMTOLJ
 70
     1
  9
$DIMTZIN
 70
     0
  9
$DIMALTZ
 70
     0
  9
$DIMALTTZ
 70
     0
  9
$DIMUPT
 70
     0
  9
$DIMDEC
 70
     1
  9
$DIMTDEC
 70
     4
  9
$DIMALTU
 70
     8
  9
$DIMALTTD
 70
     4
  9
$DIMTXSTY
  7
STYLE3
  9
$DIMAUNIT
 70
     0
  9
$DIMADEC
 70
     0
  9
$DIMALTRND
 40
0.0
  9
$DIMAZIN
 70
     0
  9
$DIMDSEP
 70
    46
  9
$DIMATFIT
 70
     3
  9
$DIMFRAC
 70
     0
  9
$DIMLDRBLK
  1

  9
$DIMLUNIT
 70
     2
  9
$DIMLWD
 70
    -2
  9
$DIMLWE
 70
    -2
  9
$DIMTMOVE
 70
     0
  9
$LUNITS
 70
     2
  9
$LUPREC
 70
     4
  9
$SKETCHINC
 40
1.0
  9
$FILLETRAD
 40
0.0
  9
$AUNITS
 70
     0
  9
$AUPREC
 70
     0
  9
$MENU
  1
.
  9
$ELEVATION
 40
0.0
  9
$PELEVATION
 40
0.0
  9
$THICKNESS
 40
0.0
  9
$LIMCHECK
 70
     0
  9
$CHAMFERA
 40
0.2
  9
$CHAMFERB
 40
0.2
  9
$CHAMFERC
 40
20.0
  9
$CHAMFERD
 40
0.0
  9
$SKPOLY
 70
     0
  9
$TDCREATE
 40
2450717.578556713
  9
$TDUCREATE
 40
2450717.203556713
  9
$TDUPDATE
 40
2455357.699492361
  9
$TDUUPDATE
 40
2455357.324492361
  9
$TDINDWG
 40
1.0518617245
  9
$TDUSRTIMER
 40
1.0518617245
  9
$USRTIMER
 70
     1
  9
$ANGBASE
 50
0.0
  9
$ANGDIR
 70
     0
  9
$PDMODE
 70
     0
  9
$PDSIZE
 40
0.0
  9
$PLINEWID
 40
0.0
  9
$SPLFRAME
 70
     0
  9
$SPLINETYPE
 70
     6
  9
$SPLINESEGS
 70
     8
  9
$HANDSEED
  5
1BE9
  9
$SURFTAB1
 70
     6
  9
$SURFTAB2
 70
     6
  9
$SURFTYPE
 70
     6
  9
$SURFU
 70
     6
  9
$SURFV
 70
     6
  9
$UCSBASE
  2

  9
$UCSNAME
  2

  9
$UCSORG
 10
0.0
 20
0.0
 30
0.0
  9
$UCSXDIR
 10
1.0
 20
0.0
 30
0.0
  9
$UCSYDIR
 10
0.0
 20
1.0
 30
0.0
  9
$UCSORTHOREF
  2

  9
$UCSORTHOVIEW
 70
     0
  9
$UCSORGTOP
 10
0.0
 20
0.0
 30
0.0
  9
$UCSORGBOTTOM
 10
0.0
 20
0.0
 30
0.0
  9
$UCSORGLEFT
 10
0.0
 20
0.0
 30
0.0
  9
$UCSORGRIGHT
 10
0.0
 20
0.0
 30
0.0
  9
$UCSORGFRONT
 10
0.0
 20
0.0
 30
0.0
  9
$UCSORGBACK
 10
0.0
 20
0.0
 30
0.0
  9
$PUCSBASE
  2

  9
$PUCSNAME
  2

  9
$PUCSORG
 10
0.0
 20
0.0
 30
0.0
  9
$PUCSXDIR
 10
1.0
 20
0.0
 30
0.0
  9
$PUCSYDIR
 10
0.0
 20
1.0
 30
0.0
  9
$PUCSORTHOREF
  2

  9
$PUCSORTHOVIEW
 70
     0
  9
$PUCSORGTOP
 10
0.0
 20
0.0
 30
0.0
  9
$PUCSORGBOTTOM
 10
0.0
 20
0.0
 30
0.0
  9
$PUCSORGLEFT
 10
0.0
 20
0.0
 30
0.0
  9
$PUCSORGRIGHT
 10
0.0
 20
0.0
 30
0.0
  9
$PUCSORGFRONT
 10
0.0
 20
0.0
 30
0.0
  9
$PUCSORGBACK
 10
0.0
 20
0.0
 30
0.0
  9
$USERI1
 70
     0
  9
$USERI2
 70
     0
  9
$USERI3
 70
     0
  9
$USERI4
 70
     0
  9
$USERI5
 70
     0
  9
$USERR1
 40
0.0
  9
$USERR2
 40
0.0
  9
$USERR3
 40
0.0
  9
$USERR4
 40
0.0
  9
$USERR5
 40
0.0
  9
$WORLDVIEW
 70
     1
  9
$SHADEDGE
 70
     3
  9
$SHADEDIF
 70
    70
  9
$TILEMODE
 70
     1
  9
$MAXACTVP
 70
    48
  9
$PINSBASE
 10
0.0
 20
0.0
 30
0.0
  9
$PLIMCHECK
 70
     0
  9
$PEXTMIN
 10
1.000000000000000E+20
 20
1.000000000000000E+20
 30
1.000000000000000E+20
  9
$PEXTMAX
 10
-1.000000000000000E+20
 20
-1.000000000000000E+20
 30
-1.000000000000000E+20
  9
$PLIMMIN
 10
0.0
 20
0.0
  9
$PLIMMAX
 10
420.0
 20
297.0
  9
$UNITMODE
 70
     0
  9
$VISRETAIN
 70
     1
  9
$PLINEGEN
 70
     0
  9
$PSLTSCALE
 70
     1
  9
$TREEDEPTH
 70
  3020
  9
$CMLSTYLE
  2
STANDARD
  9
$CMLJUST
 70
     0
  9
$CMLSCALE
 40
20.0
  9
$PROXYGRAPHICS
 70
     1
  9
$MEASUREMENT
 70
     1
  9
$CELWEIGHT
370
    -1
  9
$ENDCAPS
280
     0
  9
$JOINSTYLE
280
     0
  9
$LWDISPLAY
290
     0
  9
$INSUNITS
 70
     0
  9
$HYPERLINKBASE
  1

  9
$STYLESHEET
  1
AutoCAD LT 98.ctb
  9
$XEDIT
290
     1
  9
$CEPSNTYPE
380
     0
  9
$PSTYLEMODE
290
     1
  9
$FINGERPRINTGUID
  2
{5AA5C8A6-D8A2-418F-A067-C3A46C885C71}
  9
$VERSIONGUID
  2
{CDB62447-47C5-43B3-84FD-27A05BB2FF6F}
  9
$EXTNAMES
290
     1
  9
$PSVPSCALE
 40
0.0
  9
$OLESTARTUP
290
     0
  9
$SORTENTS
280
    96
  9
$INDEXCTL
280
     0
  9
$HIDETEXT
280
     0
  9
$XCLIPFRAME
290
     0
  9
$HALOGAP
280
     0
  9
$OBSCOLOR
 70
   257
  9
$OBSLTYPE
280
     0
  9
$INTERSECTIONDISPLAY
280
     0
  9
$INTERSECTIONCOLOR
 70
   257
  9
$DIMASSOC
280
     1
  9
$PROJECTNAME
  1

  0
ENDSEC
  0
SECTION
  2
CLASSES
  0
CLASS
  1
HATCH
  2
AcDbHatch
  3
ObjectDBX Classes
 90
        0
 91
       11
280
     0
281
     1
  0
CLASS
  1
LWPOLYLINE
  2
AcDbPolyline
  3
ObjectDBX Classes
 90
        0
 91
        2
280
     0
281
     1
  0
CLASS
  1
IMAGEDEF
  2
AcDbRasterImageDef
  3
ISM
 90
        0
 91
        1
280
     0
281
     0
  0
CLASS
  1
DICTIONARYVAR
  2
AcDbDictionaryVar
  3
ObjectDBX Classes
 90
        0
 91
        2
280
     0
281
     0
  0
CLASS
  1
ACDBDICTIONARYWDFLT
  2
AcDbDictionaryWithDefault
  3
ObjectDBX Classes
 90
        0
 91
        1
280
     0
281
     0
  0
CLASS
  1
TABLESTYLE
  2
AcDbTableStyle
  3
ObjectDBX Classes
 90
     2047
 91
        1
280
     0
281
     0
  0
CLASS
  1
SORTENTSTABLE
  2
AcDbSortentsTable
  3
ObjectDBX Classes
 90
        0
 91
        0
280
     0
281
     0
  0
ENDSEC
  0
SECTION
  2
TABLES
  0
TABLE
  2
VPORT
  5
8
330
0
100
AcDbSymbolTable
 70
     2
  0
VPORT
  5
1BE8
330
8
100
AcDbSymbolTableRecord
100
AcDbViewportTableRecord
  2
*Active
 70
     0
 10
0.0
 20
0.0
 11
1.0
 21
1.0
 12
364.1839502300459
 22
269.3448859633914
 13
0.0
 23
0.0
 14
10.0
 24
10.0
 15
10.0
 25
10.0
 16
0.0
 26
0.0
 36
1.0
 17
0.0
 27
0.0
 37
0.0
 40
196.9078870701962
 41
1.530456852791878
 42
50.0
 43
0.0
 44
0.0
 50
0.0
 51
0.0
 71
     0
 72
   100
 73
     1
 74
     1
 75
     0
 76
     0
 77
     0
 78
     0
281
     0
 65
     1
110
0.0
120
0.0
130
0.0
111
1.0
121
0.0
131
0.0
112
0.0
122
1.0
132
0.0
 79
     0
146
0.0
  0
ENDTAB
  0
TABLE
  2
LTYPE
  5
5
330
0
100
AcDbSymbolTable
 70
     5
  0
LTYPE
  5
12
330
5
100
AcDbSymbolTableRecord
100
AcDbLinetypeTableRecord
  2
BYBLOCK
 70
     0
  3

 72
    65
 73
     0
 40
0.0
  0
LTYPE
  5
13
330
5
100
AcDbSymbolTableRecord
100
AcDbLinetypeTableRecord
  2
BYLAYER
 70
     0
  3

 72
    65
 73
     0
 40
0.0
  0
LTYPE
  5
14
330
5
100
AcDbSymbolTableRecord
100
AcDbLinetypeTableRecord
  2
CONTINUOUS
 70
     0
  3
Solid line
 72
    65
 73
     0
 40
0.0
  0
LTYPE
  5
22
330
5
100
AcDbSymbolTableRecord
100
AcDbLinetypeTableRecord
  2
CENTER2
 70
     0
  3
Center (.5x) ___ _ ___ _ ___ _ ___ _ ___ _ ___
 72
    65
 73
     4
 40
28.575
 49
19.05
 74
     0
 49
-3.174999999999999
 74
     0
 49
3.174999999999999
 74
     0
 49
-3.174999999999999
 74
     0
  0
LTYPE
  5
24
330
5
100
AcDbSymbolTableRecord
100
AcDbLinetypeTableRecord
  2
PHANTOM2
 70
     0
  3
Phantom (.5x) ___ _ _ ___ _ _ ___ _ _ ___ _ _
 72
    65
 73
     6
 40
31.75
 49
15.875
 74
     0
 49
-3.174999999999999
 74
     0
 49
3.174999999999999
 74
     0
 49
-3.174999999999999
 74
     0
 49
3.174999999999999
 74
     0
 49
-3.174999999999999
 74
     0
  0
ENDTAB
  0
TABLE
  2
LAYER
  5
2
330
0
100
AcDbSymbolTable
 70
    16
  0
LAYER
  5
E
330
2
100
AcDbSymbolTableRecord
100
AcDbLayerTableRecord
  2
0
 70
     0
 62
     7
  6
CONTINUOUS
370
    -3
390
1870
  0
LAYER
  5
25
330
2
100
AcDbSymbolTableRecord
100
AcDbLayerTableRecord
  2
外形線
 70
     0
 62
     7
  6
CONTINUOUS
370
    -3
390
1870
  0
LAYER
  5
27
330
2
100
AcDbSymbolTableRecord
100
AcDbLayerTableRecord
  2
中心線
 70
     0
 62
     4
  6
CENTER2
370
    -3
390
1870
  0
LAYER
  5
29
330
2
100
AcDbSymbolTableRecord
100
AcDbLayerTableRecord
  2
想像線
 70
     0
 62
     1
  6
PHANTOM2
370
    -3
390
1870
  0
LAYER
  5
2A
330
2
100
AcDbSymbolTableRecord
100
AcDbLayerTableRecord
  2
ﾊｯﾁﾝｸ
 70
     0
 62
     4
  6
CONTINUOUS
370
    -3
390
1870
  0
LAYER
  5
2B
330
2
100
AcDbSymbolTableRecord
100
AcDbLayerTableRecord
  2
文字
 70
     0
 62
     6
  6
CONTINUOUS
370
    -3
390
1870
  0
LAYER
  5
2C
330
2
100
AcDbSymbolTableRecord
100
AcDbLayerTableRecord
  2
目盛
 70
     0
 62
    70
  6
CONTINUOUS
370
    -3
390
1870
  0
LAYER
  5
2D
330
2
100
AcDbSymbolTableRecord
100
AcDbLayerTableRecord
  2
針
 70
     0
 62
     5
  6
CONTINUOUS
370
    -3
390
1870
  0
LAYER
  5
53
330
2
100
AcDbSymbolTableRecord
100
AcDbLayerTableRecord
  2
DEFPOINTS
 70
     0
 62
     7
  6
CONTINUOUS
290
     0
370
    -3
390
1870
  0
LAYER
  5
A5
330
2
100
AcDbSymbolTableRecord
100
AcDbLayerTableRecord
  2
C
 70
     0
 62
     7
  6
CONTINUOUS
370
    -3
390
1870
  0
LAYER
  5
E00
330
2
100
AcDbSymbolTableRecord
100
AcDbLayerTableRecord
  2
ROGO
 70
     0
 62
     6
  6
CONTINUOUS
370
    -3
390
1870
  0
LAYER
  5
1859
330
2
100
AcDbSymbolTableRecord
100
AcDbLayerTableRecord
  2
寸法線
 70
     0
 62
     2
  6
CONTINUOUS
370
    -3
390
1870
  0
ENDTAB
  0
TABLE
  2
STYLE
  5
3
330
0
100
AcDbSymbolTable
 70
     3
  0
STYLE
  5
F
330
3
100
AcDbSymbolTableRecord
100
AcDbTextStyleTableRecord
  2
STANDARD
 70
     0
 40
0.0
 41
1.0
 50
0.0
 71
     0
 42
2.5
  3
txt
  4

  0
STYLE
  5
3F
330
3
100
AcDbSymbolTableRecord
100
AcDbTextStyleTableRecord
  2
STYLE3
 70
     0
 40
0.0
 41
1.0
 50
0.0
 71
     0
 42
1.0
  3
romans.shx
  4
bigfont.shx
  0
ENDTAB
  0
TABLE
  2
VIEW
  5
6
330
0
100
AcDbSymbolTable
 70
     0
  0
ENDTAB
  0
TABLE
  2
UCS
  5
7
330
0
100
AcDbSymbolTable
 70
     0
  0
ENDTAB
  0
TABLE
  2
APPID
  5
9
330
0
100
AcDbSymbolTable
 70
     2
  0
APPID
  5
10
330
9
100
AcDbSymbolTableRecord
100
AcDbRegAppTableRecord
  2
ACAD
 70
     0
  0
APPID
  5
1880
330
9
100
AcDbSymbolTableRecord
100
AcDbRegAppTableRecord
  2
ACAD_PSEXT
 70
     0
  0
ENDTAB
  0
TABLE
  2
DIMSTYLE
  5
A
330
0
100
AcDbSymbolTable
 70
     3
100
AcDbDimStyleTable
 71
     1
340
66
  0
DIMSTYLE
105
1D
330
A
100
AcDbSymbolTableRecord
100
AcDbDimStyleTableRecord
  2
STANDARD
 70
     0
 41
2.5
 42
0.625
 43
3.75
 44
1.25
 73
     0
 74
     0
 77
     1
 78
     8
140
2.5
141
2.5
143
0.0394
147
0.625
171
     4
172
     1
273
     8
274
     4
277
     6
340
F
  0
DIMSTYLE
105
66
330
A
100
AcDbSymbolTableRecord
100
AcDbDimStyleTableRecord
  2
STYLE2
 70
     0
 41
2.5
 42
0.0
 43
3.75
 44
1.25
 73
     0
 74
     0
 77
     1
 78
     8
140
2.5
141
2.5
143
0.0394
147
0.625
171
     4
172
     1
173
     1
176
     2
177
     2
178
     6
271
     1
273
     8
274
     4
340
3F
341
45
343
45
344
45
  0
ENDTAB
  0
TABLE
  2
BLOCK_RECORD
  5
1
330
0
100
AcDbSymbolTable
 70
     2
  0
BLOCK_RECORD
  5
18
330
1
100
AcDbSymbolTableRecord
100
AcDbBlockTableRecord
  2
*MODEL_SPACE
340
1877
  0
BLOCK_RECORD
  5
15
330
1
100
AcDbSymbolTableRecord
100
AcDbBlockTableRecord
  2
*PAPER_SPACE
340
1878
  0
BLOCK_RECORD
  5
45
330
1
100
AcDbSymbolTableRecord
100
AcDbBlockTableRecord
  2
_OPEN
340
0
102
{BLKREFS
331
836
331
837
331
83E
331
83F
331
847
331
848
331
875
331
876
331
87E
331
87F
331
900
331
901
331
909
331
90A
331
912
331
913
331
F35
331
F36
331
F9D
331
FD7
331
FD8
331
FE0
331
FE1
331
10CC
331
10CD
331
10D5
331
10D6
331
17F9
331
17FA
331
1813
331
1814
331
181C
331
181D
331
183F
331
1840
331
1A80
331
1A81
102
}
  0
ENDTAB
  0
ENDSEC
  0
SECTION
  2
BLOCKS
  0
BLOCK
  5
19
330
18
100
AcDbEntity
  8
0
100
AcDbBlockBegin
  2
*MODEL_SPACE
 70
     0
 10
0.0
 20
0.0
 30
0.0
  3
*MODEL_SPACE
  1

  0
ENDBLK
  5
1A
330
18
100
AcDbEntity
  8
0
100
AcDbBlockEnd
  0
BLOCK
  5
16
330
15
100
AcDbEntity
 67
     1
  8
0
100
AcDbBlockBegin
  2
*PAPER_SPACE
 70
     0
 10
0.0
 20
0.0
 30
0.0
  3
*PAPER_SPACE
  1

  0
ENDBLK
  5
17
330
15
100
AcDbEntity
 67
     1
  8
0
100
AcDbBlockEnd
  0
BLOCK
  5
46
330
45
100
AcDbEntity
  8
0
100
AcDbBlockBegin
  2
_OPEN
 70
     0
 10
0.0
 20
0.0
 30
0.0
  3
_OPEN
  1

  0
LINE
  5
47
330
45
100
AcDbEntity
  8
0
  6
ByBlock
 62
     0
100
AcDbLine
 10
-1.0
 20
0.1666666666666666
 30
0.0
 11
0.0
 21
0.0
 31
0.0
  0
LINE
  5
48
330
45
100
AcDbEntity
  8
0
  6
ByBlock
 62
     0
100
AcDbLine
 10
0.0
 20
0.0
 30
0.0
 11
-1.0
 21
-0.1666666666666666
 31
0.0
  0
LINE
  5
49
330
45
100
AcDbEntity
  8
0
  6
ByBlock
 62
     0
100
AcDbLine
 10
0.0
 20
0.0
 30
0.0
 11
-1.0
 21
0.0
 31
0.0
  0
ENDBLK
  5
4A
330
45
100
AcDbEntity
  8
0
100
AcDbBlockEnd
  0
ENDSEC
  0
SECTION
  2
ENTITIES
  0
LINE
  5
244
330
18
100
AcDbEntity
  8
中心線
 48
0.5
100
AcDbLine
 10
281.2133733121788
 20
286.2166516311037
 30
0.0
 11
348.8569319531852
 21
286.2166516311037
 31
0.0
  0
LINE
  5
245
330
18
100
AcDbEntity
  8
中心線
 48
0.5
100
AcDbLine
 10
319.2563006075529
 20
331.3248691961921
 30
0.0
 11
319.256300607553
 21
218.3523966460784
 31
0.0
  0
CIRCLE
  5
246
330
18
100
AcDbEntity
  8
外形線
100
AcDbCircle
 10
319.256300607553
 20
286.2166516311037
 30
0.0
 40
15.5
  0
CIRCLE
  5
247
330
18
100
AcDbEntity
  8
外形線
100
AcDbCircle
 10
319.256300607553
 20
286.2166516311037
 30
0.0
 40
23.0
  0
CIRCLE
  5
248
330
18
100
AcDbEntity
  8
外形線
100
AcDbCircle
 10
319.256300607553
 20
286.2166516311037
 30
0.0
 40
26.4
  0
LINE
  5
2A5
330
18
100
AcDbEntity
  8
目盛
100
AcDbLine
 10
324.9761680123448
 20
308.4940643370622
 30
0.0
 11
324.5533952041645
 21
306.8474729631436
 31
0.0
  0
LINE
  5
2A6
330
18
100
AcDbEntity
  8
目盛
100
AcDbLine
 10
323.5660708430248
 20
308.8092583978635
 30
0.0
 11
323.2475226082291
 21
307.1393700716248
 31
0.0
  0
LINE
  5
2A7
330
18
100
AcDbEntity
  8
目盛
100
AcDbLine
 10
322.1389649795322
 20
309.0352897613367
 30
0.0
 11
321.9258984824729
 21
307.3486947691021
 31
0.0
  0
LINE
  5
2A8
330
18
100
AcDbEntity
  8
目盛
100
AcDbLine
 10
320.7004825567274
 20
309.171266384954
 30
0.0
 11
320.5937386735275
 21
307.4746209466259
 31
0.0
  0
LINE
  5
2AC
330
18
100
AcDbEntity
  8
目盛
100
AcDbLine
 10
319.256300607553
 20
309.2166516311037
 30
0.0
 11
319.256300607553
 21
306.5166516311037
 31
0.0
  0
TEXT
  5
2AD
330
18
100
AcDbEntity
  8
文字
100
AcDbText
 10
318.041990085104
 20
303.1000154924655
 30
0.0
 40
2.5
  1
0
  7
STYLE3
100
AcDbText
  0
TEXT
  5
2AE
330
18
100
AcDbEntity
  8
文字
100
AcDbText
 10
327.5779736653293
 20
299.1862042192114
 30
0.0
 40
2.5
  1
10
  7
STYLE3
100
AcDbText
  0
TEXT
  5
2AF
330
18
100
AcDbEntity
  8
文字
100
AcDbText
 10
334.3813852295248
 20
289.7052920506876
 30
0.0
 40
2.5
  1
20
  7
STYLE3
100
AcDbText
  0
TEXT
  5
2B0
330
18
100
AcDbEntity
  8
文字
100
AcDbText
 10
333.6431730007732
 20
278.967822560068
 30
0.0
 40
2.5
  1
30
  7
STYLE3
100
AcDbText
  0
TEXT
  5
2B4
330
18
100
AcDbEntity
  8
文字
100
AcDbText
 10
299.9636464968331
 20
278.991507745267
 30
0.0
 40
2.5
  1
30
  7
STYLE3
100
AcDbText
  0
TEXT
  5
2B5
330
18
100
AcDbEntity
  8
文字
100
AcDbText
 10
299.7987599089612
 20
290.9963958230016
 30
0.0
 40
2.5
  1
20
  7
STYLE3
100
AcDbText
  0
TEXT
  5
2B6
330
18
100
AcDbEntity
  8
文字
100
AcDbText
 10
305.8645885170244
 20
299.0947908906432
 30
0.0
 40
2.5
  1
10
  7
STYLE3
100
AcDbText
  0
LINE
  5
2D3
330
18
100
AcDbEntity
  8
外形線
100
AcDbLine
 10
315.8563006075529
 20
241.2166516311037
 30
0.0
 11
322.656300607553
 21
241.2166516311037
 31
0.0
  0
LINE
  5
2D4
330
18
100
AcDbEntity
  8
外形線
100
AcDbLine
 10
317.006300607553
 20
230.2166516311037
 30
0.0
 11
321.506300607553
 21
230.2166516311037
 31
0.0
  0
LINE
  5
2D5
330
18
100
AcDbEntity
  8
外形線
100
AcDbLine
 10
323.256300607553
 20
260.1214413426236
 30
0.0
 11
323.256300607553
 21
245.7166516311037
 31
0.0
  0
LINE
  5
2D6
330
18
100
AcDbEntity
  8
外形線
100
AcDbLine
 10
315.256300607553
 20
260.1214413426236
 30
0.0
 11
315.256300607553
 21
245.7166516311037
 31
0.0
  0
LINE
  5
2D9
330
18
100
AcDbEntity
  8
外形線
100
AcDbLine
 10
321.2563006075529
 20
241.2166516311037
 30
0.0
 11
321.2563006075529
 21
230.2166516311037
 31
0.0
  0
LINE
  5
2DA
330
18
100
AcDbEntity
  8
外形線
100
AcDbLine
 10
317.256300607553
 20
241.2166516311037
 30
0.0
 11
317.256300607553
 21
230.2166516311037
 31
0.0
  0
LINE
  5
2DB
330
18
100
AcDbEntity
  8
外形線
100
AcDbLine
 10
321.756300607553
 20
230.0166516311037
 30
0.0
 11
321.7563006075529
 21
226.9166516311037
 31
0.0
  0
LINE
  5
2DC
330
18
100
AcDbEntity
  8
外形線
100
AcDbLine
 10
316.756300607553
 20
230.0166516311037
 30
0.0
 11
316.756300607553
 21
226.9166516311037
 31
0.0
  0
LINE
  5
2DD
330
18
100
AcDbEntity
  8
外形線
100
AcDbLine
 10
317.006300607553
 20
226.7166516311037
 30
0.0
 11
321.5063006075529
 21
226.7166516311037
 31
0.0
  0
LINE
  5
2DE
330
18
100
AcDbEntity
  8
外形線
100
AcDbLine
 10
316.7563006075529
 20
230.0166516311037
 30
0.0
 11
321.756300607553
 21
230.0166516311037
 31
0.0
  0
LINE
  5
2DF
330
18
100
AcDbEntity
  8
外形線
100
AcDbLine
 10
316.7563006075529
 20
226.9166516311037
 30
0.0
 11
321.756300607553
 21
226.9166516311037
 31
0.0
  0
LINE
  5
2E0
330
18
100
AcDbEntity
  8
外形線
100
AcDbLine
 10
321.506300607553
 20
230.2166516311037
 30
0.0
 11
321.756300607553
 21
230.0166516311037
 31
0.0
  0
LINE
  5
2E1
330
18
100
AcDbEntity
  8
外形線
100
AcDbLine
 10
317.006300607553
 20
230.2166516311037
 30
0.0
 11
316.756300607553
 21
230.0166516311037
 31
0.0
  0
LINE
  5
2E2
330
18
100
AcDbEntity
  8
外形線
100
AcDbLine
 10
321.756300607553
 20
226.9166516311037
 30
0.0
 11
321.506300607553
 21
226.7166516311037
 31
0.0
  0
LINE
  5
2E3
330
18
100
AcDbEntity
  8
外形線
100
AcDbLine
 10
316.756300607553
 20
226.9166516311037
 30
0.0
 11
317.006300607553
 21
226.7166516311037
 31
0.0
  0
LINE
  5
2E5
330
18
100
AcDbEntity
  8
外形線
100
AcDbLine
 10
317.9563006075529
 20
222.2166516311038
 30
0.0
 11
320.556300607553
 21
222.2166516311038
 31
0.0
  0
LINE
  5
2E6
330
18
100
AcDbEntity
  8
外形線
100
AcDbLine
 10
321.506300607553
 20
226.7166516311037
 30
0.0
 11
320.556300607553
 21
222.2166516311038
 31
0.0
  0
LINE
  5
2E7
330
18
100
AcDbEntity
  8
外形線
100
AcDbLine
 10
317.006300607553
 20
226.7166516311037
 30
0.0
 11
317.9563006075529
 21
222.2166516311038
 31
0.0
  0
LINE
  5
5CF
330
18
100
AcDbEntity
  8
外形線
  6
Continuous
100
AcDbLine
 10
322.956300607553
 20
326.7166516311036
 30
0.0
 11
322.956300607553
 21
320.2166516311036
 31
0.0
  0
LINE
  5
5D0
330
18
100
AcDbEntity
  8
外形線
  6
Continuous
100
AcDbLine
 10
315.556300607553
 20
326.7166516311036
 30
0.0
 11
315.556300607553
 21
320.2166516311036
 31
0.0
  0
LINE
  5
5D1
330
18
100
AcDbEntity
  8
外形線
  6
Continuous
100
AcDbLine
 10
315.556300607553
 20
326.7166516311036
 30
0.0
 11
322.956300607553
 21
326.7166516311036
 31
0.0
  0
LINE
  5
5D2
330
18
100
AcDbEntity
  8
外形線
  6
Continuous
100
AcDbLine
 10
315.256300607553
 20
320.2166516311036
 30
0.0
 11
323.2563006075529
 21
320.2166516311036
 31
0.0
  0
LINE
  5
5D3
330
18
100
AcDbEntity
  8
外形線
  6
Continuous
100
AcDbLine
 10
315.2563006075529
 20
314.2166516311036
 30
0.0
 11
323.2563006075529
 21
314.2166516311036
 31
0.0
  0
LINE
  5
5D4
330
18
100
AcDbEntity
  8
外形線
  6
Continuous
100
AcDbLine
 10
323.2563006075529
 20
320.2166516311036
 30
0.0
 11
323.2563006075529
 21
314.2166516311036
 31
0.0
  0
LINE
  5
5D5
330
18
100
AcDbEntity
  8
外形線
  6
Continuous
100
AcDbLine
 10
315.256300607553
 20
320.2166516311036
 30
0.0
 11
315.256300607553
 21
314.2166516311036
 31
0.0
  0
LINE
  5
5D6
330
18
100
AcDbEntity
  8
外形線
  6
Continuous
100
AcDbLine
 10
322.956300607553
 20
314.2166516311036
 30
0.0
 11
322.956300607553
 21
312.3560854428756
 31
0.0
  0
LINE
  5
5D7
330
18
100
AcDbEntity
  8
外形線
  6
Continuous
100
AcDbLine
 10
315.556300607553
 20
314.2166516311036
 30
0.0
 11
315.556300607553
 21
312.3560854428756
 31
0.0
  0
ARC
  5
5D9
330
18
100
AcDbEntity
  8
外形線
  6
Continuous
100
AcDbCircle
 10
319.2563006075529
 20
320.3716516311038
 30
0.0
 40
7.344999999999885
100
AcDbArc
 50
59.75198538337817
 51
120.2480146166212
  0
ARC
  5
692
330
18
100
AcDbEntity
  8
外形線
  6
Continuous
100
AcDbCircle
 10
502.3263605569755
 20
286.2166516311037
 30
0.0
 40
105.6666666666664
100
AcDbArc
 50
166.3144531747381
 51
193.685546825262
  0
LINE
  5
693
330
18
100
AcDbEntity
  8
外形線
  6
Continuous
100
AcDbLine
 10
399.6596938903092
 20
311.2166516311037
 30
0.0
 11
399.6596938903092
 21
261.2166516311037
 31
0.0
  0
LINE
  5
694
330
18
100
AcDbEntity
  8
外形線
  6
Continuous
100
AcDbLine
 10
400.8596938903091
 20
312.6166516311037
 30
0.0
 11
400.8596938903091
 21
259.8166516311037
 31
0.0
  0
LINE
  5
695
330
18
100
AcDbEntity
  8
外形線
  6
Continuous
100
AcDbLine
 10
404.6596938903091
 20
312.6166516311037
 30
0.0
 11
404.6596938903091
 21
259.8166516311037
 31
0.0
  0
LINE
  5
696
330
18
100
AcDbEntity
  8
外形線
  6
Continuous
100
AcDbLine
 10
406.1596938903091
 20
311.2166516311037
 30
0.0
 11
406.1596938903091
 21
261.2166516311037
 31
0.0
  0
LINE
  5
697
330
18
100
AcDbEntity
  8
外形線
  6
Continuous
100
AcDbLine
 10
417.6596938903091
 20
310.7166516311037
 30
0.0
 11
417.6596938903091
 21
261.7166516311037
 31
0.0
  0
LINE
  5
69C
330
18
100
AcDbEntity
  8
外形線
  6
Continuous
100
AcDbLine
 10
400.8596938903091
 20
260.7166516311037
 30
0.0
 11
399.6596938903092
 21
261.2166516311037
 31
0.0
  0
LINE
  5
6AD
330
18
100
AcDbEntity
  8
外形線
  6
CENTER2
100
AcDbLine
 10
406.1596938903091
 20
261.2166516311037
 30
0.0
 11
404.6596938903091
 21
261.2166516311037
 31
0.0
  0
LINE
  5
6AE
330
18
100
AcDbEntity
  8
外形線
  6
Continuous
100
AcDbLine
 10
400.8596938903091
 20
259.8166516311037
 30
0.0
 11
404.6596938903091
 21
259.8166516311037
 31
0.0
  0
LINE
  5
6AF
330
18
100
AcDbEntity
  8
外形線
  6
Continuous
 62
     4
100
AcDbLine
 10
400.8596938903091
 20
263.8166516311037
 30
0.0
 11
404.6596938903091
 21
263.8166516311037
 31
0.0
  0
LINE
  5
6B0
330
18
100
AcDbEntity
  8
外形線
  6
Continuous
 62
     4
100
AcDbLine
 10
400.8596938903091
 20
262.8166516311038
 30
0.0
 11
404.6596938903091
 21
262.8166516311038
 31
0.0
  0
LINE
  5
6B1
330
18
100
AcDbEntity
  8
外形線
  6
Continuous
 62
     4
100
AcDbLine
 10
400.8596938903091
 20
261.8166516311037
 30
0.0
 11
404.6596938903091
 21
261.8166516311037
 31
0.0
  0
LINE
  5
6B2
330
18
100
AcDbEntity
  8
外形線
  6
Continuous
 62
     4
100
AcDbLine
 10
400.8596938903091
 20
260.8166516311038
 30
0.0
 11
404.6596938903091
 21
260.8166516311038
 31
0.0
  0
ARC
  5
6B8
330
18
100
AcDbEntity
  8
外形線
  6
Continuous
100
AcDbCircle
 10
411.159693890309
 20
320.3716516311039
 30
0.0
 40
7.344999999999885
100
AcDbArc
 50
59.75198538337879
 51
120.2480146166218
  0
LINE
  5
6B9
330
18
100
AcDbEntity
  8
外形線
  6
Continuous
100
AcDbLine
 10
400.8596938903091
 20
311.7166516311038
 30
0.0
 11
399.6596938903092
 21
311.2166516311037
 31
0.0
  0
LINE
  5
6BA
330
18
100
AcDbEntity
  8
外形線
  6
Continuous
 62
     4
100
AcDbLine
 10
400.8596938903091
 20
264.8166516311038
 30
0.0
 11
404.6596938903091
 21
264.8166516311038
 31
0.0
  0
LINE
  5
6BB
330
18
100
AcDbEntity
  8
外形線
  6
Continuous
 62
     4
100
AcDbLine
 10
404.6596938903091
 20
284.2166516311037
 30
0.0
 11
400.8596938903091
 21
284.2166516311037
 31
0.0
  0
LINE
  5
6BC
330
18
100
AcDbEntity
  8
外形線
  6
Continuous
 62
     4
100
AcDbLine
 10
404.6596938903091
 20
285.2166516311037
 30
0.0
 11
400.8596938903091
 21
285.2166516311037
 31
0.0
  0
LINE
  5
6BD
330
18
100
AcDbEntity
  8
外形線
  6
Continuous
 62
     4
100
AcDbLine
 10
404.6596938903091
 20
286.2166516311037
 30
0.0
 11
400.8596938903091
 21
286.2166516311037
 31
0.0
  0
LINE
  5
6BE
330
18
100
AcDbEntity
  8
外形線
  6
Continuous
 62
     4
100
AcDbLine
 10
404.6596938903091
 20
287.2166516311038
 30
0.0
 11
400.8596938903091
 21
287.2166516311038
 31
0.0
  0
LINE
  5
6BF
330
18
100
AcDbEntity
  8
外形線
  6
Continuous
 62
     4
100
AcDbLine
 10
404.6596938903091
 20
289.2166516311037
 30
0.0
 11
400.8596938903091
 21
289.2166516311037
 31
0.0
  0
LINE
  5
6C0
330
18
100
AcDbEntity
  8
外形線
  6
Continuous
 62
     4
100
AcDbLine
 10
404.6596938903091
 20
288.2166516311037
 30
0.0
 11
400.8596938903091
 21
288.2166516311037
 31
0.0
  0
LINE
  5
6C1
330
18
100
AcDbEntity
  8
外形線
  6
Continuous
 62
     4
100
AcDbLine
 10
400.8596938903091
 20
307.6166516311037
 30
0.0
 11
404.6596938903091
 21
307.6166516311037
 31
0.0
  0
LINE
  5
6C2
330
18
100
AcDbEntity
  8
外形線
  6
Continuous
 62
     4
100
AcDbLine
 10
400.8596938903091
 20
308.6166516311037
 30
0.0
 11
404.6596938903091
 21
308.6166516311037
 31
0.0
  0
LINE
  5
6C3
330
18
100
AcDbEntity
  8
外形線
  6
Continuous
 62
     4
100
AcDbLine
 10
400.8596938903091
 20
309.6166516311037
 30
0.0
 11
404.6596938903091
 21
309.6166516311037
 31
0.0
  0
LINE
  5
6C4
330
18
100
AcDbEntity
  8
外形線
  6
Continuous
 62
     4
100
AcDbLine
 10
400.8596938903091
 20
310.6166516311037
 30
0.0
 11
404.6596938903091
 21
310.6166516311037
 31
0.0
  0
LINE
  5
6C5
330
18
100
AcDbEntity
  8
外形線
  6
Continuous
100
AcDbLine
 10
414.8596938903091
 20
326.7166516311037
 30
0.0
 11
407.459693890309
 21
326.7166516311037
 31
0.0
  0
LINE
  5
6C6
330
18
100
AcDbEntity
  8
外形線
  6
Continuous
100
AcDbLine
 10
415.159693890309
 20
320.2166516311037
 30
0.0
 11
407.159693890309
 21
320.2166516311037
 31
0.0
  0
LINE
  5
6C7
330
18
100
AcDbEntity
  8
外形線
  6
Continuous
100
AcDbLine
 10
415.159693890309
 20
314.2166516311037
 30
0.0
 11
407.159693890309
 21
314.2166516311037
 31
0.0
  0
LINE
  5
6C9
330
18
100
AcDbEntity
  8
外形線
  6
Continuous
100
AcDbLine
 10
415.159693890309
 20
320.2166516311037
 30
0.0
 11
415.159693890309
 21
314.2166516311037
 31
0.0
  0
LINE
  5
6CA
330
18
100
AcDbEntity
  8
外形線
  6
Continuous
100
AcDbLine
 10
414.8596938903091
 20
314.2166516311037
 30
0.0
 11
414.8596938903091
 21
310.7166516311037
 31
0.0
  0
LINE
  5
6CB
330
18
100
AcDbEntity
  8
外形線
  6
Continuous
100
AcDbLine
 10
414.8596938903091
 20
326.7166516311037
 30
0.0
 11
414.8596938903091
 21
320.2166516311037
 31
0.0
  0
LINE
  5
6CC
330
18
100
AcDbEntity
  8
外形線
  6
Continuous
100
AcDbLine
 10
407.159693890309
 20
320.2166516311037
 30
0.0
 11
407.159693890309
 21
314.2166516311037
 31
0.0
  0
LINE
  5
6CD
330
18
100
AcDbEntity
  8
外形線
  6
CENTER2
100
AcDbLine
 10
406.1596938903091
 20
311.2166516311037
 30
0.0
 11
404.6596938903091
 21
311.2166516311037
 31
0.0
  0
LINE
  5
6CE
330
18
100
AcDbEntity
  8
外形線
  6
Continuous
100
AcDbLine
 10
407.459693890309
 20
314.2166516311037
 30
0.0
 11
407.459693890309
 21
310.7166516311037
 31
0.0
  0
LINE
  5
6CF
330
18
100
AcDbEntity
  8
外形線
  6
Continuous
 62
     4
100
AcDbLine
 10
400.8596938903091
 20
311.6166516311037
 30
0.0
 11
404.6596938903091
 21
311.6166516311037
 31
0.0
  0
LINE
  5
6D0
330
18
100
AcDbEntity
  8
外形線
  6
Continuous
100
AcDbLine
 10
400.8596938903091
 20
312.6166516311037
 30
0.0
 11
404.6596938903091
 21
312.6166516311037
 31
0.0
  0
LINE
  5
6D1
330
18
100
AcDbEntity
  8
外形線
  6
Continuous
100
AcDbLine
 10
407.459693890309
 20
326.7166516311037
 30
0.0
 11
407.459693890309
 21
320.2166516311037
 31
0.0
  0
MTEXT
  5
778
330
18
100
AcDbEntity
  8
DEFPOINTS
  6
Continuous
100
AcDbMText
 10
735.8166661286731
 20
235.565234348894
 30
0.0
 40
1.0
 41
0.0
 71
     4
 72
     1
  1
\A1;
 73
     1
 44
1.0
  0
LINE
  5
789
330
18
100
AcDbEntity
  8
中心線
 48
0.5
100
AcDbLine
 10
411.159693890309
 20
337.000590283182
 30
0.0
 11
411.1596938903092
 21
218.2980692950555
 31
0.0
  0
LINE
  5
78E
330
18
100
AcDbEntity
  8
外形線
100
AcDbLine
 10
406.1596938903091
 20
261.7166516311037
 30
0.0
 11
417.6596938903091
 21
261.7166516311037
 31
0.0
  0
LINE
  5
78F
330
18
100
AcDbEntity
  8
外形線
100
AcDbLine
 10
406.1596938903091
 20
310.7166516311037
 30
0.0
 11
417.6596938903091
 21
310.7166516311037
 31
0.0
  0
LINE
  5
795
330
18
100
AcDbEntity
  8
外形線
100
AcDbLine
 10
315.256300607553
 20
245.7166516311037
 30
0.0
 11
323.256300607553
 21
245.7166516311037
 31
0.0
  0
LINE
  5
796
330
18
100
AcDbEntity
  8
外形線
100
AcDbLine
 10
315.656300607553
 20
243.2166516311037
 30
0.0
 11
322.856300607553
 21
243.2166516311037
 31
0.0
  0
LINE
  5
797
330
18
100
AcDbEntity
  8
外形線
100
AcDbLine
 10
315.406300607553
 20
244.2166516311038
 30
0.0
 11
323.106300607553
 21
244.2166516311037
 31
0.0
  0
LINE
  5
79F
330
18
100
AcDbEntity
  8
外形線
100
AcDbLine
 10
315.656300607553
 20
243.2166516311037
 30
0.0
 11
315.656300607553
 21
241.4166516311037
 31
0.0
  0
LINE
  5
7A0
330
18
100
AcDbEntity
  8
外形線
100
AcDbLine
 10
322.856300607553
 20
241.4166516311037
 30
0.0
 11
322.856300607553
 21
243.2166516311037
 31
0.0
  0
LINE
  5
7A1
330
18
100
AcDbEntity
  8
外形線
100
AcDbLine
 10
322.856300607553
 20
241.4166516311037
 30
0.0
 11
322.656300607553
 21
241.2166516311037
 31
0.0
  0
LINE
  5
7A2
330
18
100
AcDbEntity
  8
外形線
100
AcDbLine
 10
315.656300607553
 20
241.4166516311037
 30
0.0
 11
315.8563006075529
 21
241.2166516311037
 31
0.0
  0
LINE
  5
7A5
330
18
100
AcDbEntity
  8
外形線
100
AcDbLine
 10
315.406300607553
 20
245.7166516311037
 30
0.0
 11
315.406300607553
 21
244.2166516311037
 31
0.0
  0
LINE
  5
7A6
330
18
100
AcDbEntity
  8
外形線
100
AcDbLine
 10
323.106300607553
 20
245.7166516311037
 30
0.0
 11
323.106300607553
 21
244.2166516311037
 31
0.0
  0
ARC
  5
7AC
330
18
100
AcDbEntity
  8
外形線
100
AcDbCircle
 10
322.981300607553
 20
243.7166516311037
 30
0.0
 40
0.5153882032022076
100
AcDbArc
 50
75.96375653207353
 51
255.9637565320735
  0
ARC
  5
7AD
330
18
100
AcDbEntity
  8
外形線
100
AcDbCircle
 10
315.531300607553
 20
243.7166516311037
 30
0.0
 40
0.5153882032022076
100
AcDbArc
 50
284.0362434679264
 51
104.0362434679264
  0
LINE
  5
7B0
330
18
100
AcDbEntity
  8
外形線
100
AcDbLine
 10
413.1596938903091
 20
241.2166516311037
 30
0.0
 11
413.1596938903091
 21
230.2166516311037
 31
0.0
  0
LINE
  5
7B1
330
18
100
AcDbEntity
  8
外形線
100
AcDbLine
 10
409.1596938903092
 20
241.2166516311037
 30
0.0
 11
409.1596938903092
 21
230.2166516311037
 31
0.0
  0
LINE
  5
7B2
330
18
100
AcDbEntity
  8
外形線
100
AcDbLine
 10
413.6596938903092
 20
230.0166516311037
 30
0.0
 11
413.6596938903091
 21
226.9166516311037
 31
0.0
  0
LINE
  5
7B3
330
18
100
AcDbEntity
  8
外形線
100
AcDbLine
 10
408.6596938903092
 20
230.0166516311037
 30
0.0
 11
408.6596938903092
 21
226.9166516311037
 31
0.0
  0
LINE
  5
7B5
330
18
100
AcDbEntity
  8
外形線
100
AcDbLine
 10
409.859693890309
 20
222.2166516311038
 30
0.0
 11
412.4596938903091
 21
222.2166516311038
 31
0.0
  0
LINE
  5
7B7
330
18
100
AcDbEntity
  8
外形線
100
AcDbLine
 10
408.9096938903091
 20
226.7166516311037
 30
0.0
 11
413.409693890309
 21
226.7166516311037
 31
0.0
  0
LINE
  5
7B8
330
18
100
AcDbEntity
  8
外形線
100
AcDbLine
 10
408.659693890309
 20
226.9166516311037
 30
0.0
 11
413.6596938903092
 21
226.9166516311037
 31
0.0
  0
LINE
  5
7B9
330
18
100
AcDbEntity
  8
外形線
100
AcDbLine
 10
408.9096938903091
 20
226.7166516311037
 30
0.0
 11
409.859693890309
 21
222.2166516311038
 31
0.0
  0
LINE
  5
7BA
330
18
100
AcDbEntity
  8
外形線
100
AcDbLine
 10
408.6596938903092
 20
226.9166516311037
 30
0.0
 11
408.9096938903091
 21
226.7166516311037
 31
0.0
  0
LINE
  5
7BB
330
18
100
AcDbEntity
  8
外形線
100
AcDbLine
 10
413.4096938903091
 20
226.7166516311037
 30
0.0
 11
412.4596938903091
 21
222.2166516311038
 31
0.0
  0
LINE
  5
7BC
330
18
100
AcDbEntity
  8
外形線
100
AcDbLine
 10
413.6596938903092
 20
226.9166516311037
 30
0.0
 11
413.4096938903091
 21
226.7166516311037
 31
0.0
  0
LINE
  5
7BD
330
18
100
AcDbEntity
  8
外形線
100
AcDbLine
 10
408.9096938903091
 20
230.2166516311037
 30
0.0
 11
413.4096938903091
 21
230.2166516311037
 31
0.0
  0
LINE
  5
7BE
330
18
100
AcDbEntity
  8
外形線
100
AcDbLine
 10
408.659693890309
 20
230.0166516311037
 30
0.0
 11
413.6596938903092
 21
230.0166516311037
 31
0.0
  0
LINE
  5
7BF
330
18
100
AcDbEntity
  8
外形線
100
AcDbLine
 10
408.9096938903091
 20
230.2166516311037
 30
0.0
 11
408.6596938903092
 21
230.0166516311037
 31
0.0
  0
LINE
  5
7C0
330
18
100
AcDbEntity
  8
外形線
100
AcDbLine
 10
413.4096938903091
 20
230.2166516311037
 30
0.0
 11
413.6596938903092
 21
230.0166516311037
 31
0.0
  0
LINE
  5
7C1
330
18
100
AcDbEntity
  8
外形線
100
AcDbLine
 10
415.1596938903091
 20
261.7166516311037
 30
0.0
 11
415.1596938903091
 21
245.7166516311037
 31
0.0
  0
LINE
  5
7C2
330
18
100
AcDbEntity
  8
外形線
100
AcDbLine
 10
407.1596938903093
 20
261.7166516311037
 30
0.0
 11
407.1596938903091
 21
245.7166516311037
 31
0.0
  0
LINE
  5
7C3
330
18
100
AcDbEntity
  8
外形線
100
AcDbLine
 10
407.5596938903092
 20
243.2166516311037
 30
0.0
 11
407.5596938903092
 21
241.4166516311037
 31
0.0
  0
LINE
  5
7C4
330
18
100
AcDbEntity
  8
外形線
100
AcDbLine
 10
414.7596938903092
 20
241.4166516311037
 30
0.0
 11
414.7596938903092
 21
243.2166516311037
 31
0.0
  0
LINE
  5
7C5
330
18
100
AcDbEntity
  8
外形線
100
AcDbLine
 10
407.7596938903091
 20
241.2166516311037
 30
0.0
 11
414.5596938903092
 21
241.2166516311037
 31
0.0
  0
LINE
  5
7C6
330
18
100
AcDbEntity
  8
外形線
100
AcDbLine
 10
407.5596938903092
 20
241.4166516311037
 30
0.0
 11
407.7596938903091
 21
241.2166516311037
 31
0.0
  0
LINE
  5
7C7
330
18
100
AcDbEntity
  8
外形線
100
AcDbLine
 10
414.7596938903092
 20
241.4166516311037
 30
0.0
 11
414.5596938903092
 21
241.2166516311037
 31
0.0
  0
LINE
  5
7C8
330
18
100
AcDbEntity
  8
外形線
100
AcDbLine
 10
407.3096938903091
 20
244.2166516311038
 30
0.0
 11
415.0096938903092
 21
244.2166516311037
 31
0.0
  0
LINE
  5
7C9
330
18
100
AcDbEntity
  8
外形線
100
AcDbLine
 10
407.5596938903092
 20
243.2166516311037
 30
0.0
 11
414.7596938903092
 21
243.2166516311037
 31
0.0
  0
LINE
  5
7CA
330
18
100
AcDbEntity
  8
外形線
100
AcDbLine
 10
407.1596938903091
 20
245.7166516311037
 30
0.0
 11
415.1596938903091
 21
245.7166516311037
 31
0.0
  0
ARC
  5
7CB
330
18
100
AcDbEntity
  8
外形線
100
AcDbCircle
 10
407.4346938903091
 20
243.7166516311037
 30
0.0
 40
0.5153882032022076
100
AcDbArc
 50
284.0362434679264
 51
104.0362434679264
  0
LINE
  5
7CC
330
18
100
AcDbEntity
  8
外形線
100
AcDbLine
 10
407.3096938903091
 20
245.7166516311037
 30
0.0
 11
407.3096938903091
 21
244.2166516311037
 31
0.0
  0
ARC
  5
7CD
330
18
100
AcDbEntity
  8
外形線
100
AcDbCircle
 10
414.8846938903091
 20
243.7166516311037
 30
0.0
 40
0.5153882032022076
100
AcDbArc
 50
75.96375653207353
 51
255.9637565320735
  0
LINE
  5
7CE
330
18
100
AcDbEntity
  8
外形線
100
AcDbLine
 10
415.0096938903092
 20
245.7166516311037
 30
0.0
 11
415.0096938903092
 21
244.2166516311037
 31
0.0
  0
LINE
  5
7D6
330
18
100
AcDbEntity
  8
中心線
 48
0.5
100
AcDbLine
 10
393.1829941443552
 20
286.2166516311037
 30
0.0
 11
441.4698820582699
 21
286.2166516311037
 31
0.0
  0
LINE
  5
833
330
18
100
AcDbEntity
  8
0
  6
ByBlock
 62
     2
100
AcDbLine
 10
319.2563006075529
 20
327.7166516311037
 30
0.0
 11
275.484851650968
 21
327.7166516311037
 31
0.0
  0
LINE
  5
835
330
18
100
AcDbEntity
  8
0
  6
ByBlock
 62
     2
100
AcDbLine
 10
282.4633733121788
 20
325.2166516311037
 30
0.0
 11
282.4633733121788
 21
288.7166516311037
 31
0.0
  0
INSERT
  5
836
330
18
100
AcDbEntity
  8
0
  6
ByBlock
 62
     2
100
AcDbBlockReference
  2
_OPEN
 10
282.4633733121788
 20
327.7166516311037
 30
0.0
 41
2.5
 42
2.5
 43
2.5
 50
90.0
  0
INSERT
  5
837
330
18
100
AcDbEntity
  8
0
  6
ByBlock
 62
     2
100
AcDbBlockReference
  2
_OPEN
 10
282.4633733121788
 20
286.2166516311037
 30
0.0
 41
2.5
 42
2.5
 43
2.5
 50
270.0
  0
MTEXT
  5
838
330
18
100
AcDbEntity
  8
0
  6
ByBlock
 62
     6
100
AcDbMText
 10
280.5883733121788
 20
306.9666516311037
 30
0.0
 40
2.5
 41
0.0
 71
     5
 72
     1
  1
\A1;41.5
  7
STYLE3
 11
0.0000000000000001
 21
1.0
 31
0.0
 73
     1
 44
1.0
  0
POINT
  5
839
330
18
100
AcDbEntity
  8
DEFPOINTS
  6
ByBlock
 62
     0
100
AcDbPoint
 10
319.2563006075529
 20
327.7166516311037
 30
0.0
  0
LINE
  5
83C
330
18
100
AcDbEntity
  8
0
  6
ByBlock
 62
     2
100
AcDbLine
 10
319.256300607553
 20
221.2166516311037
 30
0.0
 11
275.4848516509682
 21
221.2166516311037
 31
0.0
  0
LINE
  5
83D
330
18
100
AcDbEntity
  8
0
  6
ByBlock
 62
     2
100
AcDbLine
 10
282.4633733121788
 20
283.7166516311037
 30
0.0
 11
282.4633733121788
 21
223.7166516311037
 31
0.0
  0
INSERT
  5
83E
330
18
100
AcDbEntity
  8
0
  6
ByBlock
 62
     2
100
AcDbBlockReference
  2
_OPEN
 10
282.4633733121788
 20
286.2166516311037
 30
0.0
 41
2.5
 42
2.5
 43
2.5
 50
90.0
  0
INSERT
  5
83F
330
18
100
AcDbEntity
  8
0
  6
ByBlock
 62
     2
100
AcDbBlockReference
  2
_OPEN
 10
282.4633733121788
 20
221.2166516311037
 30
0.0
 41
2.5
 42
2.5
 43
2.5
 50
270.0
  0
MTEXT
  5
840
330
18
100
AcDbEntity
  8
0
  6
ByBlock
 62
     6
100
AcDbMText
 10
280.5883733121788
 20
253.7166516311037
 30
0.0
 40
2.5
 41
0.0
 71
     5
 72
     1
  1
\A1;65
  7
STYLE3
 11
0.0000000000000001
 21
1.0
 31
0.0
 73
     1
 44
1.0
  0
POINT
  5
842
330
18
100
AcDbEntity
  8
DEFPOINTS
  6
ByBlock
 62
     0
100
AcDbPoint
 10
319.256300607553
 20
221.2166516311037
 30
0.0
  0
POINT
  5
843
330
18
100
AcDbEntity
  8
DEFPOINTS
  6
ByBlock
 62
     0
100
AcDbPoint
 10
282.4633733121788
 20
221.2166516311037
 30
0.0
  0
LINE
  5
846
330
18
100
AcDbEntity
  8
0
  6
ByBlock
 62
     2
100
AcDbLine
 10
276.734851650968
 20
325.2166516311037
 30
0.0
 11
276.734851650968
 21
223.7166516311037
 31
0.0
  0
INSERT
  5
847
330
18
100
AcDbEntity
  8
0
  6
ByBlock
 62
     2
100
AcDbBlockReference
  2
_OPEN
 10
276.734851650968
 20
327.7166516311037
 30
0.0
 41
2.5
 42
2.5
 43
2.5
 50
90.0
  0
INSERT
  5
848
330
18
100
AcDbEntity
  8
0
  6
ByBlock
 62
     2
100
AcDbBlockReference
  2
_OPEN
 10
276.734851650968
 20
221.2166516311037
 30
0.0
 41
2.5
 42
2.5
 43
2.5
 50
270.0
  0
MTEXT
  5
849
330
18
100
AcDbEntity
  8
0
  6
ByBlock
 62
     6
100
AcDbMText
 10
274.859851650968
 20
274.4666516311037
 30
0.0
 40
2.5
 41
0.0
 71
     5
 72
     1
  1
\A1;106.5
  7
STYLE3
 11
0.0000000000000001
 21
1.0
 31
0.0
 73
     1
 44
1.0
  0
POINT
  5
84A
330
18
100
AcDbEntity
  8
DEFPOINTS
  6
ByBlock
 62
     0
100
AcDbPoint
 10
281.2133733121788
 20
327.7166516311037
 30
0.0
  0
POINT
  5
84B
330
18
100
AcDbEntity
  8
DEFPOINTS
  6
ByBlock
 62
     0
100
AcDbPoint
 10
281.2133733121788
 20
221.2166516311037
 30
0.0
  0
POINT
  5
84C
330
18
100
AcDbEntity
  8
DEFPOINTS
  6
ByBlock
 62
     0
100
AcDbPoint
 10
276.734851650968
 20
221.2166516311037
 30
0.0
  0
LINE
  5
874
330
18
100
AcDbEntity
  8
0
  6
ByBlock
 62
     2
100
AcDbLine
 10
409.6596938903091
 20
247.5891750534095
 30
0.0
 11
412.6596938903091
 21
247.5891750534095
 31
0.0
  0
INSERT
  5
875
330
18
100
AcDbEntity
  8
0
  6
ByBlock
 62
     2
100
AcDbBlockReference
  2
_OPEN
 10
407.1596938903091
 20
247.5891750534095
 30
0.0
 41
2.5
 42
2.5
 43
2.5
 50
180.0
  0
INSERT
  5
876
330
18
100
AcDbEntity
  8
0
  6
ByBlock
 62
     2
100
AcDbBlockReference
  2
_OPEN
 10
415.1596938903091
 20
247.5891750534095
 30
0.0
 41
2.5
 42
2.5
 43
2.5
  0
MTEXT
  5
877
330
18
100
AcDbEntity
  8
0
  6
ByBlock
 62
     6
100
AcDbMText
 10
419.2363809833059
 20
249.4230820711273
 30
0.0
 40
2.299999999999999
 41
0.0
 71
     5
 72
     1
  1
%%C8.0
  7
STYLE3
 73
     1
 44
1.0
  0
POINT
  5
878
330
18
100
AcDbEntity
  8
DEFPOINTS
  6
ByBlock
 62
     0
100
AcDbPoint
 10
315.256300607553
 20
250.9991210494062
 30
0.0
  0
POINT
  5
87A
330
18
100
AcDbEntity
  8
DEFPOINTS
  6
ByBlock
 62
     0
100
AcDbPoint
 10
415.1596938903091
 20
247.5891750534095
 30
0.0
  0
LINE
  5
87B
330
18
100
AcDbEntity
  8
0
  6
ByBlock
 62
     2
100
AcDbLine
 10
314.756300607553
 20
234.3042051388399
 30
0.0
 11
312.4449687687671
 21
234.3042051388399
 31
0.0
  0
LINE
  5
87C
330
18
100
AcDbEntity
  8
0
  6
ByBlock
 62
     2
100
AcDbLine
 10
323.7563006075529
 20
234.3042051388399
 30
0.0
 11
328.2840568329055
 21
234.3042051388399
 31
0.0
  0
LINE
  5
87D
330
18
100
AcDbEntity
  8
0
  6
ByBlock
 62
     2
100
AcDbLine
 10
317.256300607553
 20
234.3042051388399
 30
0.0
 11
321.2563006075529
 21
234.3042051388399
 31
0.0
  0
INSERT
  5
87E
330
18
100
AcDbEntity
  8
0
  6
ByBlock
 62
     2
100
AcDbBlockReference
  2
_OPEN
 10
317.256300607553
 20
234.3042051388399
 30
0.0
 41
2.5
 42
2.5
 43
2.5
  0
INSERT
  5
87F
330
18
100
AcDbEntity
  8
0
  6
ByBlock
 62
     2
100
AcDbBlockReference
  2
_OPEN
 10
321.2563006075529
 20
234.3042051388399
 30
0.0
 41
2.5
 42
2.5
 43
2.5
 50
180.0
  0
MTEXT
  5
880
330
18
100
AcDbEntity
  8
0
  6
ByBlock
 62
     6
100
AcDbMText
 10
326.7184441594633
 20
236.1792051388399
 30
0.0
 40
2.5
 41
0.0
 71
     5
 72
     1
  1
\A1;4
  7
STYLE3
 73
     1
 44
1.0
  0
POINT
  5
881
330
18
100
AcDbEntity
  8
DEFPOINTS
  6
ByBlock
 62
     0
100
AcDbPoint
 10
317.256300607553
 20
234.9525514143011
 30
0.0
  0
POINT
  5
882
330
18
100
AcDbEntity
  8
DEFPOINTS
  6
ByBlock
 62
     0
100
AcDbPoint
 10
321.2563006075529
 20
234.8715080161086
 30
0.0
  0
POINT
  5
883
330
18
100
AcDbEntity
  8
DEFPOINTS
  6
ByBlock
 62
     0
100
AcDbPoint
 10
321.2563006075529
 20
234.3042051388399
 30
0.0
  0
TEXT
  5
884
330
18
100
AcDbEntity
  8
文字
100
AcDbText
 10
323.5243119017765
 20
235.6819410879547
 30
0.0
 40
2.5
  1
φ
  7
STYLE3
100
AcDbText
  0
TEXT
  5
885
330
18
100
AcDbEntity
  8
文字
100
AcDbText
 10
315.1231900231764
 20
253.9283820623713
 30
0.0
 40
2.5
  1
φ
  7
STYLE3
100
AcDbText
  0
MTEXT
  5
887
330
18
100
AcDbEntity
  8
文字
100
AcDbMText
 10
302.9558756866726
 20
261.6432165871282
 30
0.0
 40
1.0
 41
6.927999999999999
 71
     1
 72
     5
  1

  7
STYLE3
 73
     1
 44
1.0
  0
LINE
  5
8FD
330
18
100
AcDbEntity
  8
0
  6
ByBlock
 62
     2
100
AcDbLine
 10
408.9096938903091
 20
230.2166516311037
 30
0.0
 11
396.3050660459646
 21
230.2166516311037
 31
0.0
  0
LINE
  5
8FF
330
18
100
AcDbEntity
  8
0
  6
ByBlock
 62
     2
100
AcDbLine
 10
397.5550660459646
 20
227.7166516311037
 30
0.0
 11
397.5550660459646
 21
223.7166516311037
 31
0.0
  0
INSERT
  5
900
330
18
100
AcDbEntity
  8
0
  6
ByBlock
 62
     2
100
AcDbBlockReference
  2
_OPEN
 10
397.5550660459646
 20
230.2166516311037
 30
0.0
 41
2.5
 42
2.5
 43
2.5
 50
90.0
  0
INSERT
  5
901
330
18
100
AcDbEntity
  8
0
  6
ByBlock
 62
     2
100
AcDbBlockReference
  2
_OPEN
 10
397.5550660459646
 20
221.2166516311037
 30
0.0
 41
2.5
 42
2.5
 43
2.5
 50
270.0
  0
MTEXT
  5
902
330
18
100
AcDbEntity
  8
0
  6
ByBlock
 62
     6
100
AcDbMText
 10
395.6800660459646
 20
225.7166516311037
 30
0.0
 40
2.5
 41
0.0
 71
     5
 72
     1
  1
\A1;9
  7
STYLE3
 11
0.0000000000000001
 21
1.0
 31
0.0
 73
     1
 44
1.0
  0
POINT
  5
903
330
18
100
AcDbEntity
  8
DEFPOINTS
  6
ByBlock
 62
     0
100
AcDbPoint
 10
408.9096938903091
 20
230.2166516311037
 30
0.0
  0
LINE
  5
907
330
18
100
AcDbEntity
  8
0
  6
ByBlock
 62
     2
100
AcDbLine
 10
407.1596938903091
 20
245.7166516311037
 30
0.0
 11
395.6154956991954
 21
245.7166516311037
 31
0.0
  0
LINE
  5
908
330
18
100
AcDbEntity
  8
0
  6
ByBlock
 62
     2
100
AcDbLine
 10
396.8654956991954
 20
257.3166516311037
 30
0.0
 11
396.8654956991954
 21
248.2166516311037
 31
0.0
  0
INSERT
  5
909
330
18
100
AcDbEntity
  8
0
  6
ByBlock
 62
     2
100
AcDbBlockReference
  2
_OPEN
 10
396.8654956991954
 20
259.8166516311037
 30
0.0
 41
2.5
 42
2.5
 43
2.5
 50
90.0
  0
INSERT
  5
90A
330
18
100
AcDbEntity
  8
0
  6
ByBlock
 62
     2
100
AcDbBlockReference
  2
_OPEN
 10
396.8654956991954
 20
245.7166516311037
 30
0.0
 41
2.5
 42
2.5
 43
2.5
 50
270.0
  0
MTEXT
  5
90B
330
18
100
AcDbEntity
  8
0
  6
ByBlock
 62
     6
100
AcDbMText
 10
394.9904956991954
 20
252.7666516311037
 30
0.0
 40
2.5
 41
0.0
 71
     5
 72
     1
  1
14
  7
STYLE3
 11
0.0000000000000001
 21
1.0
 31
0.0
 73
     1
 44
1.0
  0
POINT
  5
90D
330
18
100
AcDbEntity
  8
DEFPOINTS
  6
ByBlock
 62
     0
100
AcDbPoint
 10
407.1596938903091
 20
245.7166516311037
 30
0.0
  0
POINT
  5
90E
330
18
100
AcDbEntity
  8
DEFPOINTS
  6
ByBlock
 62
     0
100
AcDbPoint
 10
396.8654956991954
 20
245.7166516311037
 30
0.0
  0
LINE
  5
910
330
18
100
AcDbEntity
  8
0
  6
ByBlock
 62
     2
100
AcDbLine
 10
407.7596938903091
 20
241.2166516311037
 30
0.0
 11
388.3554537179154
 21
241.2166516311037
 31
0.0
  0
LINE
  5
911
330
18
100
AcDbEntity
  8
0
  6
ByBlock
 62
     2
100
AcDbLine
 10
389.6054537179154
 20
257.3166516311037
 30
0.0
 11
389.6054537179154
 21
243.7166516311037
 31
0.0
  0
INSERT
  5
912
330
18
100
AcDbEntity
  8
0
  6
ByBlock
 62
     2
100
AcDbBlockReference
  2
_OPEN
 10
389.6054537179154
 20
259.8166516311037
 30
0.0
 41
2.5
 42
2.5
 43
2.5
 50
90.0
  0
INSERT
  5
913
330
18
100
AcDbEntity
  8
0
  6
ByBlock
 62
     2
100
AcDbBlockReference
  2
_OPEN
 10
389.6054537179154
 20
241.2166516311037
 30
0.0
 41
2.5
 42
2.5
 43
2.5
 50
270.0
  0
MTEXT
  5
914
330
18
100
AcDbEntity
  8
0
  6
ByBlock
 62
     6
100
AcDbMText
 10
387.7304537179154
 20
250.5166516311037
 30
0.0
 40
2.5
 41
0.0
 71
     5
 72
     1
  1
18.5
  7
STYLE3
 11
0.0000000000000001
 21
1.0
 31
0.0
 73
     1
 44
1.0
  0
POINT
  5
916
330
18
100
AcDbEntity
  8
DEFPOINTS
  6
ByBlock
 62
     0
100
AcDbPoint
 10
407.7596938903091
 20
241.2166516311037
 30
0.0
  0
POINT
  5
917
330
18
100
AcDbEntity
  8
DEFPOINTS
  6
ByBlock
 62
     0
100
AcDbPoint
 10
389.6054537179154
 20
241.2166516311037
 30
0.0
  0
TEXT
  5
93E
330
18
100
AcDbEntity
  8
文字
100
AcDbText
 10
450.8878298599992
 20
281.1095693440864
 30
0.0
 40
2.5
  1
φ
 50
90.0
  7
STYLE3
100
AcDbText
  0
LWPOLYLINE
  5
96E
330
18
100
AcDbEntity
  8
C
100
AcDbPolyline
 90
        5
 70
     0
 43
0.4
 10
236.6915604445414
 20
366.8501752555372
 10
491.6915604445414
 20
366.8501752555372
 10
491.6915604445414
 20
171.8501752555372
 10
236.6915604445414
 20
171.8501752555372
 10
236.6915604445414
 20
366.8501752555372
  0
MTEXT
  5
EB4
330
18
100
AcDbEntity
  8
DEFPOINTS
  6
Continuous
100
AcDbMText
 10
624.6916853418142
 20
184.890767874579
 30
0.0
 40
0.35
 41
0.0
 71
     4
 72
     1
  1
\A1;
 73
     1
 44
1.0
  0
LINE
  5
EB5
102
{ACAD_REACTORS
330
EF3
102
}
330
18
100
AcDbEntity
  8
ROGO
 62
     4
100
AcDbLine
 10
312.5889244927112
 20
295.5816182722102
 30
0.0
 11
314.2014228056963
 21
295.5816182722102
 31
0.0
  0
LINE
  5
EB6
102
{ACAD_REACTORS
330
EF2
330
EF3
102
}
330
18
100
AcDbEntity
  8
ROGO
 62
     4
100
AcDbLine
 10
311.5736739526185
 20
293.5297394873042
 30
0.0
 11
325.4628512196423
 21
293.5297394873042
 31
0.0
  0
LINE
  5
EB7
102
{ACAD_REACTORS
330
EF3
102
}
330
18
100
AcDbEntity
  8
ROGO
 62
     4
100
AcDbLine
 10
312.5889244927112
 20
295.5816182722102
 30
0.0
 11
311.5736739526185
 21
293.5297394873042
 31
0.0
  0
SPLINE
  5
EB8
102
{ACAD_REACTORS
330
EF3
102
}
330
18
100
AcDbEntity
  8
ROGO
 62
     4
100
AcDbSpline
210
0.0
220
0.0
230
1.0
 70
     8
 71
     3
 72
    18
 73
    14
 74
     0
 42
0.0000000001
 43
0.0000000001
 40
0.1087402787915014
 40
0.1087402787915014
 40
0.1087402787915014
 40
0.1087402787915014
 40
0.5992371417938475
 40
1.083176791562496
 40
1.448211145705696
 40
1.714037220764907
 40
2.164002567013297
 40
2.740236056362883
 40
3.395137510199602
 40
4.071816045172726
 40
4.784906178399433
 40
5.506895915094292
 40
6.060470601257719
 40
6.060470601257719
 40
6.060470601257719
 40
6.060470601257719
 10
314.2014228056963
 20
295.5816182722103
 30
0.0
 10
314.2530823433324
 20
295.5626859173626
 30
0.0
 10
314.3546702911828
 20
295.5226600260473
 30
0.0
 10
314.47865552673
 20
295.4313077162559
 30
0.0
 10
314.5462717206548
 20
295.3258489390831
 30
0.0
 10
314.6113109291978
 20
295.2219381967803
 30
0.0
 10
314.6204130477087
 20
295.0728606626238
 30
0.0
 10
314.6055031626616
 20
294.8843905270521
 30
0.0
 10
314.5092462917855
 20
294.6877413895314
 30
0.0
 10
314.3547483527041
 20
294.5157443587296
 30
0.0
 10
314.1629283796111
 20
294.3780801783879
 30
0.0
 10
313.9606476015039
 20
294.2700173418925
 30
0.0
 10
313.8160572444503
 20
294.2689406212839
 30
0.0
 10
313.7533073275556
 20
294.2684733416527
 30
0.0
  0
LINE
  5
EB9
102
{ACAD_REACTORS
330
EF3
102
}
330
18
100
AcDbEntity
  8
ROGO
 62
     4
100
AcDbLine
 10
313.7533073278647
 20
294.2684733416527
 30
0.0
 11
312.8616990593835
 21
294.2684733416527
 31
0.0
  0
LINE
  5
EBA
102
{ACAD_REACTORS
330
EF3
102
}
330
18
100
AcDbEntity
  8
ROGO
 62
     4
100
AcDbLine
 10
313.226061348051
 20
295.0738213609969
 30
0.0
 11
313.0680635516936
 21
294.7245996761115
 31
0.0
  0
SPLINE
  5
EBB
102
{ACAD_REACTORS
330
EF3
102
}
330
18
100
AcDbEntity
  8
ROGO
 62
     4
100
AcDbSpline
210
0.0
220
0.0
230
1.0
 70
     8
 71
     3
 72
    15
 73
    11
 74
     9
 42
0.0000000001
 43
0.0000000001
 44
0.0000000001
 40
0.0
 40
0.0
 40
0.0
 40
0.0
 40
0.1539705029175028
 40
0.2241725832587281
 40
0.3038566179396687
 40
0.3581410872474193
 40
0.443992538467216
 40
0.4954152125469665
 40
0.5836396705646186
 40
0.6130478420065743
 40
0.6130478420065743
 40
0.6130478420065743
 40
0.6130478420065743
 10
313.6320483471485
 20
295.0738213609969
 30
0.0
 10
313.6898766822076
 20
295.0740862456393
 30
0.0
 10
313.7740715572657
 20
295.074471903109
 30
0.0
 10
313.8201123136303
 20
294.9703225991795
 30
0.0
 10
313.7994746513968
 20
294.9032666945421
 30
0.0
 10
313.7735314279727
 20
294.8344211802942
 30
0.0
 10
313.7276838764304
 20
294.787639615025
 30
0.0
 10
313.6661497468352
 20
294.742581081388
 30
0.0
 10
313.6079970537795
 20
294.7371265441285
 30
0.0
 10
313.5701752548069
 20
294.7271050506743
 30
0.0
 10
313.5607198005376
 20
294.7245996761115
 30
0.0
 11
313.6320483471485
 21
295.0738213609969
 31
0.0
 11
313.7818384180773
 21
295.038186400357
 31
0.0
 11
313.8103699187523
 21
294.9740437035515
 31
0.0
 11
313.7961043734914
 21
294.8956470224901
 31
0.0
 11
313.7747058505236
 21
294.8457580775943
 31
0.0
 11
313.7176428491735
 21
294.781615380789
 31
0.0
 11
313.6748458032376
 21
294.753107412277
 31
0.0
 11
313.5892513012127
 21
294.7317266682394
 31
0.0
 11
313.5607198005376
 21
294.7245996761115
 31
0.0
  0
LINE
  5
EBC
102
{ACAD_REACTORS
330
EF3
102
}
330
18
100
AcDbEntity
  8
ROGO
 62
     4
100
AcDbLine
 10
313.6320483471485
 20
295.0738213609969
 30
0.0
 11
313.226061348051
 21
295.0738213609969
 31
0.0
  0
LINE
  5
EBD
102
{ACAD_REACTORS
330
EF3
102
}
330
18
100
AcDbEntity
  8
ROGO
 62
     4
100
AcDbLine
 10
313.5607198005377
 20
294.7245996761115
 30
0.0
 11
313.0680635516936
 21
294.7245996761115
 31
0.0
  0
LINE
  5
EBE
102
{ACAD_REACTORS
330
EF3
102
}
330
18
100
AcDbEntity
  8
ROGO
 62
     4
100
AcDbLine
 10
312.8616990593835
 20
294.2684733416527
 30
0.0
 11
312.527474908555
 21
293.5297394873042
 31
0.0
  0
LINE
  5
EBF
102
{ACAD_REACTORS
330
EEE
102
}
330
18
100
AcDbEntity
  8
ROGO
 62
     4
100
AcDbLine
 10
315.1540467989019
 20
295.5816182722102
 30
0.0
 11
314.5043148996418
 21
294.2684733416527
 31
0.0
  0
LINE
  5
EC0
102
{ACAD_REACTORS
330
EEE
102
}
330
18
100
AcDbEntity
  8
ROGO
 62
     4
100
AcDbLine
 10
316.9301299473858
 20
295.5816182722102
 30
0.0
 11
316.7812957516513
 21
295.2808159415182
 31
0.0
  0
LINE
  5
EC1
102
{ACAD_REACTORS
330
EEE
102
}
330
18
100
AcDbEntity
  8
ROGO
 62
     4
100
AcDbLine
 10
314.5043148996418
 20
294.2684733416527
 30
0.0
 11
316.2803980481257
 21
294.2684733416527
 31
0.0
  0
LINE
  5
EC2
102
{ACAD_REACTORS
330
EEE
102
}
330
18
100
AcDbEntity
  8
ROGO
 62
     4
100
AcDbLine
 10
315.8478313294333
 20
295.2808159415182
 30
0.0
 11
315.7314614833568
 21
295.045625898334
 31
0.0
  0
LINE
  5
EC3
102
{ACAD_REACTORS
330
EEE
102
}
330
18
100
AcDbEntity
  8
ROGO
 62
     4
100
AcDbLine
 10
315.8478313294333
 20
295.2808159415182
 30
0.0
 11
316.7812957516513
 21
295.2808159415182
 31
0.0
  0
LINE
  5
EC4
102
{ACAD_REACTORS
330
EEE
102
}
330
18
100
AcDbEntity
  8
ROGO
 62
     4
100
AcDbLine
 10
315.7314614833568
 20
295.045625898334
 30
0.0
 11
316.6649259055748
 21
295.045625898334
 31
0.0
  0
LINE
  5
EC5
102
{ACAD_REACTORS
330
EEE
102
}
330
18
100
AcDbEntity
  8
ROGO
 62
     4
100
AcDbLine
 10
315.4957603351166
 20
294.5692605416528
 30
0.0
 11
316.4292247573346
 21
294.5692605416528
 31
0.0
  0
LINE
  5
EC6
102
{ACAD_REACTORS
330
EEE
102
}
330
18
100
AcDbEntity
  8
ROGO
 62
     4
100
AcDbLine
 10
315.612135107733
 20
294.8044605416527
 30
0.0
 11
316.5455995299509
 21
294.8044605416527
 31
0.0
  0
LINE
  5
EC7
102
{ACAD_REACTORS
330
EEE
102
}
330
18
100
AcDbEntity
  8
ROGO
 62
     4
100
AcDbLine
 10
316.6649259055748
 20
295.045625898334
 30
0.0
 11
316.5455995299509
 21
294.8044605416527
 31
0.0
  0
LINE
  5
EC8
102
{ACAD_REACTORS
330
EEE
102
}
330
18
100
AcDbEntity
  8
ROGO
 62
     4
100
AcDbLine
 10
316.4292247573346
 20
294.5692605416528
 30
0.0
 11
316.2803980481257
 21
294.2684733416527
 31
0.0
  0
LINE
  5
EC9
102
{ACAD_REACTORS
330
EEE
102
}
330
18
100
AcDbEntity
  8
ROGO
 62
     4
100
AcDbLine
 10
315.612135107733
 20
294.8044605416527
 30
0.0
 11
315.4957603351166
 21
294.5692605416528
 31
0.0
  0
LINE
  5
ECA
102
{ACAD_REACTORS
330
EF7
102
}
330
18
100
AcDbEntity
  8
ROGO
 62
     4
100
AcDbLine
 10
317.4446242125835
 20
295.5816182722102
 30
0.0
 11
316.4976898824844
 21
294.2684733416527
 31
0.0
  0
LINE
  5
ECB
102
{ACAD_REACTORS
330
EF7
102
}
330
18
100
AcDbEntity
  8
ROGO
 62
     4
100
AcDbLine
 10
317.9187520692152
 20
295.2306092952585
 30
0.0
 11
317.595385332902
 21
294.7821860234396
 31
0.0
  0
LINE
  5
ECC
102
{ACAD_REACTORS
330
EF7
102
}
330
18
100
AcDbEntity
  8
ROGO
 62
     4
100
AcDbLine
 10
317.4052275717569
 20
294.5184880117436
 30
0.0
 11
318.2351045605412
 21
294.5184880117436
 31
0.0
  0
LINE
  5
ECD
102
{ACAD_REACTORS
330
EF7
102
}
330
18
100
AcDbEntity
  8
ROGO
 62
     4
100
AcDbLine
 10
317.595385332902
 20
294.7821860234396
 30
0.0
 11
318.1179594549407
 21
294.7821860234396
 31
0.0
  0
LINE
  5
ECE
102
{ACAD_REACTORS
330
EF7
102
}
330
18
100
AcDbEntity
  8
ROGO
 62
     4
100
AcDbLine
 10
317.4052275717569
 20
294.5184880117436
 30
0.0
 11
317.224937134176
 21
294.2684733416528
 31
0.0
  0
LINE
  5
ECF
102
{ACAD_REACTORS
330
EF7
102
}
330
18
100
AcDbEntity
  8
ROGO
 62
     4
100
AcDbLine
 10
316.4976898824844
 20
294.2684733416527
 30
0.0
 11
317.2249371341759
 21
294.2684733416527
 31
0.0
  0
LINE
  5
ED0
102
{ACAD_REACTORS
330
EF7
102
}
330
18
100
AcDbEntity
  8
ROGO
 62
     4
100
AcDbLine
 10
317.4446242125835
 20
295.5816182722102
 30
0.0
 11
318.495027695355
 21
295.5816182722103
 31
0.0
  0
LINE
  5
ED1
102
{ACAD_REACTORS
330
EF7
102
}
330
18
100
AcDbEntity
  8
ROGO
 62
     4
100
AcDbLine
 10
319.0783787057382
 20
294.2684733416528
 30
0.0
 11
318.3461709836101
 21
294.2684733416527
 31
0.0
  0
LINE
  5
ED2
102
{ACAD_REACTORS
330
EEF
102
}
330
18
100
AcDbEntity
  8
ROGO
 62
     4
100
AcDbLine
 10
319.4379981207441
 20
294.2684733416527
 30
0.0
 11
320.5690271357487
 21
294.2684733416527
 31
0.0
  0
LINE
  5
ED3
102
{ACAD_REACTORS
330
EEF
102
}
330
18
100
AcDbEntity
  8
ROGO
 62
     4
100
AcDbLine
 10
321.2238036087579
 20
295.5816182722102
 30
0.0
 11
320.9801843082173
 21
295.0930432199934
 31
0.0
  0
LINE
  5
ED4
102
{ACAD_REACTORS
330
EEF
102
}
330
18
100
AcDbEntity
  8
ROGO
 62
     4
100
AcDbLine
 10
320.1584173848662
 20
295.0930432199934
 30
0.0
 11
320.9801843082173
 21
295.0930432199934
 31
0.0
  0
LINE
  5
ED5
102
{ACAD_REACTORS
330
EEF
102
}
330
18
100
AcDbEntity
  8
ROGO
 62
     4
100
AcDbLine
 10
319.9729628355553
 20
294.7570432199934
 30
0.0
 11
320.8126438564275
 21
294.7570432199934
 31
0.0
  0
SPLINE
  5
ED6
102
{ACAD_REACTORS
330
EEF
102
}
330
18
100
AcDbEntity
  8
ROGO
 62
     4
100
AcDbSpline
210
0.0
220
0.0
230
1.0
 70
     8
 71
     3
 72
    26
 73
    22
 74
    20
 42
0.0000000001
 43
0.0000000001
 44
0.0000000001
 40
0.0
 40
0.0
 40
0.0
 40
0.0
 40
0.2382195346591896
 40
0.397689067266058
 40
0.5126795869787669
 40
0.5985392873135731
 40
0.7099038249249733
 40
0.7911890807494741
 40
0.9379713068543702
 40
1.057449928673087
 40
1.138714535893316
 40
1.218398644003506
 40
1.36093802187036
 40
1.461730374800257
 40
1.516014844108008
 40
1.593124329220501
 40
1.648806818593631
 40
1.729472362005518
 40
1.775122082164342
 40
1.874460993765092
 40
1.919820003751207
 40
1.919820003751207
 40
1.919820003751207
 40
1.919820003751207
 10
319.9087672666516
 20
295.5816182722102
 30
0.0
 10
319.8279118758929
 20
295.5767943009451
 30
0.0
 10
319.6929300618271
 20
295.5687410544484
 30
0.0
 10
319.5447208511152
 20
295.4787055505901
 30
0.0
 10
319.4361341067051
 20
295.4263628652476
 30
0.0
 10
319.3586901722808
 20
295.355207443828
 30
0.0
 10
319.3019234544133
 20
295.2817090913067
 30
0.0
 10
319.2303583497158
 20
295.1941363431814
 30
0.0
 10
319.1719990518099
 20
295.0921614217167
 30
0.0
 10
319.1422802092767
 20
294.9797672806535
 30
0.0
 10
319.115955540623
 20
294.8901884980944
 30
0.0
 10
319.0964327256499
 20
294.7903646352021
 30
0.0
 10
319.1013998824629
 20
294.6825197470797
 30
0.0
 10
319.1085130783474
 20
294.582358936076
 30
0.0
 10
319.1402717682715
 20
294.5108591131494
 30
0.0
 10
319.1764392906614
 20
294.4599561662199
 30
0.0
 10
319.2207259265164
 20
294.4038922135213
 30
0.0
 10
319.2691851908338
 20
294.366761239191
 30
0.0
 10
319.3092649579443
 20
294.2994959840504
 30
0.0
 10
319.3794232382068
 20
294.2909124523743
 30
0.0
 10
319.4240186322827
 20
294.2738286624973
 30
0.0
 10
319.4379981207441
 20
294.2684733416527
 30
0.0
 11
319.9087672666516
 21
295.5816182722102
 31
0.0
 11
319.6733826936978
 21
295.5449760901165
 31
0.0
 11
319.5307251903228
 21
295.4737064011831
 31
0.0
 11
319.430865143037
 21
295.4166906965057
 31
0.0
 11
319.3666695741332
 21
295.3596747594819
 31
0.0
 11
319.2953410275225
 21
295.2741510862925
 31
0.0
 11
319.2454110038795
 21
295.2100083894871
 31
0.0
 11
319.1740820471153
 21
295.0817227635298
 31
0.0
 11
319.1384179788865
 21
294.9676911218286
 31
0.0
 11
319.1170194559187
 21
294.8892944407672
 31
0.0
 11
319.1027535005044
 21
294.8108977597058
 31
0.0
 11
319.1027535005044
 21
294.668358381839
 31
0.0
 11
319.1170194559187
 21
294.5685807243937
 31
0.0
 11
319.1384179788865
 21
294.5186917794979
 31
0.0
 11
319.1812150248223
 21
294.4545490826924
 31
0.0
 11
319.2168795032045
 21
294.4117871299246
 31
0.0
 11
319.273942094401
 21
294.3547714252471
 31
0.0
 11
319.3024735950761
 21
294.3191364646072
 31
0.0
 11
319.3952010748083
 21
294.2835017363137
 31
0.0
 11
319.4379981207441
 21
294.2684733416527
 31
0.0
  0
SPLINE
  5
ED7
102
{ACAD_REACTORS
330
EEF
102
}
330
18
100
AcDbEntity
  8
ROGO
 62
     4
100
AcDbSpline
210
0.0
220
0.0
230
1.0
 70
     8
 71
     3
 72
    16
 73
    12
 74
    10
 42
0.0000000001
 43
0.0000000001
 44
0.0000000001
 40
0.0
 40
0.0
 40
0.0
 40
0.0
 40
0.1255907025629711
 40
0.1869327038470372
 40
0.2171823804790188
 40
0.2490606136884497
 40
0.2947101524738226
 40
0.3362763310931653
 40
0.3796288870083566
 40
0.452312579561098
 40
0.5242542460842631
 40
0.5242542460842631
 40
0.5242542460842631
 40
0.5242542460842631
 10
320.1584173848662
 20
295.0930432199934
 30
0.0
 10
320.1158866772448
 20
295.0865591266894
 30
0.0
 10
320.0525827860334
 20
295.0769080214039
 30
0.0
 10
319.9953370346423
 20
295.0315929144281
 30
0.0
 10
319.9630544055183
 20
295.0046334421117
 30
0.0
 10
319.9520717112666
 20
294.9689314479294
 30
0.0
 10
319.922575643406
 20
294.941517796894
 30
0.0
 10
319.8982624935287
 20
294.9038426161777
 30
0.0
 10
319.8924570644671
 20
294.8520951452186
 30
0.0
 10
319.8967183823146
 20
294.7794754560813
 30
0.0
 10
319.9476350968837
 20
294.7644950120819
 30
0.0
 10
319.9729628355554
 20
294.7570432199934
 30
0.0
 11
320.1584173848662
 21
295.0930432199934
 31
0.0
 11
320.0371588146124
 21
295.0603417871459
 31
0.0
 11
319.9872287909695
 21
295.0247070588524
 31
0.0
 11
319.9658302680017
 21
295.0033260824684
 31
0.0
 11
319.9515643125874
 21
294.9748181139565
 31
0.0
 11
319.9230328119124
 21
294.9391833856631
 31
0.0
 11
319.9016342889445
 21
294.9035484250232
 31
0.0
 11
319.8945013112374
 21
294.8607867046017
 31
0.0
 11
319.9087672666516
 21
294.7895167833219
 31
0.0
 11
319.9729628355554
 21
294.7570432199934
 31
0.0
  0
LINE
  5
ED8
102
{ACAD_REACTORS
330
EEF
102
}
330
18
100
AcDbEntity
  8
ROGO
 62
     4
100
AcDbLine
 10
320.8126438564275
 20
294.7570432199934
 30
0.0
 11
320.5690271357487
 21
294.2684733416527
 31
0.0
  0
LINE
  5
ED9
102
{ACAD_REACTORS
330
EEF
102
}
330
18
100
AcDbEntity
  8
ROGO
 62
     4
100
AcDbLine
 10
319.908767266652
 20
295.5816182722103
 30
0.0
 11
321.2238036087579
 21
295.5816182722103
 31
0.0
  0
LINE
  5
EDA
102
{ACAD_REACTORS
330
EF0
102
}
330
18
100
AcDbEntity
  8
ROGO
 62
     4
100
AcDbLine
 10
323.6690678916719
 20
294.2684733416527
 30
0.0
 11
324.8000969066766
 21
294.2684733416527
 31
0.0
  0
LINE
  5
EDB
102
{ACAD_REACTORS
330
EF0
102
}
330
18
100
AcDbEntity
  8
ROGO
 62
     4
100
AcDbLine
 10
324.1398370375798
 20
295.5816182722102
 30
0.0
 11
325.4548733796858
 21
295.5816182722102
 31
0.0
  0
SPLINE
  5
EDC
102
{ACAD_REACTORS
330
EF0
102
}
330
18
100
AcDbEntity
  8
ROGO
 62
     4
100
AcDbSpline
210
0.0
220
0.0
230
1.0
 70
     8
 71
     3
 72
    16
 73
    12
 74
    10
 42
0.0000000001
 43
0.0000000001
 44
0.0000000001
 40
0.0
 40
0.0
 40
0.0
 40
0.0
 40
0.1255907025629163
 40
0.1869327038470616
 40
0.217182380479003
 40
0.2490606136884339
 40
0.2947101524738157
 40
0.3362763310931585
 40
0.3796288870082937
 40
0.4523125795610796
 40
0.5242542460842448
 40
0.5242542460842448
 40
0.5242542460842448
 40
0.5242542460842448
 10
324.389487155794
 20
295.0930432199934
 30
0.0
 10
324.3469564481725
 20
295.0865591266893
 30
0.0
 10
324.2836525569611
 20
295.0769080214038
 30
0.0
 10
324.2264068055703
 20
295.0315929144281
 30
0.0
 10
324.1941241764461
 20
295.0046334421116
 30
0.0
 10
324.1831414821944
 20
294.9689314479295
 30
0.0
 10
324.1536454143339
 20
294.9415177968938
 30
0.0
 10
324.1293322644566
 20
294.9038426161777
 30
0.0
 10
324.1235268353948
 20
294.8520951452185
 30
0.0
 10
324.1277881532424
 20
294.7794754560812
 30
0.0
 10
324.1787048678115
 20
294.7644950120819
 30
0.0
 10
324.2040326064832
 20
294.7570432199933
 30
0.0
 11
324.389487155794
 21
295.0930432199934
 31
0.0
 11
324.2682285855403
 21
295.0603417871459
 31
0.0
 11
324.2182985618974
 21
295.0247070588524
 31
0.0
 11
324.1969000389295
 21
295.0033260824684
 31
0.0
 11
324.1826340835153
 21
294.9748181139565
 31
0.0
 11
324.1541025828403
 21
294.939183385663
 31
0.0
 11
324.1327040598724
 21
294.9035484250231
 31
0.0
 11
324.1255710821653
 21
294.8607867046017
 31
0.0
 11
324.1398370375795
 21
294.7895167833219
 31
0.0
 11
324.2040326064832
 21
294.7570432199933
 31
0.0
  0
SPLINE
  5
EDD
102
{ACAD_REACTORS
330
EF0
102
}
330
18
100
AcDbEntity
  8
ROGO
 62
     4
100
AcDbSpline
210
0.0
220
0.0
230
1.0
 70
     8
 71
     3
 72
    26
 73
    22
 74
    20
 42
0.0000000001
 43
0.0000000001
 44
0.0000000001
 40
0.0
 40
0.0
 40
0.0
 40
0.0
 40
0.2382195346591896
 40
0.397689067266058
 40
0.5126795869787176
 40
0.5985392873135238
 40
0.7099038249250041
 40
0.7911890807494602
 40
0.9379713068544059
 40
1.057449928673177
 40
1.138714535893296
 40
1.218398644003487
 40
1.36093802187034
 40
1.461730374800238
 40
1.51601484410804
 40
1.593124329220486
 40
1.648806818593696
 40
1.729472362005543
 40
1.775122082164332
 40
1.874460993765135
 40
1.919820003751196
 40
1.919820003751196
 40
1.919820003751196
 40
1.919820003751196
 10
324.1398370375795
 20
295.5816182722102
 30
0.0
 10
324.0589816468208
 20
295.5767943009451
 30
0.0
 10
323.9239998327549
 20
295.5687410544485
 30
0.0
 10
323.7757906220431
 20
295.4787055505901
 30
0.0
 10
323.6672038776329
 20
295.4263628652476
 30
0.0
 10
323.5897599432087
 20
295.355207443828
 30
0.0
 10
323.5329932253412
 20
295.2817090913067
 30
0.0
 10
323.4614281206435
 20
295.1941363431812
 30
0.0
 10
323.4030688227377
 20
295.0921614217167
 30
0.0
 10
323.3733499802046
 20
294.9797672806533
 30
0.0
 10
323.3470253115509
 20
294.8901884980946
 30
0.0
 10
323.3275024965778
 20
294.790364635202
 30
0.0
 10
323.3324696533908
 20
294.6825197470799
 30
0.0
 10
323.3395828492753
 20
294.582358936076
 30
0.0
 10
323.3713415391993
 20
294.5108591131493
 30
0.0
 10
323.4075090615894
 20
294.4599561662201
 30
0.0
 10
323.4517956974441
 20
294.4038922135212
 30
0.0
 10
323.5002549617617
 20
294.366761239191
 30
0.0
 10
323.5403347288722
 20
294.2994959840504
 30
0.0
 10
323.6104930091348
 20
294.2909124523743
 30
0.0
 10
323.6550884032105
 20
294.2738286624972
 30
0.0
 10
323.669067891672
 20
294.2684733416527
 30
0.0
 11
324.1398370375795
 21
295.5816182722102
 31
0.0
 11
323.9044524646256
 21
295.5449760901165
 31
0.0
 11
323.7617949612507
 21
295.4737064011831
 31
0.0
 11
323.6619349139648
 21
295.4166906965057
 31
0.0
 11
323.5977393450611
 21
295.3596747594819
 31
0.0
 11
323.5264107984503
 21
295.2741510862924
 31
0.0
 11
323.4764807748073
 21
295.2100083894871
 31
0.0
 11
323.4051518180431
 21
295.0817227635298
 31
0.0
 11
323.3694877498144
 21
294.9676911218285
 31
0.0
 11
323.3480892268465
 21
294.8892944407672
 31
0.0
 11
323.3338232714323
 21
294.8108977597058
 31
0.0
 11
323.3338232714323
 21
294.668358381839
 31
0.0
 11
323.3480892268465
 21
294.5685807243937
 31
0.0
 11
323.3694877498144
 21
294.5186917794978
 31
0.0
 11
323.4122847957502
 21
294.4545490826924
 31
0.0
 11
323.4479492741324
 21
294.4117871299245
 31
0.0
 11
323.5050118653289
 21
294.3547714252471
 31
0.0
 11
323.533543366004
 21
294.3191364646072
 31
0.0
 11
323.6262708457362
 21
294.2835017363137
 31
0.0
 11
323.669067891672
 21
294.2684733416527
 31
0.0
  0
LINE
  5
EDE
102
{ACAD_REACTORS
330
EF0
102
}
330
18
100
AcDbEntity
  8
ROGO
 62
     4
100
AcDbLine
 10
325.0437136273554
 20
294.7570432199934
 30
0.0
 11
324.8000969066765
 21
294.2684733416527
 31
0.0
  0
LINE
  5
EDF
102
{ACAD_REACTORS
330
EF0
102
}
330
18
100
AcDbEntity
  8
ROGO
 62
     4
100
AcDbLine
 10
324.2040326064832
 20
294.7570432199934
 30
0.0
 11
325.0437136273554
 21
294.7570432199934
 31
0.0
  0
LINE
  5
EE0
102
{ACAD_REACTORS
330
EF0
102
}
330
18
100
AcDbEntity
  8
ROGO
 62
     4
100
AcDbLine
 10
324.389487155794
 20
295.0930432199934
 30
0.0
 11
325.2112540791452
 21
295.0930432199934
 31
0.0
  0
LINE
  5
EE1
102
{ACAD_REACTORS
330
EF0
102
}
330
18
100
AcDbEntity
  8
ROGO
 62
     4
100
AcDbLine
 10
325.4548733796858
 20
295.5816182722102
 30
0.0
 11
325.2112540791452
 21
295.0930432199934
 31
0.0
  0
LINE
  5
EE2
102
{ACAD_REACTORS
330
EF2
102
}
330
18
100
AcDbEntity
  8
ROGO
 62
     4
100
AcDbLine
 10
325.7299005088079
 20
295.5816182722102
 30
0.0
 11
326.4859842513121
 21
295.5816182722102
 31
0.0
  0
LINE
  5
EE3
102
{ACAD_REACTORS
330
EF2
102
}
330
18
100
AcDbEntity
  8
ROGO
 62
     4
100
AcDbLine
 10
325.7299005088079
 20
295.5816182722102
 30
0.0
 11
324.706767477138
 21
293.5297394873042
 31
0.0
  0
LINE
  5
EE4
102
{ACAD_REACTORS
330
EF2
102
}
330
18
100
AcDbEntity
  8
ROGO
 62
     4
100
AcDbLine
 10
326.4859842513121
 20
295.5816182722102
 30
0.0
 11
326.3742789443911
 21
295.3575948633886
 31
0.0
  0
LINE
  5
EE5
102
{ACAD_REACTORS
330
EF2
102
}
330
18
100
AcDbEntity
  8
ROGO
 62
     4
100
AcDbLine
 10
326.3742789443911
 20
295.3575948633886
 30
0.0
 11
326.7282920274699
 21
295.5816182722102
 31
0.0
  0
LINE
  5
EE6
102
{ACAD_REACTORS
330
EF2
102
}
330
18
100
AcDbEntity
  8
ROGO
 62
     4
100
AcDbLine
 10
325.7299005088079
 20
294.0653030494238
 30
0.0
 11
325.9969497979736
 21
293.5297394873042
 31
0.0
  0
LINE
  5
EE7
102
{ACAD_REACTORS
330
EF2
102
}
330
18
100
AcDbEntity
  8
ROGO
 62
     4
100
AcDbLine
 10
326.2414504821387
 20
294.5556788797572
 30
0.0
 11
326.7530169979736
 21
293.5297394873042
 31
0.0
  0
LINE
  5
EE8
102
{ACAD_REACTORS
330
EF2
102
}
330
18
100
AcDbEntity
  8
ROGO
 62
     4
100
AcDbLine
 10
325.7299005088079
 20
294.0653030494238
 30
0.0
 11
325.4628512196423
 21
293.5297394873042
 31
0.0
  0
LINE
  5
EE9
102
{ACAD_REACTORS
330
EF2
102
}
330
18
100
AcDbEntity
  8
ROGO
 62
     4
100
AcDbLine
 10
326.2414504821387
 20
294.5556788797572
 30
0.0
 11
327.48435922747
 21
295.5816182722102
 31
0.0
  0
LINE
  5
EEA
102
{ACAD_REACTORS
330
EF2
102
}
330
18
100
AcDbEntity
  8
ROGO
 62
     4
100
AcDbLine
 10
326.7282920274699
 20
295.5816182722102
 30
0.0
 11
327.48435922747
 21
295.5816182722102
 31
0.0
  0
LINE
  5
EEB
102
{ACAD_REACTORS
330
EF2
102
}
330
18
100
AcDbEntity
  8
ROGO
 62
     4
100
AcDbLine
 10
325.9969497979736
 20
293.5297394873042
 30
0.0
 11
326.7530169979736
 21
293.5297394873042
 31
0.0
  0
LINE
  5
EEC
102
{ACAD_REACTORS
330
EEE
102
}
330
18
100
AcDbEntity
  8
ROGO
 62
     4
100
AcDbLine
 10
315.1540467989019
 20
295.5816182722102
 30
0.0
 11
316.9301299473858
 21
295.5816182722103
 31
0.0
  0
LINE
  5
EED
330
18
100
AcDbEntity
  8
ROGO
 62
     4
100
AcDbLine
 10
312.6062624970603
 20
293.7354096935955
 30
0.0
 11
324.8093212845242
 21
293.7354096935955
 31
0.0
  0
HATCH
  5
EEE
330
18
100
AcDbEntity
  8
ROGO
 62
     4
100
AcDbHatch
 10
0.0
 20
0.0
 30
0.0
210
0.0
220
0.0
230
1.0
  2
SOLID
 70
     1
 71
     1
 91
        1
 92
        1
 93
       12
 72
     1
 10
315.1540467989019
 20
295.5816182722102
 11
316.9301299473858
 21
295.5816182722103
 72
     1
 10
316.9301299473858
 20
295.5816182722102
 11
316.7812957516513
 21
295.2808159415182
 72
     1
 10
316.7812957516513
 20
295.2808159415182
 11
315.8478313294333
 21
295.2808159415182
 72
     1
 10
315.8478313294333
 20
295.2808159415182
 11
315.7314614833568
 21
295.045625898334
 72
     1
 10
315.7314614833568
 20
295.045625898334
 11
316.6649259055748
 21
295.045625898334
 72
     1
 10
316.6649259055748
 20
295.045625898334
 11
316.5455995299509
 21
294.8044605416527
 72
     1
 10
316.5455995299509
 20
294.8044605416527
 11
315.612135107733
 21
294.8044605416527
 72
     1
 10
315.612135107733
 20
294.8044605416527
 11
315.4957603351166
 21
294.5692605416528
 72
     1
 10
315.4957603351166
 20
294.5692605416528
 11
316.4292247573346
 21
294.5692605416528
 72
     1
 10
316.4292247573346
 20
294.5692605416528
 11
316.2803980481257
 21
294.2684733416527
 72
     1
 10
316.2803980481257
 20
294.2684733416527
 11
314.5043148996418
 21
294.2684733416527
 72
     1
 10
314.5043148996418
 20
294.2684733416527
 11
315.1540467989019
 21
295.5816182722102
 97
       12
330
EEC
330
EC0
330
EC3
330
EC2
330
EC4
330
EC7
330
EC6
330
EC9
330
EC5
330
EC8
330
EC1
330
EBF
 75
     0
 76
     1
 98
        1
 10
242.503917820193
 20
204.7835222240989
450
        0
451
        0
460
0.0
461
0.0
452
        0
462
0.0
453
        0
470

  0
HATCH
  5
EEF
330
18
100
AcDbEntity
  8
ROGO
 62
     4
100
AcDbHatch
 10
0.0
 20
0.0
 30
0.0
210
0.0
220
0.0
230
1.0
  2
SOLID
 70
     1
 71
     1
 91
        1
 92
        5
 93
        8
 72
     1
 10
320.9801843082173
 20
295.0930432199935
 11
321.223803608758
 21
295.5816182722103
 72
     1
 10
321.223803608758
 20
295.5816182722103
 11
319.9087672666518
 21
295.5816182722103
 72
     4
 94
        3
 73
     0
 74
     0
 95
       26
 96
       22
 40
0.0
 40
0.0
 40
0.0
 40
0.0
 40
0.2382195346591896
 40
0.397689067266058
 40
0.5126795869787669
 40
0.5985392873135731
 40
0.7099038249249733
 40
0.7911890807494741
 40
0.9379713068543702
 40
1.057449928673087
 40
1.138714535893316
 40
1.218398644003506
 40
1.36093802187036
 40
1.461730374800257
 40
1.516014844108008
 40
1.593124329220501
 40
1.648806818593631
 40
1.729472362005518
 40
1.775122082164342
 40
1.874460993765092
 40
1.919820003751207
 40
1.919820003751207
 40
1.919820003751207
 40
1.919820003751207
 10
319.9087672666516
 20
295.5816182722102
 10
319.8279118758929
 20
295.5767943009451
 10
319.6929300618271
 20
295.5687410544484
 10
319.5447208511152
 20
295.4787055505901
 10
319.4361341067051
 20
295.4263628652476
 10
319.3586901722808
 20
295.355207443828
 10
319.3019234544133
 20
295.2817090913067
 10
319.2303583497158
 20
295.1941363431814
 10
319.1719990518099
 20
295.0921614217167
 10
319.1422802092767
 20
294.9797672806535
 10
319.115955540623
 20
294.8901884980944
 10
319.0964327256499
 20
294.7903646352021
 10
319.1013998824629
 20
294.6825197470797
 10
319.1085130783474
 20
294.582358936076
 10
319.1402717682715
 20
294.5108591131494
 10
319.1764392906614
 20
294.4599561662199
 10
319.2207259265164
 20
294.4038922135213
 10
319.2691851908338
 20
294.366761239191
 10
319.3092649579443
 20
294.2994959840504
 10
319.3794232382068
 20
294.2909124523743
 10
319.4240186322827
 20
294.2738286624973
 10
319.4379981207441
 20
294.2684733416527
 72
     1
 10
319.4379981207439
 20
294.2684733416528
 11
320.5690271357487
 21
294.2684733416527
 72
     1
 10
320.5690271357487
 20
294.2684733416527
 11
320.8126438564275
 21
294.7570432199934
 72
     1
 10
320.8126438564275
 20
294.7570432199934
 11
319.9729628355553
 21
294.7570432199934
 72
     4
 94
        3
 73
     0
 74
     0
 95
       16
 96
       12
 40
0.0
 40
0.0
 40
0.0
 40
0.0
 40
0.0719416665231651
 40
0.1446253590759065
 40
0.1879779149910977
 40
0.2295440936104405
 40
0.2751936323958134
 40
0.3070718656052443
 40
0.3373215422372259
 40
0.3986635435212919
 40
0.5242542460842631
 40
0.5242542460842631
 40
0.5242542460842631
 40
0.5242542460842631
 10
319.9729628355554
 20
294.7570432199934
 10
319.9476350968837
 20
294.7644950120819
 10
319.8967183823146
 20
294.7794754560813
 10
319.8924570644671
 20
294.8520951452186
 10
319.8982624935287
 20
294.9038426161777
 10
319.922575643406
 20
294.941517796894
 10
319.9520717112666
 20
294.9689314479294
 10
319.9630544055183
 20
295.0046334421117
 10
319.9953370346423
 20
295.0315929144281
 10
320.0525827860334
 20
295.0769080214039
 10
320.1158866772448
 20
295.0865591266894
 10
320.1584173848662
 20
295.0930432199934
 72
     1
 10
320.1584173848662
 20
295.0930432199934
 11
320.9801843082173
 21
295.0930432199935
 97
        8
330
ED9
330
ED6
330
ED2
330
ED8
330
ED5
330
ED7
330
ED4
330
ED3
 75
     0
 76
     1
 47
0.0514683685270805
 98
        1
 10
320.3686841638586
 20
295.2892968158633
450
        0
451
        0
460
0.0
461
0.0
452
        0
462
0.0
453
        0
470

  0
HATCH
  5
EF0
330
18
100
AcDbEntity
  8
ROGO
 62
     4
100
AcDbHatch
 10
0.0
 20
0.0
 30
0.0
210
0.0
220
0.0
230
1.0
  2
SOLID
 70
     1
 71
     1
 91
        1
 92
        5
 93
        8
 72
     4
 94
        3
 73
     0
 74
     0
 95
       26
 96
       22
 40
0.0
 40
0.0
 40
0.0
 40
0.0
 40
0.2382195346591896
 40
0.397689067266058
 40
0.5126795869787176
 40
0.5985392873135238
 40
0.7099038249250041
 40
0.7911890807494602
 40
0.9379713068544059
 40
1.057449928673177
 40
1.138714535893296
 40
1.218398644003487
 40
1.36093802187034
 40
1.461730374800238
 40
1.51601484410804
 40
1.593124329220486
 40
1.648806818593696
 40
1.729472362005543
 40
1.775122082164332
 40
1.874460993765135
 40
1.919820003751196
 40
1.919820003751196
 40
1.919820003751196
 40
1.919820003751196
 10
324.1398370375795
 20
295.5816182722102
 10
324.0589816468208
 20
295.5767943009451
 10
323.9239998327549
 20
295.5687410544485
 10
323.7757906220431
 20
295.4787055505901
 10
323.6672038776329
 20
295.4263628652476
 10
323.5897599432087
 20
295.355207443828
 10
323.5329932253412
 20
295.2817090913067
 10
323.4614281206435
 20
295.1941363431812
 10
323.4030688227377
 20
295.0921614217167
 10
323.3733499802046
 20
294.9797672806533
 10
323.3470253115509
 20
294.8901884980946
 10
323.3275024965778
 20
294.790364635202
 10
323.3324696533908
 20
294.6825197470799
 10
323.3395828492753
 20
294.582358936076
 10
323.3713415391993
 20
294.5108591131493
 10
323.4075090615894
 20
294.4599561662201
 10
323.4517956974441
 20
294.4038922135212
 10
323.5002549617617
 20
294.366761239191
 10
323.5403347288722
 20
294.2994959840504
 10
323.6104930091348
 20
294.2909124523743
 10
323.6550884032105
 20
294.2738286624972
 10
323.669067891672
 20
294.2684733416527
 72
     1
 10
323.6690678916718
 20
294.2684733416527
 11
324.8000969066765
 21
294.2684733416527
 72
     1
 10
324.8000969066765
 20
294.2684733416527
 11
325.0437136273554
 21
294.7570432199934
 72
     1
 10
325.0437136273554
 20
294.7570432199934
 11
324.2040326064832
 21
294.7570432199934
 72
     4
 94
        3
 73
     0
 74
     0
 95
       16
 96
       12
 40
0.0
 40
0.0
 40
0.0
 40
0.0
 40
0.0719416665231652
 40
0.1446253590759511
 40
0.1879779149910863
 40
0.229544093610429
 40
0.2751936323958108
 40
0.3070718656052417
 40
0.3373215422371831
 40
0.3986635435213285
 40
0.5242542460842448
 40
0.5242542460842448
 40
0.5242542460842448
 40
0.5242542460842448
 10
324.2040326064832
 20
294.7570432199933
 10
324.1787048678115
 20
294.7644950120819
 10
324.1277881532424
 20
294.7794754560812
 10
324.1235268353948
 20
294.8520951452185
 10
324.1293322644566
 20
294.9038426161777
 10
324.1536454143339
 20
294.9415177968938
 10
324.1831414821944
 20
294.9689314479295
 10
324.1941241764461
 20
295.0046334421116
 10
324.2264068055703
 20
295.0315929144281
 10
324.2836525569611
 20
295.0769080214038
 10
324.3469564481725
 20
295.0865591266893
 10
324.389487155794
 20
295.0930432199934
 72
     1
 10
324.389487155794
 20
295.0930432199934
 11
325.2112540791452
 21
295.0930432199934
 72
     1
 10
325.2112540791452
 20
295.0930432199934
 11
325.4548733796859
 21
295.5816182722103
 72
     1
 10
325.4548733796859
 20
295.5816182722103
 11
324.1398370375796
 21
295.5816182722102
 97
        8
330
EDB
330
EDD
330
EDA
330
EDE
330
EDF
330
EDC
330
EE0
330
EE1
 75
     0
 76
     1
 47
0.0514683685270805
 98
        1
 10
324.3667544672643
 20
295.3411769690312
450
        0
451
        0
460
0.0
461
0.0
452
        0
462
0.0
453
        0
470

  0
HATCH
  5
EF1
330
18
100
AcDbEntity
  8
ROGO
 62
     4
100
AcDbHatch
 10
0.0
 20
0.0
 30
0.0
210
0.0
220
0.0
230
1.0
  2
SOLID
 70
     1
 71
     0
 91
        1
 92
        7
 72
     0
 73
     1
 93
        4
 10
312.620525943977
 20
293.7354096935955
 10
312.527474908555
 20
293.5297394873042
 10
324.706767477138
 20
293.5297394873042
 10
324.8093212845242
 20
293.7354096935955
 97
        0
 75
     0
 76
     1
 47
0.0514683685270805
 98
        1
 10
320.3167612048653
 20
293.6810132293907
450
        0
451
        0
460
0.0
461
0.0
452
        0
462
0.0
453
        0
470

  0
HATCH
  5
EF2
330
18
100
AcDbEntity
  8
ROGO
 62
     4
100
AcDbHatch
 10
0.0
 20
0.0
 30
0.0
210
0.0
220
0.0
230
1.0
  2
SOLID
 70
     1
 71
     1
 91
        1
 92
        7
 72
     0
 73
     1
 93
       11
 10
324.706767477138
 20
293.5297394873042
 10
325.4628512196423
 20
293.5297394873042
 10
325.7299005088079
 20
294.0653030494238
 10
325.9969497979737
 20
293.5297394873042
 10
326.7530169979736
 20
293.5297394873042
 10
326.2414504821387
 20
294.5556788797572
 10
327.48435922747
 20
295.5816182722102
 10
326.7282920274699
 20
295.5816182722102
 10
326.374278944391
 20
295.3575948633885
 10
326.4859842513122
 20
295.5816182722102
 10
325.729900508808
 20
295.5816182722102
 97
       11
330
EEA
330
EE5
330
EE4
330
EE2
330
EE3
330
EB6
330
EE8
330
EE6
330
EEB
330
EE7
330
EE9
 75
     0
 76
     1
 47
0.0514683685270805
 98
        1
 10
325.6648292624041
 20
294.7013222887687
450
        0
451
        0
460
0.0
461
0.0
452
        0
462
0.0
453
        0
470

  0
HATCH
  5
EF3
330
18
100
AcDbEntity
  8
ROGO
 62
     4
100
AcDbHatch
 10
0.0
 20
0.0
 30
0.0
210
0.0
220
0.0
230
1.0
  2
SOLID
 70
     1
 71
     1
 91
        2
 92
        5
 93
        6
 72
     1
 10
311.5736739526185
 20
293.5297394873042
 11
312.527474908555
 21
293.5297394873042
 72
     1
 10
312.527474908555
 20
293.5297394873042
 11
312.8616990593835
 21
294.2684733416527
 72
     1
 10
312.8616990593835
 20
294.2684733416527
 11
313.7533073275556
 21
294.2684733416527
 72
     4
 94
        3
 73
     0
 74
     0
 95
       18
 96
       14
 40
0.108740278791501
 40
0.108740278791501
 40
0.108740278791501
 40
0.108740278791501
 40
0.6623149649549278
 40
1.384304701649787
 40
2.097394834876493
 40
2.774073369849618
 40
3.428974823686337
 40
4.005208313035923
 40
4.455173659284313
 40
4.720999734343524
 40
5.086034088486724
 40
5.569973738255373
 40
6.060470601257719
 40
6.060470601257719
 40
6.060470601257719
 40
6.060470601257719
 10
313.7533073275556
 20
294.2684733416527
 10
313.8160572444503
 20
294.2689406212839
 10
313.9606476015039
 20
294.2700173418925
 10
314.1629283796111
 20
294.3780801783879
 10
314.3547483527041
 20
294.5157443587296
 10
314.5092462917855
 20
294.6877413895314
 10
314.6055031626616
 20
294.8843905270521
 10
314.6204130477087
 20
295.0728606626238
 10
314.6113109291978
 20
295.2219381967803
 10
314.5462717206548
 20
295.3258489390831
 10
314.47865552673
 20
295.4313077162559
 10
314.3546702911828
 20
295.5226600260473
 10
314.2530823433324
 20
295.5626859173626
 10
314.2014228056963
 20
295.5816182722103
 72
     1
 10
314.2014228056965
 20
295.5816182722103
 11
312.5889244927112
 21
295.5816182722102
 72
     1
 10
312.5889244927112
 20
295.5816182722102
 11
311.5736739526185
 21
293.5297394873042
 97
        6
330
EB8
330
EB5
330
EB7
330
EB6
330
EBE
330
EB9
 92
       20
 93
        4
 72
     1
 10
313.0680635516937
 20
294.7245996761116
 11
313.2260613480509
 21
295.0738213609968
 72
     1
 10
313.2260613480509
 20
295.0738213609968
 11
313.6320483471485
 21
295.073821360997
 72
     4
 94
        3
 73
     0
 74
     0
 95
       15
 96
       11
 40
0.0
 40
0.0
 40
0.0
 40
0.0
 40
0.1539705029175028
 40
0.2241725832587281
 40
0.3038566179396687
 40
0.3581410872474193
 40
0.443992538467216
 40
0.4954152125469665
 40
0.5836396705646186
 40
0.6130478420065743
 40
0.6130478420065743
 40
0.6130478420065743
 40
0.6130478420065743
 10
313.6320483471485
 20
295.0738213609969
 10
313.6898766822076
 20
295.0740862456393
 10
313.7740715572657
 20
295.074471903109
 10
313.8201123136303
 20
294.9703225991795
 10
313.7994746513968
 20
294.9032666945421
 10
313.7735314279727
 20
294.8344211802942
 10
313.7276838764304
 20
294.787639615025
 10
313.6661497468352
 20
294.742581081388
 10
313.6079970537795
 20
294.7371265441285
 10
313.5701752548069
 20
294.7271050506743
 10
313.5607198005376
 20
294.7245996761115
 72
     1
 10
313.5607198005376
 20
294.7245996761115
 11
313.0680635516937
 21
294.7245996761116
 97
        4
330
EBA
330
EBC
330
EBB
330
EBD
 75
     0
 76
     1
 47
0.0514683685270805
 98
        2
 10
312.5975430460181
 20
294.9434295153213
 10
312.5975430460181
 20
294.9434295153213
450
        0
451
        0
460
0.0
461
0.0
452
        0
462
0.0
453
        0
470

  0
LINE
  5
EF4
102
{ACAD_REACTORS
330
EF7
102
}
330
18
100
AcDbEntity
  8
ROGO
 62
     4
100
AcDbLine
 10
318.495027695355
 20
295.5816182722102
 30
0.0
 11
319.0783787057382
 21
294.2684733416527
 31
0.0
  0
LINE
  5
EF5
102
{ACAD_REACTORS
330
EF7
102
}
330
18
100
AcDbEntity
  8
ROGO
 62
     4
100
AcDbLine
 10
317.9187520692153
 20
295.2306092952585
 30
0.0
 11
318.1179594549407
 21
294.7821860234396
 31
0.0
  0
LINE
  5
EF6
102
{ACAD_REACTORS
330
EF7
102
}
330
18
100
AcDbEntity
  8
ROGO
 62
     4
100
AcDbLine
 10
318.2351045605412
 20
294.5184880117436
 30
0.0
 11
318.3461709836101
 21
294.2684733416527
 31
0.0
  0
HATCH
  5
EF7
330
18
100
AcDbEntity
  8
ROGO
 62
     4
100
AcDbHatch
 10
0.0
 20
0.0
 30
0.0
210
0.0
220
0.0
230
1.0
  2
SOLID
 70
     1
 71
     1
 91
        2
 92
        7
 72
     0
 73
     1
 93
        8
 10
318.495027695355
 20
295.5816182722103
 10
317.4446242125835
 20
295.5816182722102
 10
316.4976898824844
 20
294.2684733416528
 10
317.2249371341759
 20
294.2684733416527
 10
317.4052275717569
 20
294.5184880117436
 10
318.2351045605412
 20
294.5184880117436
 10
318.3461709836101
 20
294.2684733416528
 10
319.0783787057382
 20
294.2684733416528
 97
        8
330
ED0
330
ECA
330
ECF
330
ECE
330
ECC
330
EF6
330
ED1
330
EF4
 92
       22
 72
     0
 73
     1
 93
        3
 10
318.1179594549407
 20
294.7821860234397
 10
317.595385332902
 20
294.7821860234397
 10
317.9187520692153
 20
295.2306092952587
 97
        3
330
ECD
330
ECB
330
EF5
 75
     0
 76
     1
 47
0.0128389261915577
 98
        2
 10
318.4127728028592
 20
295.2665763554012
 10
318.4127728028592
 20
295.2665763554012
450
        0
451
        0
460
0.0
461
0.0
452
        0
462
0.0
453
        0
470

  0
SPLINE
  5
EF8
102
{ACAD_REACTORS
330
EFF
102
}
330
18
100
AcDbEntity
  8
ROGO
 62
     4
100
AcDbSpline
210
0.0
220
0.0
230
1.0
 70
     8
 71
     3
 72
    38
 73
    34
 74
    32
 42
0.0000000001
 43
0.0000000001
 44
0.0000000001
 40
0.0
 40
0.0
 40
0.0
 40
0.0
 40
0.1807680148264315
 40
0.2375392910068956
 40
0.3104865209606157
 40
0.3712759982447458
 40
0.422566754387306
 40
0.490692583720658
 40
0.5255021974951946
 40
0.5647069597052371
 40
0.622487401681883
 40
0.6879401044674746
 40
0.7303986317551266
 40
0.7765228362185534
 40
0.8277951442290254
 40
0.9056034697002209
 40
0.9795294930264187
 40
1.013897332332996
 40
1.053089255536027
 40
1.099518741889647
 40
1.132570569820733
 40
1.160277520290299
 40
1.19983678629386
 40
1.243305643169139
 40
1.286774258016964
 40
1.324809356515675
 40
1.411916492917645
 40
1.446284332224223
 40
1.5150200516612
 40
1.575779369908399
 40
1.69209852953623
 40
1.835624328519098
 40
2.042896467983898
 40
2.042896467983898
 40
2.042896467983898
 40
2.042896467983898
 10
321.9530289288007
 20
295.5870954913826
 30
0.0
 10
321.892773531175
 20
295.5828388722817
 30
0.0
 10
321.8135945655537
 20
295.5772454364945
 30
0.0
 10
321.7130557930444
 20
295.5497008102896
 30
0.0
 10
321.6582510386032
 20
295.5168862908317
 30
0.0
 10
321.6012157372862
 20
295.4927660461311
 30
0.0
 10
321.552587830901
 20
295.4570487468819
 30
0.0
 10
321.5034017302053
 20
295.4386439666885
 30
0.0
 10
321.4689601168294
 20
295.4054568583159
 30
0.0
 10
321.4290967586965
 20
295.3851847401409
 30
0.0
 10
321.3973528588612
 20
295.3398098461265
 30
0.0
 10
321.3618721823295
 20
295.2973859644682
 30
0.0
 10
321.3207101339222
 20
295.2664184228906
 30
0.0
 10
321.2869278883629
 20
295.2338934439282
 30
0.0
 10
321.2559373754385
 20
295.1836976287443
 30
0.0
 10
321.2375958028675
 20
295.1170022540588
 30
0.0
 10
321.1858939884581
 20
295.0748931997736
 30
0.0
 10
321.178109313975
 20
295.0242655520975
 30
0.0
 10
321.1495114637793
 20
294.9943960919067
 30
0.0
 10
321.1370761183234
 20
294.9558389099219
 30
0.0
 10
321.1323401401995
 20
294.9205137206009
 30
0.0
 10
321.1266558371571
 20
294.8875224391728
 30
0.0
 10
321.1117867769248
 20
294.8528170684349
 30
0.0
 10
321.116640089486
 20
294.8099467895
 30
0.0
 10
321.1152575264438
 20
294.7684340754734
 30
0.0
 10
321.1160711664172
 20
294.712390618862
 30
0.0
 10
321.1131346270712
 20
294.6578254219425
 30
0.0
 10
321.1365523775861
 20
294.5984455457741
 30
0.0
 10
321.150410225189
 20
294.5455166011076
 30
0.0
 10
321.1883621951326
 20
294.472230058856
 30
0.0
 10
321.2538285479506
 20
294.3876732351471
 30
0.0
 10
321.378318293968
 20
294.2850372718543
 30
0.0
 10
321.4980188245273
 20
294.274625331137
 30
0.0
 10
321.5687449672576
 20
294.2684733416527
 30
0.0
 11
321.9530289288007
 21
295.5870954913826
 31
0.0
 11
321.7735722918534
 21
295.5653609419311
 31
0.0
 11
321.7191915057252
 21
295.5490603928839
 31
0.0
 11
321.6539348187172
 21
295.5164588107342
 31
0.0
 11
321.5995540325891
 21
295.4892909869612
 31
0.0
 11
321.5560495745838
 21
295.4621229211607
 31
0.0
 11
321.4962308380157
 21
295.4295215810386
 31
0.0
 11
321.46904023133
 21
295.4077872736146
 31
0.0
 11
321.4364116742046
 21
295.3860527241632
 31
0.0
 11
321.3983451666392
 21
295.3425841093154
 31
0.0
 11
321.3548407086339
 21
295.2936819781184
 31
0.0
 11
321.3222121515083
 21
295.266513912318
 31
0.0
 11
321.2895840216258
 21
295.2339125721958
 31
0.0
 11
321.2623934149402
 21
295.190443957348
 31
0.0
 11
321.2297652850578
 21
295.1198072766997
 31
0.0
 11
321.1862603998094
 21
295.0600378707771
 31
0.0
 11
321.1753844989297
 21
295.0274362886275
 31
0.0
 11
321.153632269927
 21
294.9948349485053
 31
0.0
 11
321.1373179913642
 21
294.95136609163
 31
0.0
 11
321.1318796136812
 21
294.9187647515078
 31
0.0
 11
321.1264416632413
 21
294.8915966857074
 31
0.0
 11
321.1155657623615
 21
294.853561829236
 31
0.0
 11
321.1155657623615
 21
294.8100929723608
 31
0.0
 11
321.1155657623615
 21
294.766624357513
 31
0.0
 11
321.1155657623615
 21
294.7285892590143
 31
0.0
 11
321.1210037128015
 21
294.6416520293185
 31
0.0
 11
321.1318796136812
 21
294.609050447169
 31
0.0
 11
321.153632269927
 21
294.5438475248972
 31
0.0
 11
321.1808224493696
 21
294.4895116353237
 31
0.0
 11
321.2515175140604
 21
294.3971408892789
 31
0.0
 11
321.3657170367568
 21
294.3102034175558
 31
0.0
 11
321.5687449672576
 21
294.2684733416527
 31
0.0
  0
SPLINE
  5
EF9
102
{ACAD_REACTORS
330
EFF
102
}
330
18
100
AcDbEntity
  8
ROGO
 62
     4
100
AcDbSpline
210
0.0
220
0.0
230
1.0
 70
     8
 71
     3
 72
    25
 73
    21
 74
     0
 42
0.0000000001
 43
0.0000000001
 40
0.0
 40
0.0
 40
0.0
 40
0.0
 40
0.4087168505087288
 40
0.6887487002771746
 40
0.9415836120477687
 40
1.17452070575514
 40
1.41154617586699
 40
1.599156012919487
 40
1.80099909059943
 40
2.178735911501585
 40
2.521686161369157
 40
2.762704659361267
 40
3.06256558063785
 40
3.222432137207705
 40
3.399493810628493
 40
3.567459719866414
 40
3.743172740007509
 40
3.995988754699505
 40
4.17170091132118
 40
4.337226830236035
 40
4.337226830236035
 40
4.337226830236035
 40
4.337226830236035
 10
322.703482751986
 20
295.5870954913826
 30
0.0
 10
322.7527028024116
 20
295.5855141019264
 30
0.0
 10
322.8356459101301
 20
295.5828492254204
 30
0.0
 10
322.9246955687512
 20
295.5132465360449
 30
0.0
 10
322.9928337895106
 20
295.4555405737299
 30
0.0
 10
323.0411991443712
 20
295.3857767673958
 30
0.0
 10
323.0835927330137
 20
295.3216326637186
 30
0.0
 10
323.1115268937828
 20
295.2539112490525
 30
0.0
 10
323.1495228714576
 20
295.1726517535156
 30
0.0
 10
323.1652513291048
 20
295.0639386210846
 30
0.0
 10
323.1546248857682
 20
294.9515735680391
 30
0.0
 10
323.1268948302707
 20
294.8519722843356
 30
0.0
 10
323.0978082315707
 20
294.7755605191915
 30
0.0
 10
323.0635262126533
 20
294.7090393372008
 30
0.0
 10
323.0226576653492
 20
294.6659668667018
 30
0.0
 10
322.9943047098102
 20
294.6112006403543
 30
0.0
 10
322.939842309093
 20
294.5664048074809
 30
0.0
 10
322.8956921492863
 20
294.5111330370269
 30
0.0
 10
322.8455909126466
 20
294.4636926886882
 30
0.0
 10
322.8173436133427
 20
294.4344225654666
 30
0.0
 10
322.802450955949
 20
294.4221158215209
 30
0.0
  0
LINE
  5
EFA
102
{ACAD_REACTORS
330
EFF
102
}
330
18
100
AcDbEntity
  8
ROGO
 62
     4
100
AcDbLine
 10
321.9530289288007
 20
295.5870954913826
 30
0.0
 11
322.703482751986
 21
295.5870954913826
 31
0.0
  0
LINE
  5
EFB
102
{ACAD_REACTORS
330
EFF
102
}
330
18
100
AcDbEntity
  8
ROGO
 62
     4
100
AcDbLine
 10
321.5687449672576
 20
294.2684733416527
 30
0.0
 11
322.3191987904429
 21
294.2684733416527
 31
0.0
  0
SPLINE
  5
EFC
102
{ACAD_REACTORS
330
EFF
102
}
330
18
100
AcDbEntity
  8
ROGO
 62
     4
100
AcDbSpline
210
0.0
220
0.0
230
1.0
 70
     8
 71
     3
 72
    11
 73
     7
 74
     0
 42
0.0000000001
 43
0.0000000001
 40
0.1647869275458134
 40
0.1647869275458134
 40
0.1647869275458134
 40
0.1647869275458134
 40
0.2895635144633836
 40
0.5387013147903714
 40
0.7953622617455423
 40
0.8850764140209602
 40
0.8850764140209602
 40
0.8850764140209602
 40
0.8850764140209602
 10
322.5692162490609
 20
294.2977497885614
 30
0.0
 10
322.5552377062601
 20
294.2938588558448
 30
0.0
 10
322.5118966948258
 20
294.2869312660609
 30
0.0
 10
322.4391979276878
 20
294.2774188716876
 30
0.0
 10
322.3701013855914
 20
294.267492341103
 30
0.0
 10
322.3296706907628
 20
294.2682715260097
 30
0.0
 10
322.3191987904429
 20
294.2684733416527
 30
0.0
  0
SPLINE
  5
EFD
102
{ACAD_REACTORS
330
EFF
102
}
330
18
100
AcDbEntity
  8
ROGO
 62
     4
100
AcDbSpline
210
0.0
220
0.0
230
1.0
 70
     8
 71
     3
 72
     9
 73
     5
 74
     3
 42
0.0000000001
 43
0.0000000001
 44
0.0000000001
 40
0.0
 40
0.0
 40
0.0
 40
0.0
 40
0.1135793343552172
 40
0.2662938392177403
 40
0.2662938392177403
 40
0.2662938392177403
 40
0.2662938392177403
 10
322.5692162490609
 20
294.2977497885614
 30
0.0
 10
322.6057012173789
 20
294.3089121282846
 30
0.0
 10
322.6912425030564
 20
294.3350829305385
 30
0.0
 10
322.7619192002932
 20
294.390395248313
 30
0.0
 10
322.802450955949
 20
294.4221158215209
 30
0.0
 11
322.5692162490609
 21
294.2977497885614
 31
0.0
 11
322.6759670132856
 21
294.3365381828311
 31
0.0
 11
322.802450955949
 21
294.4221158215209
 31
0.0
  0
ELLIPSE
  5
EFE
102
{ACAD_REACTORS
330
EFF
102
}
330
18
100
AcDbEntity
  8
ROGO
 62
     4
100
AcDbEllipse
 10
322.1254873234314
 20
294.9093994991636
 30
0.0
 11
0.1782847090673272
 21
0.1567790921840611
 31
0.0
210
0.0
220
0.0
230
1.0
 40
0.6788083417438792
 41
0.0
 42
6.283185307179586
  0
HATCH
  5
EFF
330
18
100
AcDbEntity
  8
ROGO
 62
     4
100
AcDbHatch
 10
0.0
 20
0.0
 30
0.0
210
0.0
220
0.0
230
1.0
  2
SOLID
 70
     1
 71
     1
 91
        2
 92
        5
 93
        6
 72
     4
 94
        3
 73
     0
 74
     0
 95
       38
 96
       34
 40
0.0
 40
0.0
 40
0.0
 40
0.0
 40
0.1807680148264315
 40
0.2375392910068956
 40
0.3104865209606157
 40
0.3712759982447458
 40
0.422566754387306
 40
0.490692583720658
 40
0.5255021974951946
 40
0.5647069597052371
 40
0.622487401681883
 40
0.6879401044674746
 40
0.7303986317551266
 40
0.7765228362185534
 40
0.8277951442290254
 40
0.9056034697002209
 40
0.9795294930264187
 40
1.013897332332996
 40
1.053089255536027
 40
1.099518741889647
 40
1.132570569820733
 40
1.160277520290299
 40
1.19983678629386
 40
1.243305643169139
 40
1.286774258016964
 40
1.324809356515675
 40
1.411916492917645
 40
1.446284332224223
 40
1.5150200516612
 40
1.575779369908399
 40
1.69209852953623
 40
1.835624328519098
 40
2.042896467983898
 40
2.042896467983898
 40
2.042896467983898
 40
2.042896467983898
 10
321.9530289288007
 20
295.5870954913826
 10
321.892773531175
 20
295.5828388722817
 10
321.8135945655537
 20
295.5772454364945
 10
321.7130557930444
 20
295.5497008102896
 10
321.6582510386032
 20
295.5168862908317
 10
321.6012157372862
 20
295.4927660461311
 10
321.552587830901
 20
295.4570487468819
 10
321.5034017302053
 20
295.4386439666885
 10
321.4689601168294
 20
295.4054568583159
 10
321.4290967586965
 20
295.3851847401409
 10
321.3973528588612
 20
295.3398098461265
 10
321.3618721823295
 20
295.2973859644682
 10
321.3207101339222
 20
295.2664184228906
 10
321.2869278883629
 20
295.2338934439282
 10
321.2559373754385
 20
295.1836976287443
 10
321.2375958028675
 20
295.1170022540588
 10
321.1858939884581
 20
295.0748931997736
 10
321.178109313975
 20
295.0242655520975
 10
321.1495114637793
 20
294.9943960919067
 10
321.1370761183234
 20
294.9558389099219
 10
321.1323401401995
 20
294.9205137206009
 10
321.1266558371571
 20
294.8875224391728
 10
321.1117867769248
 20
294.8528170684349
 10
321.116640089486
 20
294.8099467895
 10
321.1152575264438
 20
294.7684340754734
 10
321.1160711664172
 20
294.712390618862
 10
321.1131346270712
 20
294.6578254219425
 10
321.1365523775861
 20
294.5984455457741
 10
321.150410225189
 20
294.5455166011076
 10
321.1883621951326
 20
294.472230058856
 10
321.2538285479506
 20
294.3876732351471
 10
321.378318293968
 20
294.2850372718543
 10
321.4980188245273
 20
294.274625331137
 10
321.5687449672576
 20
294.2684733416527
 72
     1
 10
321.5687449672576
 20
294.2684733416527
 11
322.3191987904439
 21
294.2684733416528
 72
     4
 94
        3
 73
     0
 74
     0
 95
       11
 96
        7
 40
0.1647869275458135
 40
0.1647869275458135
 40
0.1647869275458135
 40
0.1647869275458135
 40
0.2545010798212315
 40
0.5111620267764023
 40
0.7602998271033902
 40
0.8850764140209603
 40
0.8850764140209603
 40
0.8850764140209603
 40
0.8850764140209603
 10
322.3191987904429
 20
294.2684733416527
 10
322.3296706907628
 20
294.2682715260097
 10
322.3701013855914
 20
294.267492341103
 10
322.4391979276878
 20
294.2774188716876
 10
322.5118966948258
 20
294.2869312660609
 10
322.5552377062601
 20
294.2938588558448
 10
322.5692162490609
 20
294.2977497885614
 72
     4
 94
        3
 73
     0
 74
     0
 95
        9
 96
        5
 40
0.0
 40
0.0
 40
0.0
 40
0.0
 40
0.1135793343552172
 40
0.2662938392177403
 40
0.2662938392177403
 40
0.2662938392177403
 40
0.2662938392177403
 10
322.5692162490609
 20
294.2977497885614
 10
322.6057012173789
 20
294.3089121282846
 10
322.6912425030564
 20
294.3350829305385
 10
322.7619192002932
 20
294.390395248313
 10
322.802450955949
 20
294.4221158215209
 72
     4
 94
        3
 73
     0
 74
     0
 95
       25
 96
       21
 40
0.0
 40
0.0
 40
0.0
 40
0.0
 40
0.165525918914855
 40
0.3412380755365305
 40
0.5940540902285263
 40
0.7697671103696209
 40
0.9377330196075423
 40
1.11479469302833
 40
1.274661249598185
 40
1.574522170874768
 40
1.815540668866877
 40
2.15849091873445
 40
2.536227739636605
 40
2.738070817316548
 40
2.925680654369045
 40
3.162706124480894
 40
3.395643218188267
 40
3.648478129958861
 40
3.928509979727306
 40
4.337226830236035
 40
4.337226830236035
 40
4.337226830236035
 40
4.337226830236035
 10
322.802450955949
 20
294.4221158215209
 10
322.8173436133427
 20
294.4344225654666
 10
322.8455909126466
 20
294.4636926886882
 10
322.8956921492863
 20
294.5111330370269
 10
322.939842309093
 20
294.5664048074809
 10
322.9943047098102
 20
294.6112006403543
 10
323.0226576653492
 20
294.6659668667018
 10
323.0635262126533
 20
294.7090393372008
 10
323.0978082315707
 20
294.7755605191915
 10
323.1268948302707
 20
294.8519722843356
 10
323.1546248857682
 20
294.9515735680391
 10
323.1652513291048
 20
295.0639386210846
 10
323.1495228714576
 20
295.1726517535156
 10
323.1115268937828
 20
295.2539112490525
 10
323.0835927330137
 20
295.3216326637186
 10
323.0411991443712
 20
295.3857767673958
 10
322.9928337895106
 20
295.4555405737299
 10
322.9246955687512
 20
295.5132465360449
 10
322.8356459101301
 20
295.5828492254204
 10
322.7527028024116
 20
295.5855141019264
 10
322.703482751986
 20
295.5870954913826
 72
     1
 10
322.7034827519862
 20
295.5870954913826
 11
321.9530289288007
 21
295.5870954913826
 97
        6
330
EF9
330
EFA
330
EF8
330
EFB
330
EFC
330
EFD
 92
       20
 93
        1
 72
     3
 10
322.1254873234314
 20
294.9093994991636
 11
0.1782847090673273
 21
0.1567790921840611
 40
0.6788083417438792
 50
0.0
 51
360.0
 73
     1
 97
        1
330
EFE
 75
     0
 76
     1
 47
0.088756267210375
 98
        2
 10
322.1779185992001
 20
295.2228867694876
 10
322.1779185992001
 20
295.2228867694876
450
        0
451
        0
460
0.0
461
0.0
452
        0
462
0.0
453
        0
470

  0
TEXT
  5
F31
330
18
100
AcDbEntity
  8
文字
100
AcDbText
 10
314.5968749484721
 20
337.540097979736
 30
0.0
 40
2.5
  1
φ
  7
STYLE3
100
AcDbText
  0
LINE
  5
F32
330
18
100
AcDbEntity
  8
0
  6
ByBlock
 62
     2
100
AcDbLine
 10
417.6596938903091
 20
310.7166516311037
 30
0.0
 11
452.9363109050221
 21
310.7166516311037
 31
0.0
  0
LINE
  5
F33
330
18
100
AcDbEntity
  8
0
  6
ByBlock
 62
     2
100
AcDbLine
 10
417.6596938903091
 20
261.7166516311037
 30
0.0
 11
452.9363109050221
 21
261.7166516311037
 31
0.0
  0
LINE
  5
F34
330
18
100
AcDbEntity
  8
0
  6
ByBlock
 62
     2
100
AcDbLine
 10
451.6863109050221
 20
308.2166516311037
 30
0.0
 11
451.6863109050221
 21
264.2166516311037
 31
0.0
  0
INSERT
  5
F35
330
18
100
AcDbEntity
  8
0
  6
ByBlock
 62
     2
100
AcDbBlockReference
  2
_OPEN
 10
451.6863109050221
 20
310.7166516311037
 30
0.0
 41
2.5
 42
2.5
 43
2.5
 50
90.0
  0
INSERT
  5
F36
330
18
100
AcDbEntity
  8
0
  6
ByBlock
 62
     2
100
AcDbBlockReference
  2
_OPEN
 10
451.6863109050221
 20
261.7166516311037
 30
0.0
 41
2.5
 42
2.5
 43
2.5
 50
270.0
  0
MTEXT
  5
F37
330
18
100
AcDbEntity
  8
0
  6
ByBlock
 62
     6
100
AcDbMText
 10
449.6914674685721
 20
286.2166516311037
 30
0.0
 40
2.5
 41
0.0
 71
     5
 72
     1
  1
\A1;49
  7
STYLE3
 11
0.0000000000000001
 21
1.0
 31
0.0
 73
     1
 44
1.0
  0
POINT
  5
F3A
330
18
100
AcDbEntity
  8
DEFPOINTS
  6
ByBlock
 62
     0
100
AcDbPoint
 10
451.6863109050221
 20
261.7166516311037
 30
0.0
  0
ARC
  5
F7B
330
18
100
AcDbEntity
  8
外形線
100
AcDbCircle
 10
431.1596938903091
 20
286.2166516311037
 30
0.0
 40
8.0
100
AcDbArc
 50
270.0
 51
90.0
  0
CIRCLE
  5
F7C
330
18
100
AcDbEntity
  8
外形線
100
AcDbCircle
 10
431.1596938903091
 20
286.2166516311037
 30
0.0
 40
3.25
  0
ARC
  5
F7D
330
18
100
AcDbEntity
  8
外形線
100
AcDbCircle
 10
431.1596938903091
 20
286.2166516311037
 30
0.0
 40
7.5
100
AcDbArc
 50
270.0
 51
90.0
  0
LINE
  5
F7E
330
18
100
AcDbEntity
  8
外形線
100
AcDbLine
 10
431.1596938903091
 20
294.2166516311037
 30
0.0
 11
421.328478991022
 21
294.2166516311037
 31
0.0
  0
LINE
  5
F7F
330
18
100
AcDbEntity
  8
外形線
100
AcDbLine
 10
431.1596938903091
 20
278.2166516311037
 30
0.0
 11
421.328478991022
 21
278.2166516311037
 31
0.0
  0
LINE
  5
F8E
330
18
100
AcDbEntity
  8
外形線
100
AcDbLine
 10
417.6596938903091
 20
309.3166516311037
 30
0.0
 11
417.8596938903091
 21
309.3166516311037
 31
0.0
  0
LINE
  5
F8F
330
18
100
AcDbEntity
  8
外形線
100
AcDbLine
 10
417.6596938903091
 20
263.1166516311037
 30
0.0
 11
417.8596938903091
 21
263.1166516311037
 31
0.0
  0
ARC
  5
F90
330
18
100
AcDbEntity
  8
外形線
100
AcDbCircle
 10
431.1596938903091
 20
286.2166516311037
 30
0.0
 40
8.0
100
AcDbArc
 50
270.0
 51
90.0
  0
LINE
  5
F96
330
18
100
AcDbEntity
  8
外形線
100
AcDbLine
 10
431.1596938903091
 20
293.7166516311037
 30
0.0
 11
420.1596938903091
 21
293.7166516311037
 31
0.0
  0
LINE
  5
F97
330
18
100
AcDbEntity
  8
外形線
100
AcDbLine
 10
431.1596938903091
 20
278.7166516311037
 30
0.0
 11
420.1596938903091
 21
278.7166516311037
 31
0.0
  0
LINE
  5
F9A
330
18
100
AcDbEntity
  8
中心線
 48
0.5
100
AcDbLine
 10
431.1596938903091
 20
298.1516198866814
 30
0.0
 11
431.1596938903093
 21
254.7798599622374
 31
0.0
  0
MTEXT
  5
F9C
330
18
100
AcDbEntity
  8
外形線
 62
     6
100
AcDbMText
 10
437.0734817371767
 20
302.8817454037851
 30
0.0
 40
2.5
 41
0.0
 71
     4
 72
     1
  1
\A1;φ6.5
  7
STYLE3
 73
     1
 44
1.0
  0
INSERT
  5
F9D
330
18
100
AcDbEntity
  8
外形線
 62
     2
100
AcDbBlockReference
  2
_OPEN
 10
432.8895589324046
 20
289.1839301909777
 30
0.0
 41
2.5
 42
2.5
 43
2.5
 50
253.2351141983459
  0
LWPOLYLINE
  5
F9E
330
18
100
AcDbEntity
  8
外形線
 62
     2
100
AcDbPolyline
 90
        3
 70
     0
 43
0.0
 10
433.610671535979
 20
291.5776713242179
 10
437.4419115398187
 20
301.2319418182796
 10
446.9782145168703
 20
301.2319418182796
  0
LINE
  5
FA4
330
18
100
AcDbEntity
  8
想像線
 48
0.5
100
AcDbLine
 10
426.6596938903091
 20
278.2166516311037
 30
0.0
 11
426.6596938903091
 21
294.2166516311037
 31
0.0
  0
LINE
  5
FA5
330
18
100
AcDbEntity
  8
想像線
 48
0.5
100
AcDbLine
 10
421.6596938903091
 20
278.2150658876509
 30
0.0
 11
421.6596938903091
 21
294.2182373745566
 31
0.0
  0
LINE
  5
FD6
330
18
100
AcDbEntity
  8
0
  6
ByBlock
 62
     2
100
AcDbLine
 10
413.6596938903092
 20
256.0298599622374
 30
0.0
 11
428.6596938903091
 21
256.0298599622374
 31
0.0
  0
INSERT
  5
FD7
330
18
100
AcDbEntity
  8
0
  6
ByBlock
 62
     2
100
AcDbBlockReference
  2
_OPEN
 10
411.1596938903091
 20
256.0298599622374
 30
0.0
 41
2.5
 42
2.5
 43
2.5
 50
180.0
  0
INSERT
  5
FD8
330
18
100
AcDbEntity
  8
0
  6
ByBlock
 62
     2
100
AcDbBlockReference
  2
_OPEN
 10
431.1596938903091
 20
256.0298599622374
 30
0.0
 41
2.5
 42
2.5
 43
2.5
  0
MTEXT
  5
FD9
330
18
100
AcDbEntity
  8
0
  6
ByBlock
 62
     6
100
AcDbMText
 10
421.1596938903092
 20
257.9048599622374
 30
0.0
 40
2.5
 41
0.0
 71
     5
 72
     1
  1
\A1;20
  7
STYLE3
 73
     1
 44
1.0
  0
POINT
  5
FDC
330
18
100
AcDbEntity
  8
DEFPOINTS
  6
ByBlock
 62
     0
100
AcDbPoint
 10
431.1596938903091
 20
256.0298599622374
 30
0.0
  0
LINE
  5
FDD
330
18
100
AcDbEntity
  8
0
  6
ByBlock
 62
     2
100
AcDbLine
 10
420.1596938903091
 20
293.7166516311037
 30
0.0
 11
420.1596938903091
 21
265.1822061157499
 31
0.0
  0
LINE
  5
FDF
330
18
100
AcDbEntity
  8
0
  6
ByBlock
 62
     2
100
AcDbLine
 10
422.6596938903091
 20
266.4322061157499
 30
0.0
 11
428.6596938903091
 21
266.4322061157499
 31
0.0
  0
INSERT
  5
FE0
330
18
100
AcDbEntity
  8
0
  6
ByBlock
 62
     2
100
AcDbBlockReference
  2
_OPEN
 10
420.1596938903091
 20
266.4322061157499
 30
0.0
 41
2.5
 42
2.5
 43
2.5
 50
180.0
  0
INSERT
  5
FE1
330
18
100
AcDbEntity
  8
0
  6
ByBlock
 62
     2
100
AcDbBlockReference
  2
_OPEN
 10
431.1596938903091
 20
266.4322061157499
 30
0.0
 41
2.5
 42
2.5
 43
2.5
  0
MTEXT
  5
FE2
330
18
100
AcDbEntity
  8
0
  6
ByBlock
 62
     6
100
AcDbMText
 10
425.6596938903091
 20
268.3072061157499
 30
0.0
 40
2.5
 41
0.0
 71
     5
 72
     1
  1
\A1;11
  7
STYLE3
 73
     1
 44
1.0
  0
POINT
  5
FE3
330
18
100
AcDbEntity
  8
DEFPOINTS
  6
ByBlock
 62
     0
100
AcDbPoint
 10
420.1596938903091
 20
293.7166516311037
 30
0.0
  0
ARC
  5
1008
330
18
100
AcDbEntity
  8
外形線
100
AcDbCircle
 10
270.5346938903058
 20
286.2166516311037
 30
0.0
 40
149.1250000000032
100
AcDbArc
 50
351.0887943333476
 51
356.2059438278885
  0
ARC
  5
100B
330
18
100
AcDbEntity
  8
外形線
100
AcDbCircle
 10
270.5346938903058
 20
286.2166516311037
 30
0.0
 40
149.1250000000032
100
AcDbArc
 50
3.794056172111559
 51
8.911205666652444
  0
ARC
  5
100C
330
18
100
AcDbEntity
  8
外形線
100
AcDbCircle
 10
421.328478991022
 20
296.2166516311037
 30
0.0
 40
2.0
100
AcDbArc
 50
183.7940561721114
 51
270.0
  0
ARC
  5
100D
330
18
100
AcDbEntity
  8
外形線
100
AcDbCircle
 10
421.328478991022
 20
276.2166516311037
 30
0.0
 40
2.0
100
AcDbArc
 50
90.0
 51
176.2059438278884
  0
ARC
  5
100F
330
18
100
AcDbEntity
  8
外形線
100
AcDbCircle
 10
270.5346938903048
 20
286.2166516311037
 30
0.0
 40
149.1250000000042
100
AcDbArc
 50
356.2059438278885
 51
3.794056172111511
  0
TEXT
  5
10AC
330
18
100
AcDbEntity
  8
文字
100
AcDbText
 10
312.9781441061691
 20
291.613326966959
 30
0.0
 40
1.0
  1
MADE  IN  JAPAN
  7
STYLE3
100
AcDbText
  0
TEXT
  5
10AD
330
18
100
AcDbEntity
  8
文字
100
AcDbText
 10
316.3424769402787
 20
289.5186448526719
 30
0.0
 40
1.0
  1
NO.17B
  7
STYLE3
100
AcDbText
  0
TEXT
  5
10B0
330
18
100
AcDbEntity
  8
文字
100
AcDbText
 10
314.0533869827134
 20
272.1809979218412
 30
0.0
 40
1.0
  1
S
 50
339.5483790017691
  7
STYLE3
100
AcDbText
  0
TEXT
  5
10B1
330
18
100
AcDbEntity
  8
文字
100
AcDbText
 10
314.9047520673304
 20
271.9369726523935
 30
0.0
 40
1.0
  1
H
 50
341.1382006151093
  7
STYLE3
100
AcDbText
  0
TEXT
  5
10B2
330
18
100
AcDbEntity
  8
文字
100
AcDbText
 10
315.8361507530852
 20
271.7104002384601
 30
0.0
 40
1.0
  1
O
 50
341.3093091461099
  7
STYLE3
100
AcDbText
  0
TEXT
  5
10B3
330
18
100
AcDbEntity
  8
文字
100
AcDbText
 10
316.8575687197523
 20
271.5237255986455
 30
0.0
 40
1.0
  1
C
 50
345.2355867804538
  7
STYLE3
100
AcDbText
  0
TEXT
  5
10B4
330
18
100
AcDbEntity
  8
文字
100
AcDbText
 10
317.880001999093
 20
271.3268101298717
 30
0.0
 40
1.0
  1
K
 50
350.6937655764816
  7
STYLE3
100
AcDbText
  0
TEXT
  5
10B5
330
18
100
AcDbEntity
  8
文字
100
AcDbText
 10
319.5474849071391
 20
271.2876735071315
 30
0.0
 40
1.0
  1
P
 50
2.788911802626474
  7
STYLE3
100
AcDbText
  0
TEXT
  5
10B6
330
18
100
AcDbEntity
  8
文字
100
AcDbText
 10
320.5390085104661
 20
271.4108469441618
 30
0.0
 40
1.0
  1
R
 50
5.610365723542154
  7
STYLE3
100
AcDbText
  0
TEXT
  5
10B7
330
18
100
AcDbEntity
  8
文字
100
AcDbText
 10
321.5728243611987
 20
271.5377729328283
 30
0.0
 40
1.0
  1
O
 50
7.2861564411579
  7
STYLE3
100
AcDbText
  0
TEXT
  5
10B8
330
18
100
AcDbEntity
  8
文字
100
AcDbText
 10
322.6656064581532
 20
271.7439523741926
 30
0.0
 40
1.0
  1
O
 50
7.197936770610262
  7
STYLE3
100
AcDbText
  0
TEXT
  5
10B9
330
18
100
AcDbEntity
  8
文字
100
AcDbText
 10
323.7813016773401
 20
271.9154205386896
 30
0.0
 40
1.0
  1
F
 50
14.83992826650595
  7
STYLE3
100
AcDbText
  0
LINE
  5
10CA
330
18
100
AcDbEntity
  8
0
  6
ByBlock
 62
     2
100
AcDbLine
 10
417.6596938903091
 20
310.7166516311037
 30
0.0
 11
417.6596938903091
 21
337.000590283182
 31
0.0
  0
LINE
  5
10CB
330
18
100
AcDbEntity
  8
0
  6
ByBlock
 62
     2
100
AcDbLine
 10
413.6596938903091
 20
335.750590283182
 30
0.0
 11
415.159693890309
 21
335.750590283182
 31
0.0
  0
INSERT
  5
10CC
330
18
100
AcDbEntity
  8
0
  6
ByBlock
 62
     2
100
AcDbBlockReference
  2
_OPEN
 10
411.159693890309
 20
335.750590283182
 30
0.0
 41
2.5
 42
2.5
 43
2.5
 50
180.0
  0
INSERT
  5
10CD
330
18
100
AcDbEntity
  8
0
  6
ByBlock
 62
     2
100
AcDbBlockReference
  2
_OPEN
 10
417.6596938903091
 20
335.750590283182
 30
0.0
 41
2.5
 42
2.5
 43
2.5
  0
MTEXT
  5
10CE
330
18
100
AcDbEntity
  8
0
  6
ByBlock
 62
     6
100
AcDbMText
 10
414.409693890309
 20
337.6255902831819
 30
0.0
 40
2.5
 41
0.0
 71
     5
 72
     1
  1
\A1;6.5
  7
STYLE3
 73
     1
 44
1.0
  0
POINT
  5
10CF
330
18
100
AcDbEntity
  8
DEFPOINTS
  6
ByBlock
 62
     0
100
AcDbPoint
 10
411.159693890309
 20
310.7166516311037
 30
0.0
  0
POINT
  5
10D0
330
18
100
AcDbEntity
  8
DEFPOINTS
  6
ByBlock
 62
     0
100
AcDbPoint
 10
417.6596938903091
 20
310.7166516311037
 30
0.0
  0
POINT
  5
10D1
330
18
100
AcDbEntity
  8
DEFPOINTS
  6
ByBlock
 62
     0
100
AcDbPoint
 10
417.6596938903091
 20
335.750590283182
 30
0.0
  0
LINE
  5
10D2
330
18
100
AcDbEntity
  8
0
  6
ByBlock
 62
     2
100
AcDbLine
 10
396.6596938903091
 20
286.2166516311037
 30
0.0
 11
396.6596938903091
 21
337.000590283182
 31
0.0
  0
LINE
  5
10D4
330
18
100
AcDbEntity
  8
0
  6
ByBlock
 62
     2
100
AcDbLine
 10
399.1596938903091
 20
335.750590283182
 30
0.0
 11
408.659693890309
 21
335.750590283182
 31
0.0
  0
INSERT
  5
10D5
330
18
100
AcDbEntity
  8
0
  6
ByBlock
 62
     2
100
AcDbBlockReference
  2
_OPEN
 10
396.6596938903091
 20
335.750590283182
 30
0.0
 41
2.5
 42
2.5
 43
2.5
 50
180.0
  0
INSERT
  5
10D6
330
18
100
AcDbEntity
  8
0
  6
ByBlock
 62
     2
100
AcDbBlockReference
  2
_OPEN
 10
411.159693890309
 20
335.750590283182
 30
0.0
 41
2.5
 42
2.5
 43
2.5
  0
MTEXT
  5
10D7
330
18
100
AcDbEntity
  8
0
  6
ByBlock
 62
     6
100
AcDbMText
 10
403.9096938903091
 20
337.6255902831819
 30
0.0
 40
2.5
 41
0.0
 71
     5
 72
     1
  1
\A1;14.5
  7
STYLE3
 73
     1
 44
1.0
  0
POINT
  5
10D8
330
18
100
AcDbEntity
  8
DEFPOINTS
  6
ByBlock
 62
     0
100
AcDbPoint
 10
396.6596938903091
 20
286.2166516311037
 30
0.0
  0
POINT
  5
10D9
330
18
100
AcDbEntity
  8
DEFPOINTS
  6
ByBlock
 62
     0
100
AcDbPoint
 10
411.159693890309
 20
327.7166516311037
 30
0.0
  0
POINT
  5
10DA
330
18
100
AcDbEntity
  8
DEFPOINTS
  6
ByBlock
 62
     0
100
AcDbPoint
 10
411.159693890309
 20
335.750590283182
 30
0.0
  0
LINE
  5
128B
330
18
100
AcDbEntity
  8
目盛
100
AcDbLine
 10
313.5364332027616
 20
308.4940643370623
 30
0.0
 11
313.9592060109417
 21
306.8474729631436
 31
0.0
  0
LINE
  5
128C
330
18
100
AcDbEntity
  8
目盛
100
AcDbLine
 10
312.1489097369292
 20
308.0909515058922
 30
0.0
 11
312.9832556217416
 21
305.5230989118953
 31
0.0
  0
LINE
  5
128D
330
18
100
AcDbEntity
  8
目盛
100
AcDbLine
 10
317.812118658379
 20
309.1712663849539
 30
0.0
 11
317.9188625415787
 21
307.4746209466259
 31
0.0
  0
LINE
  5
128E
330
18
100
AcDbEntity
  8
目盛
100
AcDbLine
 10
316.3736362355741
 20
309.0352897613367
 30
0.0
 11
316.5867027326334
 21
307.3486947691022
 31
0.0
  0
LINE
  5
128F
330
18
100
AcDbEntity
  8
目盛
100
AcDbLine
 10
314.9465303720815
 20
308.8092583978636
 30
0.0
 11
315.2650786068772
 21
307.1393700716249
 31
0.0
  0
LINE
  5
1290
330
18
100
AcDbEntity
  8
目盛
100
AcDbLine
 10
306.9322843230362
 20
305.6361939176502
 30
0.0
 11
307.8431898745005
 21
304.2008364442967
 31
0.0
  0
LINE
  5
1291
330
18
100
AcDbEntity
  8
目盛
100
AcDbLine
 10
305.7372398048261
 20
304.8240425017275
 30
0.0
 11
307.3242599860158
 21
302.6396966169152
 31
0.0
  0
LINE
  5
1292
330
18
100
AcDbEntity
  8
目盛
100
AcDbLine
 10
310.7894358958055
 20
307.6015108065336
 30
0.0
 11
311.4152476353695
 21
306.0208907805236
 31
0.0
  0
LINE
  5
1293
330
18
100
AcDbEntity
  8
目盛
100
AcDbLine
 10
309.4633769015564
 20
307.0276738378222
 30
0.0
 11
310.187201697217
 21
305.48946784863
 31
0.0
  0
LINE
  5
1294
330
18
100
AcDbEntity
  8
目盛
100
AcDbLine
 10
308.1759661032137
 20
306.3717052721127
 30
0.0
 11
308.9949473491866
 21
304.8819839160382
 31
0.0
  0
LINE
  5
1295
330
18
100
AcDbEntity
  8
目盛
100
AcDbLine
 10
301.5344960237099
 20
300.8774033953238
 30
0.0
 11
302.8443685364288
 21
299.7937826127509
 31
0.0
  0
LINE
  5
1296
330
18
100
AcDbEntity
  8
目盛
100
AcDbLine
 10
300.6489097369292
 20
299.7357124338306
 30
0.0
 11
302.8332556217415
 21
298.148692252641
 31
0.0
  0
LINE
  5
1297
330
18
100
AcDbEntity
  8
目盛
100
AcDbLine
 10
304.5955488433332
 20
303.9384562149469
 30
0.0
 11
305.679169625906
 21
302.6285837022281
 31
0.0
  0
LINE
  5
1298
330
18
100
AcDbEntity
  8
目盛
100
AcDbLine
 10
303.5117171711933
 20
302.9829300617962
 30
0.0
 11
304.675447251272
 21
301.7436833951799
 31
0.0
  0
LINE
  5
1299
330
18
100
AcDbEntity
  8
目盛
100
AcDbLine
 10
302.4900221768606
 20
301.9612350674638
 30
0.0
 11
303.729268843477
 21
300.7975049873849
 31
0.0
  0
LINE
  5
129A
330
18
100
AcDbEntity
  8
目盛
100
AcDbLine
 10
297.8714414321233
 20
294.6835163428515
 30
0.0
 11
299.4520614581333
 21
294.0577046032875
 31
0.0
  0
LINE
  5
129B
330
18
100
AcDbEntity
  8
目盛
100
AcDbLine
 10
297.3820007327645
 20
293.3240425017275
 30
0.0
 11
299.9498533267614
 21
292.4896966169152
 31
0.0
  0
LINE
  5
129C
330
18
100
AcDbEntity
  8
目盛
100
AcDbLine
 10
299.8367583210068
 20
298.5406679156207
 30
0.0
 11
301.2721157943602
 21
297.6297623641565
 31
0.0
  0
LINE
  5
129D
330
18
100
AcDbEntity
  8
目盛
100
AcDbLine
 10
299.1012469665442
 20
297.2969861354433
 30
0.0
 11
300.5909683226187
 21
296.4780048894704
 31
0.0
  0
LINE
  5
129E
330
18
100
AcDbEntity
  8
目盛
100
AcDbLine
 10
298.4452784008346
 20
296.0095753371006
 30
0.0
 11
299.9834843900268
 21
295.2857505414399
 31
0.0
  0
LINE
  5
129F
330
18
100
AcDbEntity
  8
目盛
100
AcDbLine
 10
296.3016858537028
 20
287.6608335802782
 30
0.0
 11
297.9983312920309
 21
287.5540896970782
 31
0.0
  0
LINE
  5
12A0
330
18
100
AcDbEntity
  8
目盛
100
AcDbLine
 10
296.256300607553
 20
286.2166516311037
 30
0.0
 11
298.956300607553
 21
286.2166516311037
 31
0.0
  0
LINE
  5
12A1
330
18
100
AcDbEntity
  8
目盛
100
AcDbLine
 10
296.9788879015946
 20
291.9365190358955
 30
0.0
 11
298.6254792755132
 21
291.5137462277153
 31
0.0
  0
LINE
  5
12A2
330
18
100
AcDbEntity
  8
目盛
100
AcDbLine
 10
296.6636938407932
 20
290.5264218665755
 30
0.0
 11
298.3335821670319
 21
290.2078736317798
 31
0.0
  0
LINE
  5
12A3
330
18
100
AcDbEntity
  8
目盛
100
AcDbLine
 10
296.43766247732
 20
289.0993160030829
 30
0.0
 11
298.1242574695547
 21
288.8862495060236
 31
0.0
  0
LINE
  5
12A4
330
18
100
AcDbEntity
  8
目盛
100
AcDbLine
 10
296.9788879015943
 20
280.4967842263123
 30
0.0
 11
298.6254792755131
 21
280.9195570344925
 31
0.0
  0
LINE
  5
12A5
330
18
100
AcDbEntity
  8
目盛
100
AcDbLine
 10
297.3820007327644
 20
279.1092607604799
 30
0.0
 11
299.9498533267614
 21
279.9436066452923
 31
0.0
  0
LINE
  5
12A6
330
18
100
AcDbEntity
  8
目盛
100
AcDbLine
 10
296.3016858537027
 20
284.7724696819296
 30
0.0
 11
297.9983312920307
 21
284.8792135651295
 31
0.0
  0
LINE
  5
12A7
330
18
100
AcDbEntity
  8
目盛
100
AcDbLine
 10
296.43766247732
 20
283.3339872591249
 30
0.0
 11
298.1242574695546
 21
283.5470537561842
 31
0.0
  0
LINE
  5
12A8
330
18
100
AcDbEntity
  8
目盛
100
AcDbLine
 10
296.663693840793
 20
281.9068813956323
 30
0.0
 11
298.3335821670319
 21
282.225429630428
 31
0.0
  0
LINE
  5
12A9
330
18
100
AcDbEntity
  8
目盛
100
AcDbLine
 10
299.8367583210065
 20
273.892635346587
 30
0.0
 11
301.27211579436
 21
274.8035408980513
 31
0.0
  0
LINE
  5
12AA
330
18
100
AcDbEntity
  8
目盛
100
AcDbLine
 10
300.6489097369292
 20
272.6975908283769
 30
0.0
 11
302.8332556217416
 21
274.2846110095665
 31
0.0
  0
LINE
  5
12AB
330
18
100
AcDbEntity
  8
目盛
100
AcDbLine
 10
297.8714414321232
 20
277.7497869193563
 30
0.0
 11
299.4520614581333
 21
278.3755986589202
 31
0.0
  0
LINE
  5
12AC
330
18
100
AcDbEntity
  8
目盛
100
AcDbLine
 10
298.4452784008346
 20
276.4237279251072
 30
0.0
 11
299.9834843900267
 21
277.1475527207678
 31
0.0
  0
LINE
  5
12AD
330
18
100
AcDbEntity
  8
目盛
100
AcDbLine
 10
299.101246966544
 20
275.1363171267645
 30
0.0
 11
300.5909683226186
 21
275.9552983727374
 31
0.0
  0
LINE
  5
12AE
330
18
100
AcDbEntity
  8
目盛
100
AcDbLine
 10
304.5955488433329
 20
268.4948470472607
 30
0.0
 11
305.6791696259057
 21
269.8047195599796
 31
0.0
  0
LINE
  5
12AF
330
18
100
AcDbEntity
  8
目盛
100
AcDbLine
 10
305.737239804826
 20
267.6092607604799
 30
0.0
 11
307.3242599860157
 21
269.7936066452923
 31
0.0
  0
LINE
  5
12B0
330
18
100
AcDbEntity
  8
目盛
100
AcDbLine
 10
301.5344960237097
 20
271.555899866884
 30
0.0
 11
302.8443685364285
 21
272.6395206494568
 31
0.0
  0
LINE
  5
12B1
330
18
100
AcDbEntity
  8
目盛
100
AcDbLine
 10
302.4900221768604
 20
270.472068194744
 30
0.0
 11
303.7292688434768
 21
271.6357982748228
 31
0.0
  0
LINE
  5
12B2
330
18
100
AcDbEntity
  8
目盛
100
AcDbLine
 10
303.5117171711929
 20
269.4503732004114
 30
0.0
 11
304.6754472512717
 21
270.6896198670278
 31
0.0
  0
LINE
  5
12C3
330
18
100
AcDbEntity
  8
目盛
100
AcDbLine
 10
332.7753614102799
 20
267.6092607604799
 30
0.0
 11
331.1883412290902
 21
269.7936066452923
 31
0.0
  0
LINE
  5
12C7
330
18
100
AcDbEntity
  8
目盛
100
AcDbLine
 10
336.978105191396
 20
271.5558998668837
 30
0.0
 11
335.6682326786772
 21
272.6395206494565
 31
0.0
  0
LINE
  5
12C8
330
18
100
AcDbEntity
  8
目盛
100
AcDbLine
 10
337.8636914781767
 20
272.6975908283769
 30
0.0
 11
335.6793455933644
 21
274.2846110095665
 31
0.0
  0
LINE
  5
12C9
330
18
100
AcDbEntity
  8
目盛
100
AcDbLine
 10
333.9170523717727
 20
268.4948470472605
 30
0.0
 11
332.8334315892
 21
269.8047195599794
 31
0.0
  0
LINE
  5
12CA
330
18
100
AcDbEntity
  8
目盛
100
AcDbLine
 10
335.0008840439127
 20
269.4503732004112
 30
0.0
 11
333.837153963834
 21
270.6896198670276
 31
0.0
  0
LINE
  5
12CB
330
18
100
AcDbEntity
  8
目盛
100
AcDbLine
 10
336.0225790382453
 20
270.4720681947437
 30
0.0
 11
334.7833323716289
 21
271.6357982748225
 31
0.0
  0
LINE
  5
12CC
330
18
100
AcDbEntity
  8
目盛
100
AcDbLine
 10
340.6411597829826
 20
277.7497869193559
 30
0.0
 11
339.0605397569727
 21
278.3755986589199
 31
0.0
  0
LINE
  5
12CD
330
18
100
AcDbEntity
  8
目盛
100
AcDbLine
 10
341.1306004823415
 20
279.10926076048
 30
0.0
 11
338.5627478883446
 21
279.9436066452923
 31
0.0
  0
LINE
  5
12CE
330
18
100
AcDbEntity
  8
目盛
100
AcDbLine
 10
338.6758428940992
 20
273.8926353465867
 30
0.0
 11
337.2404854207458
 21
274.8035408980511
 31
0.0
  0
LINE
  5
12CF
330
18
100
AcDbEntity
  8
目盛
100
AcDbLine
 10
339.4113542485617
 20
275.1363171267643
 30
0.0
 11
337.9216328924872
 21
275.9552983727371
 31
0.0
  0
LINE
  5
12D0
330
18
100
AcDbEntity
  8
目盛
100
AcDbLine
 10
340.0673228142713
 20
276.4237279251069
 30
0.0
 11
338.5291168250791
 21
277.1475527207676
 31
0.0
  0
LINE
  5
12D1
330
18
100
AcDbEntity
  8
目盛
100
AcDbLine
 10
342.2109153614032
 20
284.7724696819293
 30
0.0
 11
340.5142699230752
 21
284.8792135651292
 31
0.0
  0
LINE
  5
12D2
330
18
100
AcDbEntity
  8
目盛
100
AcDbLine
 10
342.256300607553
 20
286.2166516311037
 30
0.0
 11
339.556300607553
 21
286.2166516311037
 31
0.0
  0
LINE
  5
12D3
330
18
100
AcDbEntity
  8
目盛
100
AcDbLine
 10
341.5337133135114
 20
280.496784226312
 30
0.0
 11
339.8871219395928
 21
280.9195570344922
 31
0.0
  0
LINE
  5
12D4
330
18
100
AcDbEntity
  8
目盛
100
AcDbLine
 10
341.8489073743128
 20
281.906881395632
 30
0.0
 11
340.1790190480741
 21
282.2254296304276
 31
0.0
  0
LINE
  5
12D5
330
18
100
AcDbEntity
  8
目盛
100
AcDbLine
 10
342.074938737786
 20
283.3339872591245
 30
0.0
 11
340.3883437455514
 21
283.5470537561839
 31
0.0
  0
LINE
  5
12D6
330
18
100
AcDbEntity
  8
目盛
100
AcDbLine
 10
341.5337133135117
 20
291.9365190358952
 30
0.0
 11
339.8871219395929
 21
291.513746227715
 31
0.0
  0
LINE
  5
12D7
330
18
100
AcDbEntity
  8
目盛
100
AcDbLine
 10
341.1306004823416
 20
293.3240425017275
 30
0.0
 11
338.5627478883446
 21
292.4896966169152
 31
0.0
  0
LINE
  5
12D8
330
18
100
AcDbEntity
  8
目盛
100
AcDbLine
 10
342.2109153614032
 20
287.6608335802778
 30
0.0
 11
340.5142699230752
 21
287.554089697078
 31
0.0
  0
LINE
  5
12D9
330
18
100
AcDbEntity
  8
目盛
100
AcDbLine
 10
342.074938737786
 20
289.0993160030826
 30
0.0
 11
340.3883437455515
 21
288.8862495060232
 31
0.0
  0
LINE
  5
12DA
330
18
100
AcDbEntity
  8
目盛
100
AcDbLine
 10
341.8489073743129
 20
290.5264218665752
 30
0.0
 11
340.1790190480742
 21
290.2078736317795
 31
0.0
  0
LINE
  5
12DB
330
18
100
AcDbEntity
  8
目盛
100
AcDbLine
 10
338.6758428940995
 20
298.5406679156204
 30
0.0
 11
337.240485420746
 21
297.6297623641562
 31
0.0
  0
LINE
  5
12DC
330
18
100
AcDbEntity
  8
目盛
100
AcDbLine
 10
337.8636914781768
 20
299.7357124338305
 30
0.0
 11
335.6793455933644
 21
298.1486922526409
 31
0.0
  0
LINE
  5
12DD
330
18
100
AcDbEntity
  8
目盛
100
AcDbLine
 10
340.6411597829828
 20
294.6835163428512
 30
0.0
 11
339.0605397569728
 21
294.0577046032872
 31
0.0
  0
LINE
  5
12DE
330
18
100
AcDbEntity
  8
目盛
100
AcDbLine
 10
340.0673228142715
 20
296.0095753371003
 30
0.0
 11
338.5291168250792
 21
295.2857505414396
 31
0.0
  0
LINE
  5
12DF
330
18
100
AcDbEntity
  8
目盛
100
AcDbLine
 10
339.411354248562
 20
297.296986135443
 30
0.0
 11
337.9216328924874
 21
296.4780048894701
 31
0.0
  0
LINE
  5
12E0
330
18
100
AcDbEntity
  8
目盛
100
AcDbLine
 10
333.9170523717731
 20
303.9384562149467
 30
0.0
 11
332.8334315892003
 21
302.6285837022279
 31
0.0
  0
LINE
  5
12E1
330
18
100
AcDbEntity
  8
目盛
100
AcDbLine
 10
332.7753614102799
 20
304.8240425017275
 30
0.0
 11
331.1883412290902
 21
302.6396966169152
 31
0.0
  0
LINE
  5
12E2
330
18
100
AcDbEntity
  8
目盛
100
AcDbLine
 10
336.9781051913963
 20
300.8774033953235
 30
0.0
 11
335.6682326786774
 21
299.7937826127507
 31
0.0
  0
LINE
  5
12E3
330
18
100
AcDbEntity
  8
目盛
100
AcDbLine
 10
336.0225790382455
 20
301.9612350674635
 30
0.0
 11
334.7833323716292
 21
300.7975049873847
 31
0.0
  0
LINE
  5
12E4
330
18
100
AcDbEntity
  8
目盛
100
AcDbLine
 10
335.000884043913
 20
302.982930061796
 30
0.0
 11
333.8371539638342
 21
301.7436833951796
 31
0.0
  0
LINE
  5
12E5
330
18
100
AcDbEntity
  8
目盛
100
AcDbLine
 10
327.7231653193008
 20
307.6015108065334
 30
0.0
 11
327.0973535797367
 21
306.0208907805234
 31
0.0
  0
LINE
  5
12E6
330
18
100
AcDbEntity
  8
目盛
100
AcDbLine
 10
326.3636914781768
 20
308.0909515058922
 30
0.0
 11
325.5293455933645
 21
305.5230989118953
 31
0.0
  0
LINE
  5
12E7
330
18
100
AcDbEntity
  8
目盛
100
AcDbLine
 10
331.58031689207
 20
305.6361939176499
 30
0.0
 11
330.6694113406057
 21
304.2008364442966
 31
0.0
  0
LINE
  5
12E8
330
18
100
AcDbEntity
  8
目盛
100
AcDbLine
 10
330.3366351118925
 20
306.3717052721125
 30
0.0
 11
329.5176538659196
 21
304.881983916038
 31
0.0
  0
LINE
  5
12E9
330
18
100
AcDbEntity
  8
目盛
100
AcDbLine
 10
329.0492243135499
 20
307.0276738378221
 30
0.0
 11
328.3253995178892
 21
305.4894678486299
 31
0.0
  0
MTEXT
  5
16E6
330
18
100
AcDbEntity
  8
DEFPOINTS
  6
Continuous
100
AcDbMText
 10
1403.462062241273
 20
297.4519553003923
 30
0.0
 40
1.0
 41
0.0
 71
     4
 72
     1
  1
\A1;
 73
     1
 44
1.0
  0
POINT
  5
17A7
330
18
100
AcDbEntity
  8
DEFPOINTS
  6
ByBlock
 62
     0
100
AcDbPoint
 10
305.737239804826
 20
267.6092607604799
 30
0.0
  0
POINT
  5
17A8
330
18
100
AcDbEntity
  8
DEFPOINTS
  6
ByBlock
 62
     0
100
AcDbPoint
 10
332.7753614102799
 20
267.6092607604799
 30
0.0
  0
POINT
  5
17A9
330
18
100
AcDbEntity
  8
DEFPOINTS
  6
ByBlock
 62
     0
100
AcDbPoint
 10
331.1883412290902
 20
269.7936066452923
 30
0.0
  0
POINT
  5
17AA
330
18
100
AcDbEntity
  8
DEFPOINTS
  6
ByBlock
 62
     0
100
AcDbPoint
 10
307.3242599860157
 20
269.7936066452923
 30
0.0
  0
LINE
  5
17EC
330
18
100
AcDbEntity
  8
ﾊｯﾁﾝｸ
100
AcDbLine
 10
316.7563006075529
 20
229.6095227356241
 30
0.0
 11
317.1634295030326
 21
230.0166516311037
 31
0.0
  0
LINE
  5
17ED
330
18
100
AcDbEntity
  8
ﾊｯﾁﾝｸ
100
AcDbLine
 10
316.756300607553
 20
228.2624843174637
 30
0.0
 11
318.510467921193
 21
230.0166516311037
 31
0.0
  0
LINE
  5
17EE
330
18
100
AcDbEntity
  8
ﾊｯﾁﾝｸ
100
AcDbLine
 10
316.7575063393534
 20
226.9166516311037
 30
0.0
 11
319.2563006075531
 21
229.4154458993034
 31
0.0
  0
LINE
  5
17EF
330
18
100
AcDbEntity
  8
ﾊｯﾁﾝｸ
100
AcDbLine
 10
318.1045447575137
 20
226.9166516311037
 30
0.0
 11
319.256300607553
 21
228.068407481143
 31
0.0
  0
LINE
  5
17F0
330
18
100
AcDbEntity
  8
ﾊｯﾁﾝｸ
100
AcDbLine
 10
316.8503485317384
 20
226.9166516311037
 30
0.0
 11
316.7563006075529
 21
227.0106995552892
 31
0.0
  0
LINE
  5
17F1
330
18
100
AcDbEntity
  8
ﾊｯﾁﾝｸ
100
AcDbLine
 10
318.1973869498988
 20
226.9166516311037
 30
0.0
 11
316.7563006075529
 21
228.3577379734496
 31
0.0
  0
LINE
  5
17F2
330
18
100
AcDbEntity
  8
ﾊｯﾁﾝｸ
100
AcDbLine
 10
319.256300607553
 20
227.2047763916098
 30
0.0
 11
316.7563006075529
 21
229.7047763916099
 31
0.0
  0
LINE
  5
17F3
330
18
100
AcDbEntity
  8
ﾊｯﾁﾝｸ
100
AcDbLine
 10
319.256300607553
 20
228.5518148097702
 30
0.0
 11
317.7914637862195
 21
230.0166516311037
 31
0.0
  0
LINE
  5
17F4
330
18
100
AcDbEntity
  8
ﾊｯﾁﾝｸ
100
AcDbLine
 10
319.2563006075531
 20
229.8988532279306
 30
0.0
 11
319.1385022043799
 21
230.0166516311037
 31
0.0
  0
TEXT
  5
17F5
330
18
100
AcDbEntity
  8
文字
100
AcDbText
 10
425.2067877458926
 20
250.489077179254
 30
0.0
 40
1.5
  1
0
  7
STYLE3
100
AcDbText
  0
TEXT
  5
17F6
330
18
100
AcDbEntity
  8
文字
100
AcDbText
 10
423.3471696981863
 20
248.6760262317417
 30
0.0
 40
1.5
  1
-0.03
  7
STYLE3
100
AcDbText
  0
LINE
  5
17F7
330
18
100
AcDbEntity
  8
0
  6
ByBlock
 62
     2
100
AcDbLine
 10
411.1596938903093
 20
221.2166516311037
 30
0.0
 11
379.5149089674783
 21
221.2166516311037
 31
0.0
  0
LINE
  5
17F8
330
18
100
AcDbEntity
  8
0
  6
ByBlock
 62
     2
100
AcDbLine
 10
380.7649089674783
 20
257.3166516311037
 30
0.0
 11
380.7649089674783
 21
223.7166516311037
 31
0.0
  0
INSERT
  5
17F9
330
18
100
AcDbEntity
  8
0
  6
ByBlock
 62
     2
100
AcDbBlockReference
  2
_OPEN
 10
380.7649089674783
 20
259.8166516311037
 30
0.0
 41
2.5
 42
2.5
 43
2.5
 50
90.0
  0
INSERT
  5
17FA
330
18
100
AcDbEntity
  8
0
  6
ByBlock
 62
     2
100
AcDbBlockReference
  2
_OPEN
 10
380.7649089674783
 20
221.2166516311037
 30
0.0
 41
2.5
 42
2.5
 43
2.5
 50
270.0
  0
MTEXT
  5
17FB
330
18
100
AcDbEntity
  8
0
  6
ByBlock
 62
     6
100
AcDbMText
 10
378.8899089674783
 20
240.5166516311037
 30
0.0
 40
2.5
 41
0.0
 71
     5
 72
     1
  1
\A1;38.5
  7
STYLE3
 11
0.0000000000000001
 21
1.0
 31
0.0
 73
     1
 44
1.0
  0
POINT
  5
17FC
330
18
100
AcDbEntity
  8
DEFPOINTS
  6
ByBlock
 62
     0
100
AcDbPoint
 10
400.8596938903091
 20
259.8166516311037
 30
0.0
  0
POINT
  5
17FD
330
18
100
AcDbEntity
  8
DEFPOINTS
  6
ByBlock
 62
     0
100
AcDbPoint
 10
411.1596938903093
 20
221.2166516311037
 30
0.0
  0
POINT
  5
17FE
330
18
100
AcDbEntity
  8
DEFPOINTS
  6
ByBlock
 62
     0
100
AcDbPoint
 10
380.7649089674783
 20
221.2166516311037
 30
0.0
  0
LINE
  5
17FF
330
18
100
AcDbEntity
  8
ﾊｯﾁﾝｸ
100
AcDbLine
 10
408.6596938903092
 20
229.6095227356241
 30
0.0
 11
409.0668227857888
 21
230.0166516311038
 31
0.0
  0
LINE
  5
1800
330
18
100
AcDbEntity
  8
ﾊｯﾁﾝｸ
100
AcDbLine
 10
408.6596938903092
 20
228.2624843174637
 30
0.0
 11
410.4138612039492
 21
230.0166516311037
 31
0.0
  0
LINE
  5
1801
330
18
100
AcDbEntity
  8
ﾊｯﾁﾝｸ
100
AcDbLine
 10
408.6608996221095
 20
226.9166516311037
 30
0.0
 11
411.1596938903091
 21
229.4154458993034
 31
0.0
  0
LINE
  5
1802
330
18
100
AcDbEntity
  8
ﾊｯﾁﾝｸ
100
AcDbLine
 10
410.00793804027
 20
226.9166516311038
 30
0.0
 11
411.1596938903091
 21
228.068407481143
 31
0.0
  0
LINE
  5
1803
330
18
100
AcDbEntity
  8
ﾊｯﾁﾝｸ
100
AcDbLine
 10
408.7537418144946
 20
226.9166516311037
 30
0.0
 11
408.6596938903092
 21
227.0106995552892
 31
0.0
  0
LINE
  5
1804
330
18
100
AcDbEntity
  8
ﾊｯﾁﾝｸ
100
AcDbLine
 10
410.100780232655
 20
226.9166516311037
 30
0.0
 11
408.6596938903092
 21
228.3577379734495
 31
0.0
  0
LINE
  5
1805
330
18
100
AcDbEntity
  8
ﾊｯﾁﾝｸ
100
AcDbLine
 10
411.1596938903091
 20
227.2047763916098
 30
0.0
 11
408.6596938903092
 21
229.7047763916098
 31
0.0
  0
LINE
  5
1806
330
18
100
AcDbEntity
  8
ﾊｯﾁﾝｸ
100
AcDbLine
 10
411.1596938903091
 20
228.5518148097702
 30
0.0
 11
409.6948570689756
 21
230.0166516311038
 31
0.0
  0
LINE
  5
1807
330
18
100
AcDbEntity
  8
ﾊｯﾁﾝｸ
100
AcDbLine
 10
411.1596938903092
 20
229.8988532279306
 30
0.0
 11
411.041895487136
 21
230.0166516311038
 31
0.0
  0
LINE
  5
1810
330
18
100
AcDbEntity
  8
0
  6
ByBlock
 62
     2
100
AcDbLine
 10
296.256300607553
 20
286.2166516311037
 30
0.0
 11
296.256300607553
 21
336.8321794152989
 31
0.0
  0
LINE
  5
1811
330
18
100
AcDbEntity
  8
0
  6
ByBlock
 62
     2
100
AcDbLine
 10
342.256300607553
 20
286.2166516311037
 30
0.0
 11
342.256300607553
 21
336.8321794152989
 31
0.0
  0
LINE
  5
1812
330
18
100
AcDbEntity
  8
0
  6
ByBlock
 62
     2
100
AcDbLine
 10
298.756300607553
 20
335.5821794152989
 30
0.0
 11
339.756300607553
 21
335.5821794152989
 31
0.0
  0
INSERT
  5
1813
330
18
100
AcDbEntity
  8
0
  6
ByBlock
 62
     2
100
AcDbBlockReference
  2
_OPEN
 10
296.256300607553
 20
335.5821794152989
 30
0.0
 41
2.5
 42
2.5
 43
2.5
 50
180.0
  0
INSERT
  5
1814
330
18
100
AcDbEntity
  8
0
  6
ByBlock
 62
     2
100
AcDbBlockReference
  2
_OPEN
 10
342.256300607553
 20
335.5821794152989
 30
0.0
 41
2.5
 42
2.5
 43
2.5
  0
MTEXT
  5
1815
330
18
100
AcDbEntity
  8
0
  6
ByBlock
 62
     6
100
AcDbMText
 10
319.256300607553
 20
337.4571794152989
 30
0.0
 40
2.5
 41
0.0
 71
     5
 72
     1
  1
\A1;46
  7
STYLE3
 73
     1
 44
1.0
  0
POINT
  5
1816
330
18
100
AcDbEntity
  8
DEFPOINTS
  6
ByBlock
 62
     0
100
AcDbPoint
 10
296.256300607553
 20
286.2166516311037
 30
0.0
  0
POINT
  5
1817
330
18
100
AcDbEntity
  8
DEFPOINTS
  6
ByBlock
 62
     0
100
AcDbPoint
 10
342.256300607553
 20
286.2166516311037
 30
0.0
  0
POINT
  5
1818
330
18
100
AcDbEntity
  8
DEFPOINTS
  6
ByBlock
 62
     0
100
AcDbPoint
 10
342.256300607553
 20
335.5821794152989
 30
0.0
  0
LINE
  5
1819
330
18
100
AcDbEntity
  8
0
  6
ByBlock
 62
     2
100
AcDbLine
 10
400.8596938903091
 20
312.6166516311037
 30
0.0
 11
379.5149089674783
 21
312.6166516311037
 31
0.0
  0
LINE
  5
181A
330
18
100
AcDbEntity
  8
0
  6
ByBlock
 62
     2
100
AcDbLine
 10
400.8596938903091
 20
259.8166516311037
 30
0.0
 11
379.5149089674783
 21
259.8166516311037
 31
0.0
  0
LINE
  5
181B
330
18
100
AcDbEntity
  8
0
  6
ByBlock
 62
     2
100
AcDbLine
 10
380.7649089674783
 20
310.1166516311037
 30
0.0
 11
380.7649089674783
 21
262.3166516311037
 31
0.0
  0
INSERT
  5
181C
330
18
100
AcDbEntity
  8
0
  6
ByBlock
 62
     2
100
AcDbBlockReference
  2
_OPEN
 10
380.7649089674783
 20
312.6166516311037
 30
0.0
 41
2.5
 42
2.5
 43
2.5
 50
90.0
  0
INSERT
  5
181D
330
18
100
AcDbEntity
  8
0
  6
ByBlock
 62
     2
100
AcDbBlockReference
  2
_OPEN
 10
380.7649089674783
 20
259.8166516311037
 30
0.0
 41
2.5
 42
2.5
 43
2.5
 50
270.0
  0
MTEXT
  5
181E
330
18
100
AcDbEntity
  8
0
  6
ByBlock
 62
     6
100
AcDbMText
 10
378.8899089674783
 20
286.2166516311037
 30
0.0
 40
2.5
 41
0.0
 71
     5
 72
     1
  1
\A1;φ53
  7
STYLE3
 11
0.0000000000000001
 21
1.0
 31
0.0
 73
     1
 44
1.0
  0
POINT
  5
181F
330
18
100
AcDbEntity
  8
DEFPOINTS
  6
ByBlock
 62
     0
100
AcDbPoint
 10
400.8596938903091
 20
312.6166516311037
 30
0.0
  0
POINT
  5
1820
330
18
100
AcDbEntity
  8
DEFPOINTS
  6
ByBlock
 62
     0
100
AcDbPoint
 10
400.8596938903091
 20
259.8166516311037
 30
0.0
  0
POINT
  5
1821
330
18
100
AcDbEntity
  8
DEFPOINTS
  6
ByBlock
 62
     0
100
AcDbPoint
 10
380.7649089674783
 20
259.8166516311037
 30
0.0
  0
LINE
  5
1822
330
18
100
AcDbEntity
  8
ﾊｯﾁﾝｸ
  6
Continuous
100
AcDbLine
 10
315.256300607553
 20
319.9831454274014
 30
0.0
 11
315.4898068112552
 21
320.2166516311036
 31
0.0
  0
LINE
  5
1823
330
18
100
AcDbEntity
  8
ﾊｯﾁﾝｸ
  6
Continuous
100
AcDbLine
 10
315.256300607553
 20
318.2153784744351
 30
0.0
 11
317.2575737642215
 21
320.2166516311036
 31
0.0
  0
LINE
  5
1824
330
18
100
AcDbEntity
  8
ﾊｯﾁﾝｸ
  6
Continuous
100
AcDbLine
 10
315.256300607553
 20
316.4476115214687
 30
0.0
 11
319.0253407171879
 21
320.2166516311036
 31
0.0
  0
LINE
  5
1825
330
18
100
AcDbEntity
  8
ﾊｯﾁﾝｸ
  6
Continuous
100
AcDbLine
 10
315.256300607553
 20
314.6798445685023
 30
0.0
 11
319.2563006075531
 21
318.6798445685024
 31
0.0
  0
LINE
  5
1826
330
18
100
AcDbEntity
  8
ﾊｯﾁﾝｸ
  6
Continuous
100
AcDbLine
 10
316.5608746231206
 20
314.2166516311036
 30
0.0
 11
319.2563006075531
 21
316.912077615536
 31
0.0
  0
LINE
  5
1827
330
18
100
AcDbEntity
  8
ﾊｯﾁﾝｸ
  6
Continuous
100
AcDbLine
 10
318.3286415760871
 20
314.2166516311036
 30
0.0
 11
319.2563006075531
 21
315.1443106625696
 31
0.0
  0
LINE
  5
1828
330
18
100
AcDbEntity
  8
ﾊｯﾁﾝｸ
  6
Continuous
100
AcDbLine
 10
315.307846253872
 20
314.2166516311036
 30
0.0
 11
315.256300607553
 21
314.2681972774225
 31
0.0
  0
LINE
  5
1829
330
18
100
AcDbEntity
  8
ﾊｯﾁﾝｸ
  6
Continuous
100
AcDbLine
 10
317.0756132068384
 20
314.2166516311036
 30
0.0
 11
315.256300607553
 21
316.035964230389
 31
0.0
  0
LINE
  5
182A
330
18
100
AcDbEntity
  8
ﾊｯﾁﾝｸ
  6
Continuous
100
AcDbLine
 10
318.8433801598047
 20
314.2166516311036
 30
0.0
 11
315.256300607553
 21
317.8037311833553
 31
0.0
  0
LINE
  5
182B
330
18
100
AcDbEntity
  8
ﾊｯﾁﾝｸ
  6
Continuous
100
AcDbLine
 10
319.2563006075531
 20
315.5714981363216
 30
0.0
 11
315.256300607553
 21
319.5714981363216
 31
0.0
  0
LINE
  5
182C
330
18
100
AcDbEntity
  8
ﾊｯﾁﾝｸ
  6
Continuous
100
AcDbLine
 10
319.256300607553
 20
317.3392650892881
 30
0.0
 11
316.3789140657375
 21
320.2166516311036
 31
0.0
  0
LINE
  5
182D
330
18
100
AcDbEntity
  8
ﾊｯﾁﾝｸ
  6
Continuous
100
AcDbLine
 10
319.256300607553
 20
319.1070320422544
 30
0.0
 11
318.1466810187038
 21
320.2166516311036
 31
0.0
  0
LINE
  5
182E
330
18
100
AcDbEntity
  8
ﾊｯﾁﾝｸ
  6
Continuous
100
AcDbLine
 10
407.159693890309
 20
319.9831454274015
 30
0.0
 11
407.3932000940112
 21
320.2166516311037
 31
0.0
  0
LINE
  5
182F
330
18
100
AcDbEntity
  8
ﾊｯﾁﾝｸ
  6
Continuous
100
AcDbLine
 10
407.159693890309
 20
318.2153784744351
 30
0.0
 11
409.1609670469775
 21
320.2166516311037
 31
0.0
  0
LINE
  5
1830
330
18
100
AcDbEntity
  8
ﾊｯﾁﾝｸ
  6
Continuous
100
AcDbLine
 10
407.159693890309
 20
316.4476115214687
 30
0.0
 11
410.928733999944
 21
320.2166516311037
 31
0.0
  0
LINE
  5
1831
330
18
100
AcDbEntity
  8
ﾊｯﾁﾝｸ
  6
Continuous
100
AcDbLine
 10
407.1596938903089
 20
314.6798445685023
 30
0.0
 11
411.1596938903089
 21
318.6798445685024
 31
0.0
  0
LINE
  5
1832
330
18
100
AcDbEntity
  8
ﾊｯﾁﾝｸ
  6
Continuous
100
AcDbLine
 10
408.4642679058767
 20
314.2166516311037
 30
0.0
 11
411.159693890309
 21
316.912077615536
 31
0.0
  0
LINE
  5
1833
330
18
100
AcDbEntity
  8
ﾊｯﾁﾝｸ
  6
Continuous
100
AcDbLine
 10
410.2320348588431
 20
314.2166516311037
 30
0.0
 11
411.159693890309
 21
315.1443106625696
 31
0.0
  0
LINE
  5
1834
330
18
100
AcDbEntity
  8
ﾊｯﾁﾝｸ
  6
Continuous
100
AcDbLine
 10
407.2112395366279
 20
314.2166516311037
 30
0.0
 11
407.159693890309
 21
314.2681972774227
 31
0.0
  0
LINE
  5
1835
330
18
100
AcDbEntity
  8
ﾊｯﾁﾝｸ
  6
Continuous
100
AcDbLine
 10
408.9790064895943
 20
314.2166516311037
 30
0.0
 11
407.159693890309
 21
316.035964230389
 31
0.0
  0
LINE
  5
1836
330
18
100
AcDbEntity
  8
ﾊｯﾁﾝｸ
  6
Continuous
100
AcDbLine
 10
410.7467734425608
 20
314.2166516311037
 30
0.0
 11
407.159693890309
 21
317.8037311833554
 31
0.0
  0
LINE
  5
1837
330
18
100
AcDbEntity
  8
ﾊｯﾁﾝｸ
  6
Continuous
100
AcDbLine
 10
411.159693890309
 20
315.5714981363218
 30
0.0
 11
407.159693890309
 21
319.5714981363218
 31
0.0
  0
LINE
  5
1838
330
18
100
AcDbEntity
  8
ﾊｯﾁﾝｸ
  6
Continuous
100
AcDbLine
 10
411.159693890309
 20
317.3392650892881
 30
0.0
 11
408.2823073484935
 21
320.2166516311036
 31
0.0
  0
LINE
  5
1839
330
18
100
AcDbEntity
  8
ﾊｯﾁﾝｸ
  6
Continuous
100
AcDbLine
 10
411.159693890309
 20
319.1070320422545
 30
0.0
 11
410.0500743014599
 21
320.2166516311036
 31
0.0
  0
LINE
  5
183A
330
18
100
AcDbEntity
  8
0
  6
ByBlock
 62
     2
100
AcDbLine
 10
421.6596938903091
 20
294.2182373745566
 30
0.0
 11
421.6596938903091
 21
302.4819418182795
 31
0.0
  0
LINE
  5
183B
330
18
100
AcDbEntity
  8
0
  6
ByBlock
 62
     2
100
AcDbLine
 10
426.6596938903091
 20
294.2166516311037
 30
0.0
 11
426.6596938903091
 21
302.4819418182795
 31
0.0
  0
LINE
  5
183C
330
18
100
AcDbEntity
  8
0
  6
ByBlock
 62
     2
100
AcDbLine
 10
419.159693890309
 20
301.2319418182796
 30
0.0
 11
416.659693890309
 21
301.2319418182796
 31
0.0
  0
LINE
  5
183D
330
18
100
AcDbEntity
  8
0
  6
ByBlock
 62
     2
100
AcDbLine
 10
429.1596938903091
 20
301.2319418182796
 30
0.0
 11
431.6596938903091
 21
301.2319418182796
 31
0.0
  0
LINE
  5
183E
330
18
100
AcDbEntity
  8
0
  6
ByBlock
 62
     2
100
AcDbLine
 10
421.6596938903091
 20
301.2319418182796
 30
0.0
 11
426.6596938903091
 21
301.2319418182796
 31
0.0
  0
INSERT
  5
183F
330
18
100
AcDbEntity
  8
0
  6
ByBlock
 62
     2
100
AcDbBlockReference
  2
_OPEN
 10
421.6596938903091
 20
301.2319418182796
 30
0.0
 41
2.5
 42
2.5
 43
2.5
  0
INSERT
  5
1840
330
18
100
AcDbEntity
  8
0
  6
ByBlock
 62
     2
100
AcDbBlockReference
  2
_OPEN
 10
426.6596938903091
 20
301.2319418182796
 30
0.0
 41
2.5
 42
2.5
 43
2.5
 50
180.0
  0
MTEXT
  5
1841
330
18
100
AcDbEntity
  8
0
  6
ByBlock
 62
     6
100
AcDbMText
 10
424.159693890309
 20
303.1069418182795
 30
0.0
 40
2.5
 41
0.0
 71
     5
 72
     1
  1
\A1;5
  7
STYLE3
 73
     1
 44
1.0
  0
POINT
  5
1842
330
18
100
AcDbEntity
  8
DEFPOINTS
  6
ByBlock
 62
     0
100
AcDbPoint
 10
421.6596938903091
 20
294.2182373745566
 30
0.0
  0
POINT
  5
1843
330
18
100
AcDbEntity
  8
DEFPOINTS
  6
ByBlock
 62
     0
100
AcDbPoint
 10
426.6596938903091
 20
294.2166516311037
 30
0.0
  0
POINT
  5
1844
330
18
100
AcDbEntity
  8
DEFPOINTS
  6
ByBlock
 62
     0
100
AcDbPoint
 10
426.6596938903091
 20
301.2319418182796
 30
0.0
  0
LINE
  5
1A52
330
18
100
AcDbEntity
  8
目盛
100
AcDbLine
 10
308.9949473491864
 20
267.5513193461695
 30
0.0
 11
308.1759661032134
 21
266.0615979900949
 31
0.0
  0
LINE
  5
1A53
330
18
100
AcDbEntity
  8
目盛
100
AcDbLine
 10
310.1872016972168
 20
266.9438354135776
 30
0.0
 11
309.4633769015562
 21
265.4056294243853
 31
0.0
  0
LINE
  5
1A54
330
18
100
AcDbEntity
  8
目盛
100
AcDbLine
 10
307.8431898745003
 20
268.2324668179108
 30
0.0
 11
306.932284323036
 21
266.7971093445574
 31
0.0
  0
LINE
  5
1A66
330
18
100
AcDbEntity
  8
目盛
100
AcDbLine
 10
329.5176538659196
 20
267.5513193461695
 30
0.0
 11
330.3366351118926
 21
266.0615979900949
 31
0.0
  0
LINE
  5
1A67
330
18
100
AcDbEntity
  8
目盛
100
AcDbLine
 10
330.6694113406057
 20
268.2324668179108
 30
0.0
 11
331.58031689207
 21
266.7971093445574
 31
0.0
  0
LINE
  5
1A6A
330
18
100
AcDbEntity
  8
目盛
100
AcDbLine
 10
328.3253995178891
 20
266.9438354135776
 30
0.0
 11
329.0492243135498
 21
265.4056294243853
 31
0.0
  0
TEXT
  5
1A6B
330
18
100
AcDbEntity
  8
文字
100
AcDbText
 10
306.0871932623709
 20
270.4214399153756
 30
0.0
 40
2.5
  1
40
  7
STYLE3
100
AcDbText
  0
TEXT
  5
1A6C
330
18
100
AcDbEntity
  8
文字
100
AcDbText
 10
326.9991116087456
 20
270.4867574139123
 30
0.0
 40
2.5
  1
40
  7
STYLE3
100
AcDbText
  0
LINE
  5
1A7D
330
18
100
AcDbEntity
  8
寸法線
 62
     2
100
AcDbLine
 10
309.4633769015565
 20
265.4056294243853
 30
0.0
 11
303.6016840197641
 21
252.9488979727507
 31
0.0
  0
LINE
  5
1A7E
330
18
100
AcDbEntity
  8
寸法線
 62
     2
100
AcDbLine
 10
329.0492243135495
 20
265.4056294243854
 30
0.0
 11
334.9109171953419
 21
252.9488979727507
 31
0.0
  0
ARC
  5
1A7F
330
18
100
AcDbEntity
  8
寸法線
 62
     2
100
AcDbCircle
 10
319.256300607553
 20
286.2166516311036
 30
0.0
 40
35.51697504532476
100
AcDbArc
 50
248.8338186360024
 51
291.1661813639976
  0
INSERT
  5
1A80
330
18
100
AcDbEntity
  8
寸法線
 62
     2
100
AcDbBlockReference
  2
_OPEN
 10
304.1339081342204
 20
254.0799317883332
 30
0.0
 41
2.499999999999998
 42
2.5
 43
2.5
 50
156.8169093180022
  0
INSERT
  5
1A81
330
18
100
AcDbEntity
  8
寸法線
 62
     2
100
AcDbBlockReference
  2
_OPEN
 10
334.3786930808856
 20
254.0799317883332
 30
0.0
 41
2.499999999999998
 42
2.5
 43
2.5
 50
23.18309068199776
  0
MTEXT
  5
1A82
330
18
100
AcDbEntity
  8
寸法線
 62
     6
100
AcDbMText
 10
321.7768948072255
 20
252.6692360848826
 30
0.0
 40
2.499999999999999
 41
0.0
 71
     5
 72
     1
  1
\A1;50.4°
  7
STYLE3
 11
0.9971892405550995
 21
0.0749240850537643
 31
0.0
 73
     1
 44
1.0
  0
POINT
  5
1AE3
330
18
100
AcDbEntity
  8
DEFPOINTS
  6
ByBlock
 62
     0
100
AcDbPoint
 10
319.256300607553
 20
286.2166516311037
 30
0.0
  0
POINT
  5
1AE4
330
18
100
AcDbEntity
  8
DEFPOINTS
  6
ByBlock
 62
     0
100
AcDbPoint
 10
319.256300607553
 20
286.2166516311037
 30
0.0
  0
CIRCLE
  5
1AEE
330
18
100
AcDbEntity
  8
針
100
AcDbCircle
 10
319.2563006075531
 20
286.2166516311038
 30
0.0
 40
1.9
  0
LINE
  5
1AEF
330
18
100
AcDbEntity
  8
針
100
AcDbLine
 10
313.2782403941121
 20
265.0442427911896
 30
0.0
 11
317.8483935965989
 21
283.3917095346166
 31
0.0
  0
ARC
  5
1AF0
330
18
100
AcDbEntity
  8
針
100
AcDbCircle
 10
314.9579604412612
 20
284.1950750644503
 30
0.0
 40
3.0
100
AcDbArc
 50
344.4672874119729
 51
13.93956658901172
  0
LINE
  5
1AF1
330
18
100
AcDbEntity
  8
針
100
AcDbLine
 10
313.3649533887721
 20
265.0201418252945
 30
0.0
 11
313.2782403941121
 21
265.0442427911896
 31
0.0
  0
ARC
  5
1AF2
330
18
100
AcDbEntity
  8
針
100
AcDbCircle
 10
321.8950000140716
 20
282.2669977928494
 30
0.0
 40
3.0
100
AcDbArc
 50
134.995008234934
 51
164.4672874119729
  0
LINE
  5
1AF3
330
18
100
AcDbEntity
  8
針
100
AcDbLine
 10
313.4516663834322
 20
264.9960408593996
 30
0.0
 11
319.004566858734
 21
283.070363322683
 31
0.0
  0
LINE
  5
1AF4
330
18
100
AcDbEntity
  8
針
100
AcDbLine
 10
313.3649533887722
 20
265.0201418252945
 30
0.0
 11
313.4516663834322
 21
264.9960408593996
 31
0.0
  0
CIRCLE
  5
1AF5
330
18
100
AcDbEntity
  8
針
100
AcDbCircle
 10
319.2563006075531
 20
286.2166516311038
 30
0.0
 40
0.475
  0
CIRCLE
  5
1AF6
330
18
100
AcDbEntity
  8
針
100
AcDbCircle
 10
319.2563006075531
 20
286.2166516311038
 30
0.0
 40
1.5
  0
HATCH
  5
1AF7
330
18
100
AcDbEntity
  8
針
100
AcDbHatch
 10
0.0
 20
0.0
 30
0.0
210
0.0
220
0.0
230
1.0
  2
SOLID
 70
     1
 71
     0
 91
        2
 92
        7
 72
     1
 73
     1
 93
        5
 10
313.2782403941121
 20
265.0442427911896
 42
0.0
 10
313.3649533887721
 20
265.0201418252945
 42
0.0
 10
313.4516663834322
 20
264.9960408593996
 42
0.0
 10
315.36193962822
 20
271.2138534733384
 42
-0.0085634322047721
 10
314.8504352184426
 20
271.3560207503827
 42
0.0
 97
        0
 92
        7
 72
     1
 73
     1
 93
        6
 10
314.8504352184426
 20
271.3560207503827
 42
0.0085634322047721
 10
315.36193962822
 20
271.2138534733384
 42
0.0
 10
319.0045668587341
 20
283.0703633226835
 42
-0.1293106770632391
 10
319.7738644937946
 20
284.3885029435899
 42
-0.2805221108582334
 10
317.8696115108003
 20
284.9177700549208
 42
-0.1293106770632486
 10
317.8483935965989
 20
283.391709534617
 42
0.0
 97
        0
 75
     0
 76
     1
 47
0.0423559757596284
 98
        2
 10
314.9770295353814
 20
270.6687661279012
 10
316.034121959424
 20
274.9469598208701
450
        0
451
        0
460
0.0
461
0.0
452
        0
462
0.0
453
        0
470

  0
CIRCLE
  5
1AF8
330
18
100
AcDbEntity
  8
針
100
AcDbCircle
 10
319.256300607553
 20
286.2166516311038
 30
0.0
 40
0.0000000000000568
  0
TEXT
  5
1AF9
330
18
100
AcDbEntity
  8
文字
100
AcDbText
 10
316.1085627280934
 20
277.0009616809369
 30
0.0
 40
1.0
  1
0.01mm
  7
STYLE3
100
AcDbText
  0
HATCH
  5
1AFA
330
18
100
AcDbEntity
  8
外形線
100
AcDbHatch
 10
0.0
 20
0.0
 30
0.0
210
0.0
220
0.0
230
1.0
  2
SOLID
 70
     1
 71
     1
 91
        2
 92
        1
 93
        7
 72
     1
 10
318.6828032024321
 20
279.4666516311038
 11
317.5161365357654
 21
279.0420196911265
 72
     1
 10
317.5161365357654
 20
279.0420196911266
 11
317.5161365357654
 21
279.3770682977704
 72
     1
 10
317.5161365357654
 20
279.3770682977704
 11
316.5161365357654
 21
279.3770682977704
 72
     1
 10
316.5161365357654
 20
279.3770682977704
 11
316.5161365357654
 21
279.5562349644371
 72
     1
 10
316.5161365357654
 20
279.5562349644371
 11
317.5161365357654
 21
279.5562349644371
 72
     1
 10
317.5161365357654
 20
279.5562349644371
 11
317.5161365357654
 21
279.891283571081
 72
     1
 10
317.5161365357654
 20
279.891283571081
 11
318.6828032024321
 21
279.4666516311038
 97
        7
330
1AFF
330
1B02
330
1B03
330
1AFE
330
1B0C
330
1B0B
330
1AFD
 92
        1
 93
        4
 72
     1
 10
318.6828032024321
 20
280.2166516311037
 11
318.6828032024321
 21
278.7166516311038
 72
     1
 10
318.6828032024321
 20
278.7166516311038
 11
318.8494698690986
 21
278.7166516311038
 72
     1
 10
318.8494698690986
 20
278.7166516311038
 11
318.8494698690986
 21
280.2166516311037
 72
     1
 10
318.8494698690986
 20
280.2166516311037
 11
318.6828032024321
 21
280.2166516311037
 97
        4
330
1AFC
330
1B04
330
1AFB
330
1B0D
 75
     0
 76
     1
 98
        1
 10
411.0123599089123
 20
210.8045008239227
450
        0
451
        0
460
0.0
461
0.0
452
        0
462
0.0
453
        0
470

  0
LINE
  5
1AFB
102
{ACAD_REACTORS
330
1AFA
102
}
330
18
100
AcDbEntity
  8
外形線
100
AcDbLine
 10
318.8494698690986
 20
280.2166516311037
 30
0.0
 11
318.8494698690986
 21
278.7166516311038
 31
0.0
  0
LINE
  5
1AFC
102
{ACAD_REACTORS
330
1AFA
102
}
330
18
100
AcDbEntity
  8
外形線
100
AcDbLine
 10
318.6828032024321
 20
280.2166516311037
 30
0.0
 11
318.6828032024321
 21
278.7166516311038
 31
0.0
  0
LINE
  5
1AFD
102
{ACAD_REACTORS
330
1AFA
102
}
330
18
100
AcDbEntity
  8
外形線
100
AcDbLine
 10
318.6828032024321
 20
279.4666516311038
 30
0.0
 11
317.5161365357654
 21
279.891283571081
 31
0.0
  0
LINE
  5
1AFE
102
{ACAD_REACTORS
330
1AFA
102
}
330
18
100
AcDbEntity
  8
外形線
100
AcDbLine
 10
316.5161365357654
 20
279.5562349644371
 30
0.0
 11
316.5161365357654
 21
279.3770682977704
 31
0.0
  0
LINE
  5
1AFF
102
{ACAD_REACTORS
330
1AFA
102
}
330
18
100
AcDbEntity
  8
外形線
100
AcDbLine
 10
318.6828032024321
 20
279.4666516311038
 30
0.0
 11
317.5161365357654
 21
279.0420196911265
 31
0.0
  0
POINT
  5
1B00
330
18
100
AcDbEntity
  8
DEFPOINTS
  6
ByBlock
 62
     0
100
AcDbPoint
 10
317.5161365357654
 20
279.0420196911265
 30
0.0
  0
POINT
  5
1B01
330
18
100
AcDbEntity
  8
DEFPOINTS
  6
ByBlock
 62
     0
100
AcDbPoint
 10
317.5161365357654
 20
279.0420196911265
 30
0.0
  0
LINE
  5
1B02
102
{ACAD_REACTORS
330
1AFA
102
}
330
18
100
AcDbEntity
  8
外形線
100
AcDbLine
 10
317.5161365357654
 20
279.3770682977704
 30
0.0
 11
317.5161365357654
 21
279.0420196911266
 31
0.0
  0
LINE
  5
1B03
102
{ACAD_REACTORS
330
1AFA
102
}
330
18
100
AcDbEntity
  8
外形線
100
AcDbLine
 10
316.5161365357654
 20
279.3770682977704
 30
0.0
 11
317.5161365357654
 21
279.3770682977704
 31
0.0
  0
LINE
  5
1B04
102
{ACAD_REACTORS
330
1AFA
102
}
330
18
100
AcDbEntity
  8
外形線
100
AcDbLine
 10
318.8494698690986
 20
278.7166516311038
 30
0.0
 11
318.6828032024321
 21
278.7166516311038
 31
0.0
  0
POINT
  5
1B05
330
18
100
AcDbEntity
  8
DEFPOINTS
  6
ByBlock
 62
     0
100
AcDbPoint
 10
318.6828032024321
 20
278.7166516311038
 30
0.0
  0
POINT
  5
1B06
330
18
100
AcDbEntity
  8
DEFPOINTS
  6
ByBlock
 62
     0
100
AcDbPoint
 10
318.8494698690986
 20
278.7166516311038
 30
0.0
  0
POINT
  5
1B07
330
18
100
AcDbEntity
  8
DEFPOINTS
  6
ByBlock
 62
     0
100
AcDbPoint
 10
318.6828032024321
 20
278.7166516311038
 30
0.0
  0
POINT
  5
1B08
330
18
100
AcDbEntity
  8
DEFPOINTS
  6
ByBlock
 62
     0
100
AcDbPoint
 10
318.8494698690986
 20
278.7166516311038
 30
0.0
  0
POINT
  5
1B09
330
18
100
AcDbEntity
  8
DEFPOINTS
  6
ByBlock
 62
     0
100
AcDbPoint
 10
317.5161365357654
 20
279.891283571081
 30
0.0
  0
POINT
  5
1B0A
330
18
100
AcDbEntity
  8
DEFPOINTS
  6
ByBlock
 62
     0
100
AcDbPoint
 10
317.5161365357654
 20
279.891283571081
 30
0.0
  0
LINE
  5
1B0B
102
{ACAD_REACTORS
330
1AFA
102
}
330
18
100
AcDbEntity
  8
外形線
100
AcDbLine
 10
317.5161365357654
 20
279.891283571081
 30
0.0
 11
317.5161365357654
 21
279.5562349644371
 31
0.0
  0
LINE
  5
1B0C
102
{ACAD_REACTORS
330
1AFA
102
}
330
18
100
AcDbEntity
  8
外形線
100
AcDbLine
 10
316.5161365357654
 20
279.5562349644371
 30
0.0
 11
317.5161365357654
 21
279.5562349644371
 31
0.0
  0
LINE
  5
1B0D
102
{ACAD_REACTORS
330
1AFA
102
}
330
18
100
AcDbEntity
  8
外形線
100
AcDbLine
 10
318.8494698690986
 20
280.2166516311037
 30
0.0
 11
318.6828032024321
 21
280.2166516311037
 31
0.0
  0
HATCH
  5
1B0E
330
18
100
AcDbEntity
  8
外形線
100
AcDbHatch
 10
0.0
 20
0.0
 30
0.0
210
0.0
220
0.0
230
1.0
  2
SOLID
 70
     1
 71
     1
 91
        2
 92
        1
 93
        7
 72
     1
 10
319.8494698690987
 20
279.4666516311038
 11
321.0161365357654
 21
279.0420196911265
 72
     1
 10
321.0161365357654
 20
279.0420196911266
 11
321.0161365357654
 21
279.3770682977704
 72
     1
 10
321.0161365357654
 20
279.3770682977704
 11
322.0161365357654
 21
279.3770682977704
 72
     1
 10
322.0161365357654
 20
279.3770682977704
 11
322.0161365357654
 21
279.5562349644371
 72
     1
 10
322.0161365357654
 20
279.5562349644371
 11
321.0161365357654
 21
279.5562349644371
 72
     1
 10
321.0161365357654
 20
279.5562349644371
 11
321.0161365357654
 21
279.891283571081
 72
     1
 10
321.0161365357654
 20
279.891283571081
 11
319.8494698690987
 21
279.4666516311038
 97
        7
330
1B1B
330
1B14
330
1B13
330
1B0F
330
1B1D
330
1B1E
330
1B10
 92
        1
 93
        4
 72
     1
 10
319.8494698690987
 20
280.2166516311037
 11
319.8494698690987
 21
278.7166516311038
 72
     1
 10
319.8494698690987
 20
278.7166516311038
 11
319.6828032024321
 21
278.7166516311038
 72
     1
 10
319.6828032024321
 20
278.7166516311038
 11
319.6828032024321
 21
280.2166516311037
 72
     1
 10
319.6828032024321
 20
280.2166516311037
 11
319.8494698690987
 21
280.2166516311037
 97
        4
330
1B11
330
1B1C
330
1B12
330
1B21
 75
     0
 76
     1
 98
        1
 10
227.5199131626184
 20
210.8045008239227
450
        0
451
        0
460
0.0
461
0.0
452
        0
462
0.0
453
        0
470

  0
LINE
  5
1B0F
102
{ACAD_REACTORS
330
1B0E
102
}
330
18
100
AcDbEntity
  8
外形線
100
AcDbLine
 10
322.0161365357654
 20
279.5562349644371
 30
0.0
 11
322.0161365357654
 21
279.3770682977704
 31
0.0
  0
LINE
  5
1B10
102
{ACAD_REACTORS
330
1B0E
102
}
330
18
100
AcDbEntity
  8
外形線
100
AcDbLine
 10
319.8494698690987
 20
279.4666516311038
 30
0.0
 11
321.0161365357654
 21
279.891283571081
 31
0.0
  0
LINE
  5
1B11
102
{ACAD_REACTORS
330
1B0E
102
}
330
18
100
AcDbEntity
  8
外形線
100
AcDbLine
 10
319.8494698690987
 20
280.2166516311037
 30
0.0
 11
319.8494698690987
 21
278.7166516311038
 31
0.0
  0
LINE
  5
1B12
102
{ACAD_REACTORS
330
1B0E
102
}
330
18
100
AcDbEntity
  8
外形線
100
AcDbLine
 10
319.6828032024321
 20
280.2166516311037
 30
0.0
 11
319.6828032024321
 21
278.7166516311038
 31
0.0
  0
LINE
  5
1B13
102
{ACAD_REACTORS
330
1B0E
102
}
330
18
100
AcDbEntity
  8
外形線
100
AcDbLine
 10
322.0161365357654
 20
279.3770682977704
 30
0.0
 11
321.0161365357654
 21
279.3770682977704
 31
0.0
  0
LINE
  5
1B14
102
{ACAD_REACTORS
330
1B0E
102
}
330
18
100
AcDbEntity
  8
外形線
100
AcDbLine
 10
321.0161365357654
 20
279.3770682977704
 30
0.0
 11
321.0161365357654
 21
279.0420196911266
 31
0.0
  0
POINT
  5
1B15
330
18
100
AcDbEntity
  8
DEFPOINTS
  6
ByBlock
 62
     0
100
AcDbPoint
 10
319.6828032024321
 20
278.7166516311038
 30
0.0
  0
POINT
  5
1B16
330
18
100
AcDbEntity
  8
DEFPOINTS
  6
ByBlock
 62
     0
100
AcDbPoint
 10
319.8494698690987
 20
278.7166516311038
 30
0.0
  0
POINT
  5
1B17
330
18
100
AcDbEntity
  8
DEFPOINTS
  6
ByBlock
 62
     0
100
AcDbPoint
 10
319.6828032024321
 20
278.7166516311038
 30
0.0
  0
POINT
  5
1B18
330
18
100
AcDbEntity
  8
DEFPOINTS
  6
ByBlock
 62
     0
100
AcDbPoint
 10
321.0161365357654
 20
279.0420196911265
 30
0.0
  0
POINT
  5
1B19
330
18
100
AcDbEntity
  8
DEFPOINTS
  6
ByBlock
 62
     0
100
AcDbPoint
 10
319.8494698690987
 20
278.7166516311038
 30
0.0
  0
POINT
  5
1B1A
330
18
100
AcDbEntity
  8
DEFPOINTS
  6
ByBlock
 62
     0
100
AcDbPoint
 10
321.0161365357654
 20
279.0420196911265
 30
0.0
  0
LINE
  5
1B1B
102
{ACAD_REACTORS
330
1B0E
102
}
330
18
100
AcDbEntity
  8
外形線
100
AcDbLine
 10
319.8494698690987
 20
279.4666516311038
 30
0.0
 11
321.0161365357654
 21
279.0420196911265
 31
0.0
  0
LINE
  5
1B1C
102
{ACAD_REACTORS
330
1B0E
102
}
330
18
100
AcDbEntity
  8
外形線
100
AcDbLine
 10
319.6828032024321
 20
278.7166516311038
 30
0.0
 11
319.8494698690987
 21
278.7166516311038
 31
0.0
  0
LINE
  5
1B1D
102
{ACAD_REACTORS
330
1B0E
102
}
330
18
100
AcDbEntity
  8
外形線
100
AcDbLine
 10
322.0161365357654
 20
279.5562349644371
 30
0.0
 11
321.0161365357654
 21
279.5562349644371
 31
0.0
  0
LINE
  5
1B1E
102
{ACAD_REACTORS
330
1B0E
102
}
330
18
100
AcDbEntity
  8
外形線
100
AcDbLine
 10
321.0161365357654
 20
279.891283571081
 30
0.0
 11
321.0161365357654
 21
279.5562349644371
 31
0.0
  0
POINT
  5
1B1F
330
18
100
AcDbEntity
  8
DEFPOINTS
  6
ByBlock
 62
     0
100
AcDbPoint
 10
321.0161365357654
 20
279.891283571081
 30
0.0
  0
POINT
  5
1B20
330
18
100
AcDbEntity
  8
DEFPOINTS
  6
ByBlock
 62
     0
100
AcDbPoint
 10
321.0161365357654
 20
279.891283571081
 30
0.0
  0
LINE
  5
1B21
102
{ACAD_REACTORS
330
1B0E
102
}
330
18
100
AcDbEntity
  8
外形線
100
AcDbLine
 10
319.6828032024321
 20
280.2166516311037
 30
0.0
 11
319.8494698690987
 21
280.2166516311037
 31
0.0
  0
LINE
  5
1B8F
330
18
100
AcDbEntity
  8
寸法線
100
AcDbLine
 10
415.1596938903091
 20
247.5891750534095
 30
0.0
 11
426.0219655824293
 21
247.5891750534095
 31
0.0
  0
ARC
  5
1B9D
330
18
100
AcDbEntity
  8
外形線
100
AcDbCircle
 10
319.256300607553
 20
222.4166516311037
 30
0.0
 40
1.199999999999999
100
AcDbArc
 50
189.59406822686
 51
350.40593177314
  0
ARC
  5
1B9E
330
18
100
AcDbEntity
  8
外形線
100
AcDbCircle
 10
411.1596938903093
 20
222.4166516311037
 30
0.0
 40
1.199999999999999
100
AcDbArc
 50
189.59406822686
 51
350.40593177314
  0
TEXT
  5
1BC4
330
18
100
AcDbEntity
  8
文字
100
AcDbText
 10
308.1075596204291
 20
357.3570752423768
 30
0.0
 40
3.5
  1
Model No.17B One Revolution Dial Gauge
  7
STYLE3
100
AcDbText
  0
LINE
  5
1BC5
330
18
100
AcDbEntity
  8
外形線
100
AcDbLine
 10
307.5074806204291
 20
354.2629242423768
 30
0.0
 11
414.5074806204291
 21
354.2629242423768
 31
0.0
  0
LINE
  5
1BC6
330
18
100
AcDbEntity
  8
外形線
100
AcDbLine
 10
307.5074806204291
 20
355.2629242423768
 30
0.0
 11
414.5074806204291
 21
355.2629242423768
 31
0.0
  0
TEXT
  5
1BC7
330
18
100
AcDbEntity
  8
0
  6
Continuous
100
AcDbText
 10
351.9591896204291
 20
183.7763252423767
 30
0.0
 40
2.1
  1
Design and specifications are subject to change without notice for future improvement.
  7
STYLE3
100
AcDbText
  0
LINE
  5
1BC8
330
18
100
AcDbEntity
  8
外形線
100
AcDbLine
 10
350.501721620429
 20
172.2635572423768
 30
0.0
 11
350.501721620429
 21
192.6585402423768
 31
0.0
  0
TEXT
  5
1BC9
330
18
100
AcDbEntity
  8
0
  6
Continuous
100
AcDbText
 10
395.2719666204291
 20
175.7598412423767
 30
0.0
 40
2.399999999999999
  1
mm
  7
STYLE3
100
AcDbText
  0
LINE
  5
1BCA
330
18
100
AcDbEntity
  8
外形線
100
AcDbLine
 10
350.501721620429
 20
181.8783352423768
 30
0.0
 11
491.2931396204291
 21
181.8783352423768
 31
0.0
  0
TEXT
  5
1BCB
330
18
100
AcDbEntity
  8
0
  6
Continuous
100
AcDbText
 10
354.2911406204291
 20
177.5079802423768
 30
0.0
 40
3.0
  1
三　　角　　法
  7
STYLE3
100
AcDbText
  0
TEXT
  5
1BCC
330
18
100
AcDbEntity
  8
0
  6
Continuous
100
AcDbText
 10
351.6676976204291
 20
174.0116972423768
 30
0.0
 40
2.1
  1
3RD Angle Projection
  7
STYLE3
100
AcDbText
  0
TEXT
  5
1BCD
330
18
100
AcDbEntity
  8
0
  6
Continuous
100
AcDbText
 10
387.4016396204291
 20
174.0116982423768
 30
0.0
 40
2.1
  1
Unit
  7
STYLE3
100
AcDbText
  0
TEXT
  5
1BCE
330
18
100
AcDbEntity
  8
0
  6
Continuous
100
AcDbText
 10
387.2299186204291
 20
177.5139352423767
 30
0.0
 40
3.0
  1
単位
  7
STYLE3
100
AcDbText
  0
LINE
  5
1BCF
330
18
100
AcDbEntity
  8
外形線
100
AcDbLine
 10
385.7724496204291
 20
181.8783352423768
 30
0.0
 11
385.7724496204291
 21
172.2635572423768
 31
0.0
  0
TEXT
  5
1BD0
330
18
100
AcDbEntity
  8
0
  6
Continuous
100
AcDbText
 10
453.8734516204291
 20
177.7993372423767
 30
0.0
 40
3.0
  1
株式会社　尾崎製作所
  7
STYLE3
100
AcDbText
  0
TEXT
  5
1BD1
330
18
100
AcDbEntity
  8
0
  6
Continuous
100
AcDbText
 10
454.7479306204291
 20
174.0116982423768
 30
0.0
 40
2.1
  1
OZAKI MFG. CO., LTD.
  7
STYLE3
100
AcDbText
  0
TEXT
  5
1BD2
330
18
100
AcDbEntity
  8
0
  6
Continuous
100
AcDbText
 10
433.4688976204291
 20
175.7598392423768
 30
0.0
 40
2.1
  1
2010.06.09
  7
STYLE3
100
AcDbText
  0
TEXT
  5
1BD3
330
18
100
AcDbEntity
  8
0
  6
Continuous
100
AcDbText
 10
414.6303186204291
 20
176.0511982423768
 30
0.0
 40
2.399999999999999
  1
1/1
  7
STYLE3
100
AcDbText
  0
TEXT
  5
1BD4
330
18
100
AcDbEntity
  8
0
  6
Continuous
100
AcDbText
 10
405.0110296204291
 20
174.3030552423768
 30
0.0
 40
2.1
  1
Scale
  7
STYLE3
100
AcDbText
  0
TEXT
  5
1BD5
330
18
100
AcDbEntity
  8
0
  6
Continuous
100
AcDbText
 10
404.5478146204291
 20
177.2225772423768
 30
0.0
 40
3.0
  1
尺 度
  7
STYLE3
100
AcDbText
  0
LINE
  5
1BD6
330
18
100
AcDbEntity
  8
外形線
100
AcDbLine
 10
403.2620666204291
 20
181.8783352423768
 30
0.0
 11
403.2620666204291
 21
172.2635572423768
 31
0.0
  0
TEXT
  5
1BD7
330
18
100
AcDbEntity
  8
0
  6
Continuous
100
AcDbText
 10
424.724090620429
 20
174.0116992423768
 30
0.0
 40
2.1
  1
Date
  7
STYLE3
100
AcDbText
  0
TEXT
  5
1BD8
330
18
100
AcDbEntity
  8
0
  6
Continuous
100
AcDbText
 10
424.340729620429
 20
177.3447822423768
 30
0.0
 40
3.0
  1
日 付
  7
STYLE3
100
AcDbText
  0
LINE
  5
1BD9
330
18
100
AcDbEntity
  8
外形線
100
AcDbLine
 10
422.792139620429
 20
181.8783352423768
 30
0.0
 11
422.792139620429
 21
172.2635572423768
 31
0.0
  0
LINE
  5
1BDA
330
18
100
AcDbEntity
  8
外形線
100
AcDbLine
 10
452.5244886204291
 20
181.8783352423768
 30
0.0
 11
452.5244886204291
 21
172.2635572423768
 31
0.0
  0
LINE
  5
1BDB
330
18
100
AcDbEntity
  8
外形線
100
AcDbLine
 10
350.501721620429
 20
192.6585402423768
 30
0.0
 11
491.2931396204291
 21
192.6585402423768
 31
0.0
  0
TEXT
  5
1BDC
330
18
100
AcDbEntity
  8
0
  6
Continuous
100
AcDbText
 10
352.2506836204291
 20
187.7054732423768
 30
0.0
 40
3.5
  1
仕様及び外観は予告なく変更される場合がございますのでご了承下さい。
  7
STYLE3
100
AcDbText
  0
ENDSEC
  0
SECTION
  2
OBJECTS
  0
DICTIONARY
  5
C
330
0
100
AcDbDictionary
281
     1
  3
ACAD_COLOR
350
1872
  3
ACAD_GROUP
350
D
  3
ACAD_IMAGE_DICT
350
E58
  3
ACAD_LAYOUT
350
1875
  3
ACAD_MATERIAL
350
1871
  3
ACAD_MLINESTYLE
350
1B
  3
ACAD_PLOTSETTINGS
350
1876
  3
ACAD_PLOTSTYLENAME
350
186F
  3
ACAD_TABLESTYLE
350
1873
  3
ACDBVARIABLEDICTIONARY
350
1025
  0
DICTIONARY
  5
1872
102
{ACAD_REACTORS
330
C
102
}
330
C
100
AcDbDictionary
281
     1
  0
DICTIONARY
  5
D
102
{ACAD_REACTORS
330
C
102
}
330
C
100
AcDbDictionary
281
     1
  0
DICTIONARY
  5
E58
102
{ACAD_REACTORS
330
C
102
}
330
C
100
AcDbDictionary
281
     1
  3
ROGO01
350
E59
  0
DICTIONARY
  5
1875
102
{ACAD_REACTORS
330
C
102
}
330
C
100
AcDbDictionary
281
     1
  3
Model
350
1877
  3
レイアウト1
350
1878
  0
DICTIONARY
  5
1871
102
{ACAD_REACTORS
330
C
102
}
330
C
100
AcDbDictionary
281
     1
  0
DICTIONARY
  5
1B
102
{ACAD_REACTORS
330
C
102
}
330
C
100
AcDbDictionary
281
     1
  3
STANDARD
350
1C
  0
DICTIONARY
  5
1876
102
{ACAD_REACTORS
330
C
102
}
330
C
100
AcDbDictionary
281
     1
  0
ACDBDICTIONARYWDFLT
  5
186F
102
{ACAD_REACTORS
330
C
102
}
330
C
100
AcDbDictionary
281
     1
  3
Normal
350
1870
100
AcDbDictionaryWithDefault
340
1870
  0
DICTIONARY
  5
1873
102
{ACAD_REACTORS
330
C
102
}
330
C
100
AcDbDictionary
281
     1
  3
Standard
350
1874
  0
DICTIONARY
  5
1025
102
{ACAD_REACTORS
330
C
102
}
330
C
100
AcDbDictionary
281
     1
  3
CTABLESTYLE
350
187E
  3
SORTENTS
350
1026
  0
IMAGEDEF
  5
E59
102
{ACAD_REACTORS
330
E58
102
}
330
E58
100
AcDbRasterImageDef
 90
        0
  1
D:\ﾃｽﾄ\rogo01.TIF
 10
3388.0
 20
4668.0
 11
0.0635
 21
0.0635
280
     1
281
     5
  0
LAYOUT
  5
1877
102
{ACAD_REACTORS
330
1875
102
}
330
1875
100
AcDbPlotSettings
  1

  2
A4 EPSON LP-6100.pc3
  4
A4
  6

 40
5.873749732971191
 41
5.873747825622558
 42
5.873748779296875
 43
5.873748779296875
 44
209.9733276367187
 45
297.0106506347656
 46
1.5
 47
25.0
 48
0.0
 49
0.0
140
0.0
141
0.0
142
1.0
143
1.0
 70
 28336
 72
     1
 73
     1
 74
     1
  7
AutoCAD LT 98.ctb
 75
    16
147
1.0
 76
     1
 77
     2
 78
   300
148
-236.4488099124947
149
-171.6235136330668
100
AcDbLayout
  1
Model
 70
     1
 71
     0
 10
0.0
 20
0.0
 11
12.0
 21
9.0
 12
0.0
 22
0.0
 32
0.0
 14
0.0
 24
0.0
 34
0.0
 15
0.0
 25
0.0
 35
0.0
146
0.0
 13
0.0
 23
0.0
 33
0.0
 16
1.0
 26
0.0
 36
0.0
 17
0.0
 27
1.0
 37
0.0
 76
     0
330
18
1001
ACAD_PSEXT
1000
A4 EPSON LP-6100.pc3
1000
EPSON LP-6100
1000
USB002
1000

1070
     0
  0
LAYOUT
  5
1878
102
{ACAD_REACTORS
330
1875
102
}
330
1875
100
AcDbPlotSettings
  1

  2
C:\Documents and Settings\佐藤\Application Data\Autodesk\AutoCAD LT 2005\R10\jpn\plotters\PEACOCK EPSON LP-6100.pc3
  4

  6

 40
0.0
 41
0.0
 42
0.0
 43
0.0
 44
0.0
 45
0.0
 46
0.0
 47
0.0
 48
0.0
 49
0.0
140
0.0
141
0.0
142
1.0
143
1.0
 70
   688
 72
     0
 73
     0
 74
     5
  7
AutoCAD LT 98.ctb
 75
    16
147
1.0
 76
     0
 77
     2
 78
   300
148
0.0
149
0.0
100
AcDbLayout
  1
レイアウト1
 70
     1
 71
     1
 10
0.0
 20
0.0
 11
420.0
 21
297.0
 12
0.0
 22
0.0
 32
0.0
 14
1.000000000000000E+20
 24
1.000000000000000E+20
 34
1.000000000000000E+20
 15
-1.000000000000000E+20
 25
-1.000000000000000E+20
 35
-1.000000000000000E+20
146
0.0
 13
0.0
 23
0.0
 33
0.0
 16
1.0
 26
0.0
 36
0.0
 17
0.0
 27
1.0
 37
0.0
 76
     0
330
15
  0
MLINESTYLE
  5
1C
102
{ACAD_REACTORS
330
1B
102
}
330
1B
100
AcDbMlineStyle
  2
STANDARD
 70
     0
  3

 62
   256
 51
90.0
 52
90.0
 71
     2
 49
0.5
 62
   256
  6
BYLAYER
 49
-0.5
 62
   256
  6
BYLAYER
  0
ACDBPLACEHOLDER
  5
1870
102
{ACAD_REACTORS
330
186F
102
}
330
186F
  0
ACAD_PROXY_OBJECT
  5
1874
102
{ACAD_REACTORS
330
1873
102
}
330
1873
100
AcDbProxyObject
 90
      499
 91
      505
 95
  2555929
 70
     0
 93
     1849
310
4214DD185B99185C992420000000000000F83F0000000000003E0FC00000000000004901028000000C1008070000C3001FDFF8000000C1003FBFF000000182007F7FE00000030400FEFFC00000060801FDFF8000000C1003FBFF000000182000000000000000C2020B0000001820100E000186003FBFF000000182007F7FE0
310
0000030400FEFFC00000060801FDFF8000000C1003FBFF000000182007F7FE0000003040000000000000012404160000003040201C00030C007F7FE00000030400FEFFC00000060801FDFF8000000C1003FBFF000000182007F7FE00000030400FEFFC000000608000
340
F
340
F
340
F
 94
        0
  0
DICTIONARYVAR
  5
187E
102
{ACAD_REACTORS
330
1025
102
}
330
1025
100
DictionaryVariables
280
     0
  1
STANDARD
  0
DICTIONARYVAR
  5
1026
102
{ACAD_REACTORS
330
1025
102
}
330
1025
100
DictionaryVariables
280
     0
  1
96
  0
ENDSEC
  0
EOF
