  0
SECTION
  2
HEADER
  9
$ACADVER
  1
AC1018
  9
$ACADMAINTVER
 70
     0
  9
$DWGCODEPAGE
  3
ANSI_932
  9
$INSBASE
 10
0.0
 20
0.0
 30
0.0
  9
$EXTMIN
 10
-0.2256454072593215
 20
-0.2181385412601458
 30
-1.000061032362211
  9
$EXTMAX
 10
255.2259969900183
 20
195.2198623512278
 30
0.0000610416757212
  9
$LIMMIN
 10
0.0
 20
0.0
  9
$LIMMAX
 10
420.0
 20
297.0
  9
$ORTHOMODE
 70
     0
  9
$REGENMODE
 70
     1
  9
$FILLMODE
 70
     1
  9
$QTEXTMODE
 70
     0
  9
$MIRRTEXT
 70
     1
  9
$LTSCALE
 40
1.0
  9
$ATTMODE
 70
     1
  9
$TEXTSIZE
 40
1.0
  9
$TRACEWID
 40
1.0
  9
$TEXTSTYLE
  7
STYLE3
  9
$CLAYER
  8
外形線
  9
$CELTYPE
  6
BYLAYER
  9
$CECOLOR
 62
   256
  9
$CELTSCALE
 40
1.0
  9
$DISPSILH
 70
     0
  9
$DIMSCALE
 40
1.0
  9
$DIMASZ
 40
2.5
  9
$DIMEXO
 40
0.0
  9
$DIMDLI
 40
3.75
  9
$DIMRND
 40
0.0
  9
$DIMDLE
 40
0.0
  9
$DIMEXE
 40
1.25
  9
$DIMTP
 40
0.0
  9
$DIMTM
 40
0.0
  9
$DIMTXT
 40
2.5
  9
$DIMCEN
 40
2.5
  9
$DIMTSZ
 40
0.0
  9
$DIMTOL
 70
     0
  9
$DIMLIM
 70
     0
  9
$DIMTIH
 70
     0
  9
$DIMTOH
 70
     0
  9
$DIMSE1
 70
     0
  9
$DIMSE2
 70
     0
  9
$DIMTAD
 70
     1
  9
$DIMZIN
 70
     8
  9
$DIMBLK
  1

  9
$DIMASO
 70
     1
  9
$DIMSHO
 70
     1
  9
$DIMPOST
  1

  9
$DIMAPOST
  1

  9
$DIMALT
 70
     0
  9
$DIMALTD
 70
     4
  9
$DIMALTF
 40
0.0394
  9
$DIMLFAC
 40
1.0
  9
$DIMTOFL
 70
     1
  9
$DIMTVP
 40
0.0
  9
$DIMTIX
 70
     0
  9
$DIMSOXD
 70
     0
  9
$DIMSAH
 70
     1
  9
$DIMBLK1
  1
OPEN
  9
$DIMBLK2
  1
OPEN
  9
$DIMSTYLE
  2
STYLE3
  9
$DIMCLRD
 70
     2
  9
$DIMCLRE
 70
     2
  9
$DIMCLRT
 70
     6
  9
$DIMTFAC
 40
1.0
  9
$DIMGAP
 40
0.625
  9
$DIMJUST
 70
     0
  9
$DIMSD1
 70
     0
  9
$DIMSD2
 70
     0
  9
$DIMTOLJ
 70
     1
  9
$DIMTZIN
 70
     0
  9
$DIMALTZ
 70
     0
  9
$DIMALTTZ
 70
     0
  9
$DIMUPT
 70
     0
  9
$DIMDEC
 70
     2
  9
$DIMTDEC
 70
     4
  9
$DIMALTU
 70
     8
  9
$DIMALTTD
 70
     4
  9
$DIMTXSTY
  7
STYLE3
  9
$DIMAUNIT
 70
     0
  9
$DIMADEC
 70
     0
  9
$DIMALTRND
 40
0.0
  9
$DIMAZIN
 70
     0
  9
$DIMDSEP
 70
    46
  9
$DIMATFIT
 70
     3
  9
$DIMFRAC
 70
     0
  9
$DIMLDRBLK
  1

  9
$DIMLUNIT
 70
     2
  9
$DIMLWD
 70
    -2
  9
$DIMLWE
 70
    -2
  9
$DIMTMOVE
 70
     0
  9
$LUNITS
 70
     2
  9
$LUPREC
 70
     4
  9
$SKETCHINC
 40
1.0
  9
$FILLETRAD
 40
0.0
  9
$AUNITS
 70
     0
  9
$AUPREC
 70
     0
  9
$MENU
  1
.
  9
$ELEVATION
 40
0.0
  9
$PELEVATION
 40
0.0
  9
$THICKNESS
 40
0.0
  9
$LIMCHECK
 70
     0
  9
$CHAMFERA
 40
0.3
  9
$CHAMFERB
 40
0.3
  9
$CHAMFERC
 40
20.0
  9
$CHAMFERD
 40
0.0
  9
$SKPOLY
 70
     0
  9
$TDCREATE
 40
2451223.640404514
  9
$TDUCREATE
 40
2451223.265404514
  9
$TDUPDATE
 40
2455357.446070776
  9
$TDUUPDATE
 40
2455357.071070775
  9
$TDINDWG
 40
0.1917868866
  9
$TDUSRTIMER
 40
0.1917868866
  9
$USRTIMER
 70
     1
  9
$ANGBASE
 50
0.0
  9
$ANGDIR
 70
     0
  9
$PDMODE
 70
     0
  9
$PDSIZE
 40
0.0
  9
$PLINEWID
 40
0.0
  9
$SPLFRAME
 70
     0
  9
$SPLINETYPE
 70
     6
  9
$SPLINESEGS
 70
     8
  9
$HANDSEED
  5
927
  9
$SURFTAB1
 70
     6
  9
$SURFTAB2
 70
     6
  9
$SURFTYPE
 70
     6
  9
$SURFU
 70
     6
  9
$SURFV
 70
     6
  9
$UCSBASE
  2

  9
$UCSNAME
  2

  9
$UCSORG
 10
0.0
 20
0.0
 30
0.0
  9
$UCSXDIR
 10
1.0
 20
0.0
 30
0.0
  9
$UCSYDIR
 10
0.0
 20
1.0
 30
0.0
  9
$UCSORTHOREF
  2

  9
$UCSORTHOVIEW
 70
     0
  9
$UCSORGTOP
 10
0.0
 20
0.0
 30
0.0
  9
$UCSORGBOTTOM
 10
0.0
 20
0.0
 30
0.0
  9
$UCSORGLEFT
 10
0.0
 20
0.0
 30
0.0
  9
$UCSORGRIGHT
 10
0.0
 20
0.0
 30
0.0
  9
$UCSORGFRONT
 10
0.0
 20
0.0
 30
0.0
  9
$UCSORGBACK
 10
0.0
 20
0.0
 30
0.0
  9
$PUCSBASE
  2

  9
$PUCSNAME
  2

  9
$PUCSORG
 10
0.0
 20
0.0
 30
0.0
  9
$PUCSXDIR
 10
1.0
 20
0.0
 30
0.0
  9
$PUCSYDIR
 10
0.0
 20
1.0
 30
0.0
  9
$PUCSORTHOREF
  2

  9
$PUCSORTHOVIEW
 70
     0
  9
$PUCSORGTOP
 10
0.0
 20
0.0
 30
0.0
  9
$PUCSORGBOTTOM
 10
0.0
 20
0.0
 30
0.0
  9
$PUCSORGLEFT
 10
0.0
 20
0.0
 30
0.0
  9
$PUCSORGRIGHT
 10
0.0
 20
0.0
 30
0.0
  9
$PUCSORGFRONT
 10
0.0
 20
0.0
 30
0.0
  9
$PUCSORGBACK
 10
0.0
 20
0.0
 30
0.0
  9
$USERI1
 70
     0
  9
$USERI2
 70
     0
  9
$USERI3
 70
     0
  9
$USERI4
 70
     0
  9
$USERI5
 70
     0
  9
$USERR1
 40
0.0
  9
$USERR2
 40
0.0
  9
$USERR3
 40
0.0
  9
$USERR4
 40
0.0
  9
$USERR5
 40
0.0
  9
$WORLDVIEW
 70
     1
  9
$SHADEDGE
 70
     3
  9
$SHADEDIF
 70
    70
  9
$TILEMODE
 70
     1
  9
$MAXACTVP
 70
    48
  9
$PINSBASE
 10
0.0
 20
0.0
 30
0.0
  9
$PLIMCHECK
 70
     0
  9
$PEXTMIN
 10
-0.2
 20
-0.2
 30
0.0
  9
$PEXTMAX
 10
255.2
 20
195.2
 30
0.0
  9
$PLIMMIN
 10
0.0
 20
0.0
  9
$PLIMMAX
 10
420.0
 20
297.0
  9
$UNITMODE
 70
     0
  9
$VISRETAIN
 70
     1
  9
$PLINEGEN
 70
     0
  9
$PSLTSCALE
 70
     1
  9
$TREEDEPTH
 70
  3020
  9
$CMLSTYLE
  2
STANDARD
  9
$CMLJUST
 70
     0
  9
$CMLSCALE
 40
20.0
  9
$PROXYGRAPHICS
 70
     1
  9
$MEASUREMENT
 70
     1
  9
$CELWEIGHT
370
    -1
  9
$ENDCAPS
280
     0
  9
$JOINSTYLE
280
     0
  9
$LWDISPLAY
290
     0
  9
$INSUNITS
 70
     0
  9
$HYPERLINKBASE
  1

  9
$STYLESHEET
  1

  9
$XEDIT
290
     1
  9
$CEPSNTYPE
380
     0
  9
$PSTYLEMODE
290
     1
  9
$FINGERPRINTGUID
  2
{B0153B84-8DBB-437D-9F46-A2C4F710C4DF}
  9
$VERSIONGUID
  2
{22961557-505C-4AE9-9B9F-583E5AF41969}
  9
$EXTNAMES
290
     1
  9
$PSVPSCALE
 40
0.0
  9
$OLESTARTUP
290
     0
  9
$SORTENTS
280
    96
  9
$INDEXCTL
280
     0
  9
$HIDETEXT
280
     0
  9
$XCLIPFRAME
290
     0
  9
$HALOGAP
280
     0
  9
$OBSCOLOR
 70
   257
  9
$OBSLTYPE
280
     0
  9
$INTERSECTIONDISPLAY
280
     0
  9
$INTERSECTIONCOLOR
 70
   257
  9
$DIMASSOC
280
     1
  9
$PROJECTNAME
  1

  0
ENDSEC
  0
SECTION
  2
CLASSES
  0
CLASS
  1
HATCH
  2
AcDbHatch
  3
ObjectDBX Classes
 90
        0
 91
       12
280
     0
281
     1
  0
CLASS
  1
DICTIONARYVAR
  2
AcDbDictionaryVar
  3
ObjectDBX Classes
 90
        0
 91
        2
280
     0
281
     0
  0
CLASS
  1
ACDBDICTIONARYWDFLT
  2
AcDbDictionaryWithDefault
  3
ObjectDBX Classes
 90
        0
 91
        1
280
     0
281
     0
  0
CLASS
  1
TABLESTYLE
  2
AcDbTableStyle
  3
ObjectDBX Classes
 90
     2047
 91
        1
280
     0
281
     0
  0
ENDSEC
  0
SECTION
  2
TABLES
  0
TABLE
  2
VPORT
  5
8
330
0
100
AcDbSymbolTable
 70
     2
  0
VPORT
  5
926
330
8
100
AcDbSymbolTableRecord
100
AcDbViewportTableRecord
  2
*Active
 70
     0
 10
0.0
 20
0.0
 11
1.0
 21
1.0
 12
127.5001757913795
 22
97.50086190498384
 13
0.0
 23
0.0
 14
10.0
 24
10.0
 15
10.0
 25
10.0
 16
0.0
 26
0.0
 36
1.0
 17
0.0
 27
0.0
 37
0.0
 40
196.9242214315943
 41
1.530456852791878
 42
50.0
 43
0.0
 44
0.0
 50
0.0
 51
0.0
 71
     0
 72
   100
 73
     1
 74
     1
 75
     0
 76
     0
 77
     0
 78
     0
281
     0
 65
     1
110
0.0
120
0.0
130
0.0
111
1.0
121
0.0
131
0.0
112
0.0
122
1.0
132
0.0
 79
     0
146
0.0
  0
ENDTAB
  0
TABLE
  2
LTYPE
  5
5
330
0
100
AcDbSymbolTable
 70
     4
  0
LTYPE
  5
12
330
5
100
AcDbSymbolTableRecord
100
AcDbLinetypeTableRecord
  2
BYBLOCK
 70
     0
  3

 72
    65
 73
     0
 40
0.0
  0
LTYPE
  5
13
330
5
100
AcDbSymbolTableRecord
100
AcDbLinetypeTableRecord
  2
BYLAYER
 70
     0
  3

 72
    65
 73
     0
 40
0.0
  0
LTYPE
  5
14
330
5
100
AcDbSymbolTableRecord
100
AcDbLinetypeTableRecord
  2
CONTINUOUS
 70
     0
  3
Solid line
 72
    65
 73
     0
 40
0.0
  0
LTYPE
  5
22
330
5
100
AcDbSymbolTableRecord
100
AcDbLinetypeTableRecord
  2
CENTER2
 70
     0
  3
Center (.5x) ___ _ ___ _ ___ _ ___ _ ___ _ ___
 72
    65
 73
     4
 40
28.575
 49
19.05
 74
     0
 49
-3.174999999999999
 74
     0
 49
3.174999999999999
 74
     0
 49
-3.174999999999999
 74
     0
  0
ENDTAB
  0
TABLE
  2
LAYER
  5
2
330
0
100
AcDbSymbolTable
 70
    16
  0
LAYER
  5
E
330
2
100
AcDbSymbolTableRecord
100
AcDbLayerTableRecord
  2
0
 70
     0
 62
     7
  6
CONTINUOUS
370
    -3
390
8C2
  0
LAYER
  5
25
330
2
100
AcDbSymbolTableRecord
100
AcDbLayerTableRecord
  2
外形線
 70
     0
 62
     7
  6
CONTINUOUS
370
    -3
390
8C2
  0
LAYER
  5
27
330
2
100
AcDbSymbolTableRecord
100
AcDbLayerTableRecord
  2
中心線
 70
     0
 62
     4
  6
CENTER2
370
    -3
390
8C2
  0
LAYER
  5
2A
330
2
100
AcDbSymbolTableRecord
100
AcDbLayerTableRecord
  2
ﾊｯﾁﾝｸ
 70
     0
 62
     4
  6
CONTINUOUS
370
    -3
390
8C2
  0
LAYER
  5
2B
330
2
100
AcDbSymbolTableRecord
100
AcDbLayerTableRecord
  2
文字
 70
     0
 62
     6
  6
CONTINUOUS
370
    -3
390
8C2
  0
LAYER
  5
2C
330
2
100
AcDbSymbolTableRecord
100
AcDbLayerTableRecord
  2
目盛
 70
     0
 62
    70
  6
CONTINUOUS
370
    -3
390
8C2
  0
LAYER
  5
2D
330
2
100
AcDbSymbolTableRecord
100
AcDbLayerTableRecord
  2
針
 70
     0
 62
     5
  6
CONTINUOUS
370
    -3
390
8C2
  0
LAYER
  5
53
330
2
100
AcDbSymbolTableRecord
100
AcDbLayerTableRecord
  2
DEFPOINTS
 70
     0
 62
     7
  6
CONTINUOUS
290
     0
370
    -3
390
8C2
  0
LAYER
  5
A5
330
2
100
AcDbSymbolTableRecord
100
AcDbLayerTableRecord
  2
C
 70
     0
 62
     7
  6
CONTINUOUS
370
    -3
390
8C2
  0
LAYER
  5
5B5
330
2
100
AcDbSymbolTableRecord
100
AcDbLayerTableRecord
  2
ROGO
 70
     0
 62
     6
  6
CONTINUOUS
370
    -3
390
8C2
  0
ENDTAB
  0
TABLE
  2
STYLE
  5
3
330
0
100
AcDbSymbolTable
 70
     3
  0
STYLE
  5
F
330
3
100
AcDbSymbolTableRecord
100
AcDbTextStyleTableRecord
  2
STANDARD
 70
     0
 40
0.0
 41
1.0
 50
0.0
 71
     0
 42
2.5
  3
txt
  4

  0
STYLE
  5
3F
330
3
100
AcDbSymbolTableRecord
100
AcDbTextStyleTableRecord
  2
STYLE3
 70
     0
 40
0.0
 41
1.0
 50
0.0
 71
     0
 42
1.0
  3
romans.shx
  4
bigfont.shx
  0
ENDTAB
  0
TABLE
  2
VIEW
  5
6
330
0
100
AcDbSymbolTable
 70
     0
  0
ENDTAB
  0
TABLE
  2
UCS
  5
7
330
0
100
AcDbSymbolTable
 70
     0
  0
ENDTAB
  0
TABLE
  2
APPID
  5
9
330
0
100
AcDbSymbolTable
 70
     1
  0
APPID
  5
10
330
9
100
AcDbSymbolTableRecord
100
AcDbRegAppTableRecord
  2
ACAD
 70
     0
  0
ENDTAB
  0
TABLE
  2
DIMSTYLE
  5
A
330
0
100
AcDbSymbolTable
 70
     3
100
AcDbDimStyleTable
 71
     0
  0
DIMSTYLE
105
1D
330
A
100
AcDbSymbolTableRecord
100
AcDbDimStyleTableRecord
  2
STANDARD
 70
     0
 41
2.5
 42
0.625
 43
3.75
 44
1.25
 73
     0
 74
     0
 77
     1
 78
     8
140
2.5
141
2.5
143
0.0394
147
0.625
171
     4
172
     1
273
     8
274
     4
277
     6
340
F
  0
DIMSTYLE
105
8F
330
A
100
AcDbSymbolTableRecord
100
AcDbDimStyleTableRecord
  2
STYLE3
 70
     0
 41
2.5
 42
0.0
 43
3.75
 44
1.25
 73
     0
 74
     0
 77
     1
 78
     8
140
2.5
141
2.5
143
0.0394
147
0.625
171
     4
172
     1
173
     1
176
     2
177
     2
178
     6
271
     1
273
     8
274
     4
340
3F
341
45
343
45
344
45
  0
ENDTAB
  0
TABLE
  2
BLOCK_RECORD
  5
1
330
0
100
AcDbSymbolTable
 70
     3
  0
BLOCK_RECORD
  5
18
330
1
100
AcDbSymbolTableRecord
100
AcDbBlockTableRecord
  2
*MODEL_SPACE
340
8C9
  0
BLOCK_RECORD
  5
15
330
1
100
AcDbSymbolTableRecord
100
AcDbBlockTableRecord
  2
*PAPER_SPACE
340
8CA
  0
BLOCK_RECORD
  5
45
330
1
100
AcDbSymbolTableRecord
100
AcDbBlockTableRecord
  2
_OPEN
340
0
102
{BLKREFS
331
772
331
773
331
780
331
781
331
78D
331
78E
331
795
331
796
331
7DE
331
7DF
331
7F6
331
7F7
331
7FE
331
7FF
331
807
331
808
331
862
331
863
331
86B
331
86C
102
}
  0
ENDTAB
  0
ENDSEC
  0
SECTION
  2
BLOCKS
  0
BLOCK
  5
19
330
18
100
AcDbEntity
  8
0
100
AcDbBlockBegin
  2
*MODEL_SPACE
 70
     0
 10
0.0
 20
0.0
 30
0.0
  3
*MODEL_SPACE
  1

  0
ENDBLK
  5
1A
330
18
100
AcDbEntity
  8
0
100
AcDbBlockEnd
  0
BLOCK
  5
16
330
15
100
AcDbEntity
 67
     1
  8
0
100
AcDbBlockBegin
  2
*PAPER_SPACE
 70
     0
 10
0.0
 20
0.0
 30
0.0
  3
*PAPER_SPACE
  1

  0
ENDBLK
  5
17
330
15
100
AcDbEntity
 67
     1
  8
0
100
AcDbBlockEnd
  0
BLOCK
  5
46
330
45
100
AcDbEntity
  8
0
100
AcDbBlockBegin
  2
_OPEN
 70
     0
 10
0.0
 20
0.0
 30
0.0
  3
_OPEN
  1

  0
LINE
  5
47
330
45
100
AcDbEntity
  8
0
  6
ByBlock
 62
     0
100
AcDbLine
 10
-1.0
 20
0.1666666666666666
 30
0.0
 11
0.0
 21
0.0
 31
0.0
  0
LINE
  5
48
330
45
100
AcDbEntity
  8
0
  6
ByBlock
 62
     0
100
AcDbLine
 10
0.0
 20
0.0
 30
0.0
 11
-1.0
 21
-0.1666666666666666
 31
0.0
  0
LINE
  5
49
330
45
100
AcDbEntity
  8
0
  6
ByBlock
 62
     0
100
AcDbLine
 10
0.0
 20
0.0
 30
0.0
 11
-1.0
 21
0.0
 31
0.0
  0
ENDBLK
  5
4A
330
45
100
AcDbEntity
  8
0
100
AcDbBlockEnd
  0
ENDSEC
  0
SECTION
  2
ENTITIES
  0
LWPOLYLINE
  5
26C
330
18
100
AcDbEntity
  8
C
100
AcDbPolyline
 90
        5
 70
     0
 43
0.4
 10
0.0
 20
195.0
 10
255.0
 20
195.0
 10
255.0
 20
0.0
 10
0.0
 20
0.0
 10
0.0
 20
195.0
  0
LINE
  5
2C7
330
18
100
AcDbEntity
  8
中心線
 48
0.5
100
AcDbLine
 10
92.63607535989455
 20
100.2949879608761
 30
0.0
 11
121.2338732420283
 21
100.2949879608761
 31
0.0
  0
LINE
  5
2C8
330
18
100
AcDbEntity
  8
中心線
 48
0.5
100
AcDbLine
 10
103.011586551962
 20
118.2074935553528
 30
0.0
 11
103.011586551962
 21
81.59286271158242
 31
0.0
  0
LINE
  5
2CB
330
18
100
AcDbEntity
  8
外形線
100
AcDbLine
 10
98.01158655196207
 20
115.2949879608761
 30
0.0
 11
108.811586551962
 21
115.2949879608761
 31
0.0
  0
LINE
  5
2CC
330
18
100
AcDbEntity
  8
外形線
100
AcDbLine
 10
98.01158655196207
 20
85.29498796087608
 30
0.0
 11
108.811586551962
 21
85.2949879608761
 31
0.0
  0
LINE
  5
2CD
330
18
100
AcDbEntity
  8
外形線
100
AcDbLine
 10
97.01158655196207
 20
98.29498796087609
 30
0.0
 11
97.01158655196207
 21
86.29498796087608
 31
0.0
  0
LINE
  5
2CE
330
18
100
AcDbEntity
  8
外形線
100
AcDbLine
 10
99.33658655196207
 20
84.2949879608761
 30
0.0
 11
108.8115865519621
 21
84.2949879608761
 31
0.0
  0
ARC
  5
2CF
330
18
100
AcDbEntity
  8
外形線
100
AcDbCircle
 10
98.01158655196207
 20
86.29498796087608
 30
0.0
 40
1.0
100
AcDbArc
 50
180.0
 51
270.0
  0
LINE
  5
2D0
330
18
100
AcDbEntity
  8
中心線
 48
0.5
100
AcDbLine
 10
57.22721728377075
 20
104.7949879608761
 30
0.0
 11
99.0211124643347
 21
104.7949879608761
 31
0.0
  0
LINE
  5
2D1
330
18
100
AcDbEntity
  8
外形線
100
AcDbLine
 10
94.91158655196207
 20
109.2949879608761
 30
0.0
 11
94.91158655196207
 21
100.2949879608761
 31
0.0
  0
LINE
  5
2D3
330
18
100
AcDbEntity
  8
外形線
100
AcDbLine
 10
95.41158655196207
 20
99.79498796087607
 30
0.0
 11
95.51158655196207
 21
99.79498796087609
 31
0.0
  0
LINE
  5
2D4
330
18
100
AcDbEntity
  8
外形線
100
AcDbLine
 10
95.41158655196207
 20
109.794987960876
 30
0.0
 11
95.51158655196207
 21
109.794987960876
 31
0.0
  0
ARC
  5
2D5
330
18
100
AcDbEntity
  8
外形線
100
AcDbCircle
 10
95.41158655196207
 20
100.2949879608761
 30
0.0
 40
0.5
100
AcDbArc
 50
180.0
 51
270.0
  0
ARC
  5
2D6
330
18
100
AcDbEntity
  8
外形線
100
AcDbCircle
 10
95.41158655196207
 20
109.2949879608761
 30
0.0
 40
0.5
100
AcDbArc
 50
90.0
 51
180.0
  0
ARC
  5
2D7
330
18
100
AcDbEntity
  8
外形線
100
AcDbCircle
 10
95.51158655196207
 20
98.29498796087609
 30
0.0
 40
1.5
100
AcDbArc
 50
0.0
 51
90.0000000000001
  0
ARC
  5
2D8
330
18
100
AcDbEntity
  8
外形線
100
AcDbCircle
 10
95.51158655196207
 20
111.2949879608761
 30
0.0
 40
1.5
100
AcDbArc
 50
269.9999999999999
 51
0.0
  0
LINE
  5
2D9
330
18
100
AcDbEntity
  8
外形線
100
AcDbLine
 10
97.01158655196207
 20
98.29498796087609
 30
0.0
 11
97.01158655196207
 21
114.2949879608761
 31
0.0
  0
ARC
  5
2DA
330
18
100
AcDbEntity
  8
外形線
100
AcDbCircle
 10
98.01158655196207
 20
114.2949879608761
 30
0.0
 40
1.0
100
AcDbArc
 50
90.0
 51
180.0
  0
LINE
  5
30C
330
18
100
AcDbEntity
  8
外形線
100
AcDbLine
 10
98.83658655196207
 20
85.29498796087608
 30
0.0
 11
98.83658655196207
 21
84.79498796087609
 31
0.0
  0
ARC
  5
30D
330
18
100
AcDbEntity
  8
外形線
100
AcDbCircle
 10
99.33658655196207
 20
84.79498796087609
 30
0.0
 40
0.5
100
AcDbArc
 50
180.0
 51
270.0
  0
LINE
  5
322
330
18
100
AcDbEntity
  8
外形線
100
AcDbLine
 10
108.811586551962
 20
118.7949879608761
 30
0.0
 11
108.8115865519621
 21
100.2949879608761
 31
0.0
  0
LINE
  5
324
330
18
100
AcDbEntity
  8
外形線
100
AcDbLine
 10
110.0115865519621
 20
118.7949879608761
 30
0.0
 11
110.0115865519621
 21
100.2949879608761
 31
0.0
  0
LINE
  5
325
330
18
100
AcDbEntity
  8
外形線
100
AcDbLine
 10
115.111586551962
 20
118.9949879608761
 30
0.0
 11
115.111586551962
 21
100.2949879608761
 31
0.0
  0
LINE
  5
326
330
18
100
AcDbEntity
  8
外形線
100
AcDbLine
 10
108.811586551962
 20
118.7949879608761
 30
0.0
 11
110.0115865519621
 21
118.7949879608761
 31
0.0
  0
LINE
  5
327
330
18
100
AcDbEntity
  8
外形線
100
AcDbLine
 10
110.5115865519621
 20
119.2949879608761
 30
0.0
 11
114.8115865519621
 21
119.2949879608761
 31
0.0
  0
LINE
  5
328
330
18
100
AcDbEntity
  8
外形線
100
AcDbLine
 10
110.0115865519621
 20
118.7949879608761
 30
0.0
 11
110.5115865519621
 21
119.2949879608761
 31
0.0
  0
LINE
  5
329
330
18
100
AcDbEntity
  8
外形線
100
AcDbLine
 10
114.8115865519621
 20
119.2949879608761
 30
0.0
 11
115.111586551962
 21
118.9949879608761
 31
0.0
  0
LINE
  5
32B
330
18
100
AcDbEntity
  8
外形線
100
AcDbLine
 10
115.6115865519621
 20
118.044987960876
 30
0.0
 11
115.611586551962
 21
100.2949879608761
 31
0.0
  0
LINE
  5
32D
330
18
100
AcDbEntity
  8
外形線
100
AcDbLine
 10
115.111586551962
 20
118.7949879608761
 30
0.0
 11
115.6115865519621
 21
118.044987960876
 31
0.0
  0
LINE
  5
32E
330
18
100
AcDbEntity
  8
外形線
100
AcDbLine
 10
110.5115865519621
 20
119.2949879608761
 30
0.0
 11
110.5115865519621
 21
100.2949879608761
 31
0.0
  0
LINE
  5
32F
330
18
100
AcDbEntity
  8
ﾊｯﾁﾝｸ
100
AcDbLine
 10
110.5115865519621
 20
118.3949879608761
 30
0.0
 11
115.111586551962
 21
118.3949879608761
 31
0.0
  0
LINE
  5
330
330
18
100
AcDbEntity
  8
ﾊｯﾁﾝｸ
100
AcDbLine
 10
110.5115865519621
 20
117.3949879608761
 30
0.0
 11
115.111586551962
 21
117.3949879608761
 31
0.0
  0
LINE
  5
331
330
18
100
AcDbEntity
  8
ﾊｯﾁﾝｸ
100
AcDbLine
 10
110.5115865519621
 20
116.2949879608761
 30
0.0
 11
115.111586551962
 21
116.2949879608761
 31
0.0
  0
LINE
  5
332
330
18
100
AcDbEntity
  8
ﾊｯﾁﾝｸ
100
AcDbLine
 10
110.5115865519621
 20
115.0949879608761
 30
0.0
 11
115.111586551962
 21
115.0949879608761
 31
0.0
  0
LINE
  5
333
330
18
100
AcDbEntity
  8
外形線
100
AcDbLine
 10
108.811586551962
 20
81.79498796087608
 30
0.0
 11
108.8115865519621
 21
100.2949879608761
 31
0.0
  0
LINE
  5
334
330
18
100
AcDbEntity
  8
外形線
100
AcDbLine
 10
110.5115865519621
 20
81.29498796087606
 30
0.0
 11
110.5115865519621
 21
100.2949879608761
 31
0.0
  0
LINE
  5
335
330
18
100
AcDbEntity
  8
外形線
100
AcDbLine
 10
110.0115865519621
 20
81.79498796087605
 30
0.0
 11
110.0115865519621
 21
100.2949879608761
 31
0.0
  0
LINE
  5
336
330
18
100
AcDbEntity
  8
外形線
100
AcDbLine
 10
115.111586551962
 20
81.59498796087607
 30
0.0
 11
115.111586551962
 21
100.2949879608761
 31
0.0
  0
LINE
  5
337
330
18
100
AcDbEntity
  8
外形線
100
AcDbLine
 10
115.6115865519621
 20
82.54498796087615
 30
0.0
 11
115.611586551962
 21
100.2949879608761
 31
0.0
  0
LINE
  5
338
330
18
100
AcDbEntity
  8
外形線
100
AcDbLine
 10
108.811586551962
 20
81.79498796087608
 30
0.0
 11
110.0115865519621
 21
81.79498796087608
 31
0.0
  0
LINE
  5
339
330
18
100
AcDbEntity
  8
ﾊｯﾁﾝｸ
100
AcDbLine
 10
110.5115865519621
 20
85.49498796087604
 30
0.0
 11
115.111586551962
 21
85.49498796087604
 31
0.0
  0
LINE
  5
33A
330
18
100
AcDbEntity
  8
ﾊｯﾁﾝｸ
100
AcDbLine
 10
110.5115865519621
 20
84.29498796087605
 30
0.0
 11
115.111586551962
 21
84.29498796087608
 31
0.0
  0
LINE
  5
33B
330
18
100
AcDbEntity
  8
ﾊｯﾁﾝｸ
100
AcDbLine
 10
110.5115865519621
 20
83.19498796087605
 30
0.0
 11
115.111586551962
 21
83.19498796087605
 31
0.0
  0
LINE
  5
33C
330
18
100
AcDbEntity
  8
ﾊｯﾁﾝｸ
100
AcDbLine
 10
110.5115865519621
 20
82.19498796087606
 30
0.0
 11
115.111586551962
 21
82.19498796087606
 31
0.0
  0
LINE
  5
33D
330
18
100
AcDbEntity
  8
外形線
100
AcDbLine
 10
110.5115865519621
 20
81.29498796087606
 30
0.0
 11
114.8115865519621
 21
81.29498796087606
 31
0.0
  0
LINE
  5
33E
330
18
100
AcDbEntity
  8
外形線
100
AcDbLine
 10
110.0115865519621
 20
81.79498796087605
 30
0.0
 11
110.5115865519621
 21
81.29498796087606
 31
0.0
  0
LINE
  5
33F
330
18
100
AcDbEntity
  8
外形線
100
AcDbLine
 10
115.111586551962
 20
81.79498796087608
 30
0.0
 11
115.6115865519621
 21
82.54498796087615
 31
0.0
  0
LINE
  5
340
330
18
100
AcDbEntity
  8
外形線
100
AcDbLine
 10
114.8115865519621
 20
81.29498796087606
 30
0.0
 11
115.111586551962
 21
81.59498796087607
 31
0.0
  0
LINE
  5
341
330
18
100
AcDbEntity
  8
ﾊｯﾁﾝｸ
100
AcDbLine
 10
110.5115865519621
 20
100.2949879608761
 30
0.0
 11
115.111586551962
 21
100.2949879608761
 31
0.0
  0
LINE
  5
342
330
18
100
AcDbEntity
  8
ﾊｯﾁﾝｸ
100
AcDbLine
 10
110.5115865519621
 20
101.394987960876
 30
0.0
 11
115.111586551962
 21
101.394987960876
 31
0.0
  0
LINE
  5
343
330
18
100
AcDbEntity
  8
ﾊｯﾁﾝｸ
100
AcDbLine
 10
110.5115865519621
 20
99.19498796087609
 30
0.0
 11
115.111586551962
 21
99.19498796087609
 31
0.0
  0
LINE
  5
344
330
18
100
AcDbEntity
  8
ﾊｯﾁﾝｸ
100
AcDbLine
 10
110.5115865519621
 20
102.394987960876
 30
0.0
 11
115.111586551962
 21
102.394987960876
 31
0.0
  0
LINE
  5
345
330
18
100
AcDbEntity
  8
ﾊｯﾁﾝｸ
100
AcDbLine
 10
110.5115865519621
 20
98.19498796087609
 30
0.0
 11
115.111586551962
 21
98.19498796087609
 31
0.0
  0
ARC
  5
34B
330
18
100
AcDbEntity
  8
外形線
100
AcDbCircle
 10
72.17635927923464
 20
100.2949879608761
 30
0.0
 40
46.73522727272742
100
AcDbArc
 50
338.339840913186
 51
21.66015908681389
  0
LINE
  5
34F
330
18
100
AcDbEntity
  8
中心線
 48
0.5
100
AcDbLine
 10
145.9303554634539
 20
100.2949879608761
 30
0.0
 11
188.6331221138305
 21
100.2949879608761
 31
0.0
  0
LINE
  5
350
330
18
100
AcDbEntity
  8
中心線
 48
0.5
100
AcDbLine
 10
167.3324186976176
 20
120.8616328867925
 30
0.0
 11
167.3324186976176
 21
77.44618858564348
 31
0.0
  0
CIRCLE
  5
388
330
18
100
AcDbEntity
  8
外形線
100
AcDbCircle
 10
167.3324186976176
 20
100.2949879608761
 30
0.0
 40
19.0
  0
CIRCLE
  5
389
330
18
100
AcDbEntity
  8
外形線
100
AcDbCircle
 10
167.3324186976176
 20
100.2949879608761
 30
0.0
 40
16.5
  0
POINT
  5
3DF
330
18
100
AcDbEntity
  8
DEFPOINTS
  6
ByBlock
 62
     0
100
AcDbPoint
 10
97.01158655196207
 20
114.2949879608761
 30
0.0
  0
POINT
  5
3E0
330
18
100
AcDbEntity
  8
DEFPOINTS
  6
ByBlock
 62
     0
100
AcDbPoint
 10
103.011586551962
 20
118.2074935553528
 30
0.0
  0
POINT
  5
3EC
330
18
100
AcDbEntity
  8
DEFPOINTS
  6
ByBlock
 62
     0
100
AcDbPoint
 10
94.91158655196207
 20
109.2949879608761
 30
0.0
  0
POINT
  5
3ED
330
18
100
AcDbEntity
  8
DEFPOINTS
  6
ByBlock
 62
     0
100
AcDbPoint
 10
97.01158655196207
 20
114.2949879608761
 30
0.0
  0
POINT
  5
3FA
330
18
100
AcDbEntity
  8
DEFPOINTS
  6
ByBlock
 62
     0
100
AcDbPoint
 10
94.91158655196207
 20
109.2949879608761
 30
0.0
  0
POINT
  5
452
330
18
100
AcDbEntity
  8
DEFPOINTS
  6
ByBlock
 62
     0
100
AcDbPoint
 10
92.63607535989455
 20
100.2949879608761
 30
0.0
  0
POINT
  5
45E
330
18
100
AcDbEntity
  8
DEFPOINTS
  6
ByBlock
 62
     0
100
AcDbPoint
 10
92.63607535989455
 20
100.2949879608761
 30
0.0
  0
CIRCLE
  5
4FC
330
18
100
AcDbEntity
  8
外形線
100
AcDbCircle
 10
167.3324186976176
 20
100.2949879608761
 30
0.0
 40
10.5
  0
LINE
  5
4FF
330
18
100
AcDbEntity
  8
目盛
100
AcDbLine
 10
167.3324186976176
 20
116.7949879608761
 30
0.0
 11
167.3324186976176
 21
113.7949879608761
 31
0.0
  0
LINE
  5
500
330
18
100
AcDbEntity
  8
目盛
100
AcDbLine
 10
168.3684622698513
 20
116.7624289799426
 30
0.0
 11
168.2554393346985
 21
114.9659808687716
 31
0.0
  0
LINE
  5
501
330
18
100
AcDbEntity
  8
目盛
100
AcDbLine
 10
169.4004170514286
 20
116.6648805325649
 30
0.0
 11
169.1748172310129
 21
114.8790740701989
 31
0.0
  0
LINE
  5
502
330
18
100
AcDbEntity
  8
目盛
100
AcDbLine
 10
170.4242103882821
 20
116.5027275978994
 30
0.0
 11
170.0869240220278
 21
114.7346105465878
 31
0.0
  0
LINE
  5
503
330
18
100
AcDbEntity
  8
目盛
100
AcDbLine
 10
171.4358018358377
 20
116.2766101194985
 30
0.0
 11
170.988160038941
 21
114.5331604294669
 31
0.0
  0
LINE
  5
504
330
18
100
AcDbEntity
  8
目盛
100
AcDbLine
 10
172.4311991048043
 20
115.9874204797461
 30
0.0
 11
171.5041481216794
 21
113.1342509308606
 31
0.0
  0
LINE
  5
505
330
18
100
AcDbEntity
  8
目盛
100
AcDbLine
 10
173.4064738169148
 20
115.6362999780322
 30
0.0
 11
172.7438496220824
 21
113.9627023034334
 31
0.0
  0
LINE
  5
506
330
18
100
AcDbEntity
  8
目盛
100
AcDbLine
 10
174.3577770084413
 20
115.2246343265654
 30
0.0
 11
173.5913742836242
 21
113.5959456321265
 31
0.0
  0
LINE
  5
507
330
18
100
AcDbEntity
  8
目盛
100
AcDbLine
 10
175.2813543202959
 20
114.7540481815998
 30
0.0
 11
174.4141977069128
 21
113.1766961575208
 31
0.0
  0
LINE
  5
508
330
18
100
AcDbEntity
  8
目盛
100
AcDbLine
 10
176.1735608147711
 20
114.2263987316593
 30
0.0
 11
175.2090725838089
 21
112.7066084657557
 31
0.0
  0
LINE
  5
50A
330
18
100
AcDbEntity
  8
目盛
100
AcDbLine
 10
161.2583635783204
 20
115.6362999780322
 30
0.0
 11
161.9209877731529
 21
113.9627023034334
 31
0.0
  0
LINE
  5
50B
330
18
100
AcDbEntity
  8
目盛
100
AcDbLine
 10
160.3070603867939
 20
115.2246343265654
 30
0.0
 11
161.073463111611
 21
113.5959456321266
 31
0.0
  0
LINE
  5
50C
330
18
100
AcDbEntity
  8
目盛
100
AcDbLine
 10
159.3834830749393
 20
114.7540481815998
 30
0.0
 11
160.2506396883224
 21
113.1766961575209
 31
0.0
  0
LINE
  5
50D
330
18
100
AcDbEntity
  8
目盛
100
AcDbLine
 10
158.4912765804642
 20
114.2263987316593
 30
0.0
 11
159.4557648114264
 21
112.7066084657557
 31
0.0
  0
LINE
  5
50E
330
18
100
AcDbEntity
  8
目盛
100
AcDbLine
 10
157.6339620347918
 20
113.6437683680627
 30
0.0
 11
159.3973177916692
 21
111.2167173849378
 31
0.0
  0
LINE
  5
50F
330
18
100
AcDbEntity
  8
目盛
100
AcDbLine
 10
166.2963751253839
 20
116.7624289799426
 30
0.0
 11
166.4093980605367
 21
114.9659808687716
 31
0.0
  0
LINE
  5
510
330
18
100
AcDbEntity
  8
目盛
100
AcDbLine
 10
165.2644203438066
 20
116.664880532565
 30
0.0
 11
165.4900201642223
 21
114.8790740701989
 31
0.0
  0
LINE
  5
511
330
18
100
AcDbEntity
  8
目盛
100
AcDbLine
 10
164.2406270069531
 20
116.5027275978994
 30
0.0
 11
164.5779133732075
 21
114.7346105465878
 31
0.0
  0
LINE
  5
512
330
18
100
AcDbEntity
  8
目盛
100
AcDbLine
 10
163.2290355593975
 20
116.2766101194985
 30
0.0
 11
163.6766773562942
 21
114.5331604294669
 31
0.0
  0
LINE
  5
513
330
18
100
AcDbEntity
  8
目盛
100
AcDbLine
 10
162.233638290431
 20
115.9874204797461
 30
0.0
 11
163.1606892735558
 21
113.1342509308606
 31
0.0
  0
LINE
  5
514
330
18
100
AcDbEntity
  8
目盛
100
AcDbLine
 10
153.4010079268344
 20
109.1361300780295
 30
0.0
 11
154.920798192738
 21
108.1716418470673
 31
0.0
  0
LINE
  5
515
330
18
100
AcDbEntity
  8
目盛
100
AcDbLine
 10
152.8733584768939
 20
108.2439235835543
 30
0.0
 11
154.4507105009728
 21
107.3767669701713
 31
0.0
  0
LINE
  5
516
330
18
100
AcDbEntity
  8
目盛
100
AcDbLine
 10
152.4027723319283
 20
107.3203462716997
 30
0.0
 11
154.0314610263671
 21
106.5539435468826
 31
0.0
  0
LINE
  5
517
330
18
100
AcDbEntity
  8
目盛
100
AcDbLine
 10
151.9911066804615
 20
106.3690430801732
 30
0.0
 11
153.6647043550603
 21
105.7064188853408
 31
0.0
  0
LINE
  5
518
330
18
100
AcDbEntity
  8
目盛
100
AcDbLine
 10
151.6399861787476
 20
105.3937683680627
 30
0.0
 11
154.4931557276331
 21
104.4667173849379
 31
0.0
  0
LINE
  5
519
330
18
100
AcDbEntity
  8
目盛
100
AcDbLine
 10
156.8149228667643
 20
113.0084564666766
 30
0.0
 11
157.9622860483119
 21
111.6215326296802
 31
0.0
  0
LINE
  5
51A
330
18
100
AcDbEntity
  8
目盛
100
AcDbLine
 10
156.0373914497943
 20
112.3229703133294
 30
0.0
 11
157.2695762404659
 21
111.0108267839708
 31
0.0
  0
LINE
  5
51B
330
18
100
AcDbEntity
  8
目盛
100
AcDbLine
 10
155.3044363451643
 20
111.5900152086994
 30
0.0
 11
156.6165798745229
 21
110.3578304180278
 31
0.0
  0
LINE
  5
51C
330
18
100
AcDbEntity
  8
目盛
100
AcDbLine
 10
154.6189501918171
 20
110.8124837917294
 30
0.0
 11
156.0058740288135
 21
109.6651206101818
 31
0.0
  0
LINE
  5
51D
330
18
100
AcDbEntity
  8
目盛
100
AcDbLine
 10
153.983638290431
 20
109.9934446237019
 30
0.0
 11
156.4106892735559
 21
108.2300888668244
 31
0.0
  0
LINE
  5
51E
330
18
100
AcDbEntity
  8
目盛
100
AcDbLine
 10
150.8649776785511
 20
99.25894438864242
 30
0.0
 11
152.6614257897221
 21
99.37196732379518
 31
0.0
  0
LINE
  5
51F
330
18
100
AcDbEntity
  8
目盛
100
AcDbLine
 10
150.9625261259287
 20
98.22698960706507
 30
0.0
 11
152.7483325882948
 21
98.45258942748081
 31
0.0
  0
LINE
  5
520
330
18
100
AcDbEntity
  8
目盛
100
AcDbLine
 10
151.1246790605943
 20
97.20319627021163
 30
0.0
 11
152.8927961119059
 21
97.54048263646591
 31
0.0
  0
LINE
  5
521
330
18
100
AcDbEntity
  8
目盛
100
AcDbLine
 10
151.3507965389952
 20
96.19160482265598
 30
0.0
 11
153.0942462290267
 21
96.63924661955272
 31
0.0
  0
LINE
  5
522
330
18
100
AcDbEntity
  8
目盛
100
AcDbLine
 10
151.6399861787476
 20
95.19620755368945
 30
0.0
 11
154.4931557276331
 21
96.12325853681429
 31
0.0
  0
LINE
  5
523
330
18
100
AcDbEntity
  8
目盛
100
AcDbLine
 10
151.3507965389952
 20
104.3983710990961
 30
0.0
 11
153.0942462290267
 21
103.9507293021995
 31
0.0
  0
LINE
  5
524
330
18
100
AcDbEntity
  8
目盛
100
AcDbLine
 10
151.1246790605943
 20
103.3867796515405
 30
0.0
 11
152.8927961119059
 21
103.0494932852862
 31
0.0
  0
LINE
  5
525
330
18
100
AcDbEntity
  8
目盛
100
AcDbLine
 10
150.9625261259287
 20
102.3629863146871
 30
0.0
 11
152.7483325882948
 21
102.1373864942713
 31
0.0
  0
LINE
  5
526
330
18
100
AcDbEntity
  8
目盛
100
AcDbLine
 10
150.8649776785511
 20
101.3310315331097
 30
0.0
 11
152.661425789722
 21
101.2180085979569
 31
0.0
  0
LINE
  5
527
330
18
100
AcDbEntity
  8
目盛
100
AcDbLine
 10
150.8324186976176
 20
100.2949879608761
 30
0.0
 11
153.8324186976177
 21
100.2949879608761
 31
0.0
  0
LINE
  5
528
330
18
100
AcDbEntity
  8
目盛
100
AcDbLine
 10
154.618950191817
 20
89.77749213002269
 30
0.0
 11
156.0058740288135
 21
90.92485531157034
 31
0.0
  0
LINE
  5
529
330
18
100
AcDbEntity
  8
目盛
100
AcDbLine
 10
155.3044363451643
 20
88.99996071305272
 30
0.0
 11
156.6165798745228
 21
90.23214550372435
 31
0.0
  0
LINE
  5
52A
330
18
100
AcDbEntity
  8
目盛
100
AcDbLine
 10
156.0373914497942
 20
88.26700560842281
 30
0.0
 11
157.2695762404659
 21
89.57914913778131
 31
0.0
  0
LINE
  5
52B
330
18
100
AcDbEntity
  8
目盛
100
AcDbLine
 10
156.8149228667642
 20
87.58151945507554
 30
0.0
 11
157.9622860483118
 21
88.96844329207198
 31
0.0
  0
LINE
  5
52C
330
18
100
AcDbEntity
  8
目盛
100
AcDbLine
 10
157.6339620347918
 20
86.94620755368942
 30
0.0
 11
159.3973177916692
 21
89.37325853681427
 31
0.0
  0
LINE
  5
52D
330
18
100
AcDbEntity
  8
目盛
100
AcDbLine
 10
151.9911066804614
 20
94.22093284157888
 30
0.0
 11
153.6647043550602
 21
94.88355703641133
 31
0.0
  0
LINE
  5
52E
330
18
100
AcDbEntity
  8
目盛
100
AcDbLine
 10
152.4027723319282
 20
93.26962965005236
 30
0.0
 11
154.0314610263671
 21
94.03603237486953
 31
0.0
  0
LINE
  5
52F
330
18
100
AcDbEntity
  8
目盛
100
AcDbLine
 10
152.8733584768938
 20
92.34605233819776
 30
0.0
 11
154.4507105009728
 21
93.21320895158088
 31
0.0
  0
LINE
  5
530
330
18
100
AcDbEntity
  8
目盛
100
AcDbLine
 10
153.4010079268344
 20
91.45384584372262
 30
0.0
 11
154.920798192738
 21
92.41833407468481
 31
0.0
  0
LINE
  5
531
330
18
100
AcDbEntity
  8
目盛
100
AcDbLine
 10
153.983638290431
 20
90.59653129805028
 30
0.0
 11
156.4106892735558
 21
92.3598870549277
 31
0.0
  0
LINE
  5
532
330
18
100
AcDbEntity
  8
目盛
100
AcDbLine
 10
163.2290355593975
 20
84.31336580225368
 30
0.0
 11
163.6766773562942
 21
86.05681549228524
 31
0.0
  0
LINE
  5
533
330
18
100
AcDbEntity
  8
目盛
100
AcDbLine
 10
164.2406270069531
 20
84.08724832385278
 30
0.0
 11
164.5779133732074
 21
85.85536537516437
 31
0.0
  0
LINE
  5
534
330
18
100
AcDbEntity
  8
目盛
100
AcDbLine
 10
165.2644203438066
 20
83.92509538918725
 30
0.0
 11
165.4900201642223
 21
85.71090185155327
 31
0.0
  0
LINE
  5
535
330
18
100
AcDbEntity
  8
目盛
100
AcDbLine
 10
166.2963751253839
 20
83.82754694180963
 30
0.0
 11
166.4093980605367
 21
85.62399505298051
 31
0.0
  0
LINE
  5
536
330
18
100
AcDbEntity
  8
目盛
100
AcDbLine
 10
167.3324186976176
 20
83.79498796087611
 30
0.0
 11
167.3324186976176
 21
86.79498796087612
 31
0.0
  0
LINE
  5
537
330
18
100
AcDbEntity
  8
目盛
100
AcDbLine
 10
158.4912765804641
 20
86.36357719009286
 30
0.0
 11
159.4557648114263
 21
87.8833674559965
 31
0.0
  0
LINE
  5
538
330
18
100
AcDbEntity
  8
目盛
100
AcDbLine
 10
159.3834830749393
 20
85.83592774015235
 30
0.0
 11
160.2506396883224
 21
87.41327976423134
 31
0.0
  0
LINE
  5
539
330
18
100
AcDbEntity
  8
目盛
100
AcDbLine
 10
160.3070603867939
 20
85.36534159518678
 30
0.0
 11
161.073463111611
 21
86.99403028962564
 31
0.0
  0
LINE
  5
53A
330
18
100
AcDbEntity
  8
目盛
100
AcDbLine
 10
161.2583635783204
 20
84.95367594371996
 30
0.0
 11
161.9209877731528
 21
86.62727361831882
 31
0.0
  0
LINE
  5
53B
330
18
100
AcDbEntity
  8
目盛
100
AcDbLine
 10
162.2336382904309
 20
84.60255544200609
 30
0.0
 11
163.1606892735558
 21
87.45572499089155
 31
0.0
  0
LINE
  5
53C
330
18
100
AcDbEntity
  8
目盛
100
AcDbLine
 10
173.4064738169148
 20
84.95367594371993
 30
0.0
 11
172.7438496220824
 21
86.62727361831882
 31
0.0
  0
LINE
  5
53D
330
18
100
AcDbEntity
  8
目盛
100
AcDbLine
 10
174.3577770084413
 20
85.3653415951868
 30
0.0
 11
173.5913742836242
 21
86.99403028962558
 31
0.0
  0
LINE
  5
53E
330
18
100
AcDbEntity
  8
目盛
100
AcDbLine
 10
175.2813543202959
 20
85.83592774015238
 30
0.0
 11
174.4141977069128
 21
87.4132797642313
 31
0.0
  0
LINE
  5
53F
330
18
100
AcDbEntity
  8
目盛
100
AcDbLine
 10
176.173560814771
 20
86.36357719009282
 30
0.0
 11
175.2090725838089
 21
87.88336745599645
 31
0.0
  0
LINE
  5
540
330
18
100
AcDbEntity
  8
目盛
100
AcDbLine
 10
177.0308753604434
 20
86.94620755368948
 30
0.0
 11
175.267519603566
 21
89.37325853681432
 31
0.0
  0
LINE
  5
541
330
18
100
AcDbEntity
  8
目盛
100
AcDbLine
 10
168.3684622698512
 20
83.8275469418096
 30
0.0
 11
168.2554393346985
 21
85.62399505298049
 31
0.0
  0
LINE
  5
542
330
18
100
AcDbEntity
  8
目盛
100
AcDbLine
 10
169.4004170514286
 20
83.92509538918721
 30
0.0
 11
169.1748172310128
 21
85.71090185155327
 31
0.0
  0
LINE
  5
543
330
18
100
AcDbEntity
  8
目盛
100
AcDbLine
 10
170.424210388282
 20
84.08724832385273
 30
0.0
 11
170.0869240220277
 21
85.85536537516437
 31
0.0
  0
LINE
  5
544
330
18
100
AcDbEntity
  8
目盛
100
AcDbLine
 10
171.4358018358377
 20
84.31336580225366
 30
0.0
 11
170.988160038941
 21
86.05681549228524
 31
0.0
  0
LINE
  5
545
330
18
100
AcDbEntity
  8
目盛
100
AcDbLine
 10
172.4311991048042
 20
84.60255544200606
 30
0.0
 11
171.5041481216794
 21
87.45572499089153
 31
0.0
  0
LINE
  5
546
330
18
100
AcDbEntity
  8
目盛
100
AcDbLine
 10
181.2638294684009
 20
91.45384584372264
 30
0.0
 11
179.7440392024973
 21
92.41833407468485
 31
0.0
  0
LINE
  5
547
330
18
100
AcDbEntity
  8
目盛
100
AcDbLine
 10
181.7914789183413
 20
92.34605233819781
 30
0.0
 11
180.2141268942624
 21
93.21320895158089
 31
0.0
  0
LINE
  5
548
330
18
100
AcDbEntity
  8
目盛
100
AcDbLine
 10
182.2620650633069
 20
93.26962965005241
 30
0.0
 11
180.6333763688681
 21
94.03603237486953
 31
0.0
  0
LINE
  5
549
330
18
100
AcDbEntity
  8
目盛
100
AcDbLine
 10
182.6737307147738
 20
94.22093284157893
 30
0.0
 11
181.0001330401749
 21
94.88355703641133
 31
0.0
  0
LINE
  5
54A
330
18
100
AcDbEntity
  8
目盛
100
AcDbLine
 10
183.0248512164876
 20
95.19620755368947
 30
0.0
 11
180.1716816676022
 21
96.12325853681433
 31
0.0
  0
LINE
  5
54B
330
18
100
AcDbEntity
  8
目盛
100
AcDbLine
 10
177.849914528471
 20
87.58151945507558
 30
0.0
 11
176.7025513469233
 21
88.96844329207198
 31
0.0
  0
LINE
  5
54C
330
18
100
AcDbEntity
  8
目盛
100
AcDbLine
 10
178.627445945441
 20
88.26700560842278
 30
0.0
 11
177.3952611547693
 21
89.57914913778134
 31
0.0
  0
LINE
  5
54D
330
18
100
AcDbEntity
  8
目盛
100
AcDbLine
 10
179.3604010500709
 20
88.99996071305276
 30
0.0
 11
178.0482575207123
 21
90.23214550372438
 31
0.0
  0
LINE
  5
54E
330
18
100
AcDbEntity
  8
目盛
100
AcDbLine
 10
180.0458872034181
 20
89.77749213002272
 30
0.0
 11
178.6589633664217
 21
90.92485531157036
 31
0.0
  0
LINE
  5
54F
330
18
100
AcDbEntity
  8
目盛
100
AcDbLine
 10
180.6811991048042
 20
90.59653129805031
 30
0.0
 11
178.2541481216794
 21
92.35988705492772
 31
0.0
  0
LINE
  5
550
330
18
100
AcDbEntity
  8
目盛
100
AcDbLine
 10
183.7998597166841
 20
101.3310315331097
 30
0.0
 11
182.0034116055132
 21
101.2180085979569
 31
0.0
  0
LINE
  5
551
330
18
100
AcDbEntity
  8
目盛
100
AcDbLine
 10
183.7023112693065
 20
102.362986314687
 30
0.0
 11
181.9165048069405
 21
102.1373864942713
 31
0.0
  0
LINE
  5
552
330
18
100
AcDbEntity
  8
目盛
100
AcDbLine
 10
183.540158334641
 20
103.3867796515405
 30
0.0
 11
181.7720412833294
 21
103.0494932852862
 31
0.0
  0
LINE
  5
553
330
18
100
AcDbEntity
  8
目盛
100
AcDbLine
 10
183.31404085624
 20
104.3983710990961
 30
0.0
 11
181.5705911662085
 21
103.9507293021994
 31
0.0
  0
LINE
  5
554
330
18
100
AcDbEntity
  8
目盛
100
AcDbLine
 10
183.0248512164877
 20
105.3937683680627
 30
0.0
 11
180.1716816676022
 21
104.4667173849378
 31
0.0
  0
LINE
  5
555
330
18
100
AcDbEntity
  8
目盛
100
AcDbLine
 10
183.3140408562401
 20
96.19160482265597
 30
0.0
 11
181.5705911662085
 21
96.6392466195527
 31
0.0
  0
LINE
  5
556
330
18
100
AcDbEntity
  8
目盛
100
AcDbLine
 10
183.540158334641
 20
97.20319627021163
 30
0.0
 11
181.7720412833293
 21
97.54048263646593
 31
0.0
  0
LINE
  5
557
330
18
100
AcDbEntity
  8
目盛
100
AcDbLine
 10
183.7023112693065
 20
98.22698960706507
 30
0.0
 11
181.9165048069404
 21
98.45258942748081
 31
0.0
  0
LINE
  5
558
330
18
100
AcDbEntity
  8
目盛
100
AcDbLine
 10
183.7998597166841
 20
99.25894438864242
 30
0.0
 11
182.0034116055132
 21
99.37196732379518
 31
0.0
  0
LINE
  5
559
330
18
100
AcDbEntity
  8
目盛
100
AcDbLine
 10
183.8324186976176
 20
100.294987960876
 30
0.0
 11
180.8324186976176
 21
100.2949879608761
 31
0.0
  0
LINE
  5
55A
330
18
100
AcDbEntity
  8
目盛
100
AcDbLine
 10
180.0458872034182
 20
110.8124837917294
 30
0.0
 11
178.6589633664217
 21
109.6651206101818
 31
0.0
  0
LINE
  5
55B
330
18
100
AcDbEntity
  8
目盛
100
AcDbLine
 10
179.3604010500709
 20
111.5900152086994
 30
0.0
 11
178.0482575207124
 21
110.3578304180278
 31
0.0
  0
LINE
  5
55C
330
18
100
AcDbEntity
  8
目盛
100
AcDbLine
 10
178.627445945441
 20
112.3229703133293
 30
0.0
 11
177.3952611547693
 21
111.0108267839708
 31
0.0
  0
LINE
  5
55D
330
18
100
AcDbEntity
  8
目盛
100
AcDbLine
 10
177.849914528471
 20
113.0084564666766
 30
0.0
 11
176.7025513469233
 21
111.6215326296802
 31
0.0
  0
LINE
  5
55E
330
18
100
AcDbEntity
  8
目盛
100
AcDbLine
 10
177.0308753604434
 20
113.6437683680627
 30
0.0
 11
175.267519603566
 21
111.2167173849379
 31
0.0
  0
LINE
  5
55F
330
18
100
AcDbEntity
  8
目盛
100
AcDbLine
 10
182.6737307147738
 20
106.3690430801733
 30
0.0
 11
181.0001330401749
 21
105.7064188853408
 31
0.0
  0
LINE
  5
560
330
18
100
AcDbEntity
  8
目盛
100
AcDbLine
 10
182.2620650633069
 20
107.3203462716998
 30
0.0
 11
180.6333763688681
 21
106.5539435468826
 31
0.0
  0
LINE
  5
561
330
18
100
AcDbEntity
  8
目盛
100
AcDbLine
 10
181.7914789183414
 20
108.2439235835544
 30
0.0
 11
180.2141268942624
 21
107.3767669701712
 31
0.0
  0
LINE
  5
562
330
18
100
AcDbEntity
  8
目盛
100
AcDbLine
 10
181.2638294684008
 20
109.1361300780295
 30
0.0
 11
179.7440392024972
 21
108.1716418470673
 31
0.0
  0
LINE
  5
563
330
18
100
AcDbEntity
  8
目盛
100
AcDbLine
 10
180.6811991048042
 20
109.9934446237019
 30
0.0
 11
178.2541481216794
 21
108.2300888668245
 31
0.0
  0
TEXT
  5
566
330
18
100
AcDbEntity
  8
文字
100
AcDbText
 10
166.5669848932596
 20
111.4424710882589
 30
0.0
 40
1.9
  1
0
 41
0.8
  7
STYLE3
100
AcDbText
  0
TEXT
  5
567
330
18
100
AcDbEntity
  8
文字
100
AcDbText
 10
173.1784123937521
 20
108.9588483116646
 30
0.0
 40
1.9
  1
90
 41
0.8
  7
STYLE3
100
AcDbText
  0
TEXT
  5
568
330
18
100
AcDbEntity
  8
文字
100
AcDbText
 10
177.3133983553218
 20
103.4105541670409
 30
0.0
 40
1.9
  1
80
 41
0.8
  7
STYLE3
100
AcDbText
  0
TEXT
  5
569
330
18
100
AcDbEntity
  8
文字
100
AcDbText
 10
177.2003911414691
 20
95.28578456113269
 30
0.0
 40
1.9
  1
70
 41
0.8
  7
STYLE3
100
AcDbText
  0
TEXT
  5
56A
330
18
100
AcDbEntity
  8
文字
100
AcDbText
 10
173.3403236212499
 20
89.6551644392805
 30
0.0
 40
1.9
  1
60
 41
0.8
  7
STYLE3
100
AcDbText
  0
TEXT
  5
56B
330
18
100
AcDbEntity
  8
文字
100
AcDbText
 10
165.9188681924917
 20
87.38115631174252
 30
0.0
 40
1.9
  1
50
 41
0.8
  7
STYLE3
100
AcDbText
  0
TEXT
  5
56C
330
18
100
AcDbEntity
  8
文字
100
AcDbText
 10
158.4089151590655
 20
89.84524346293119
 30
0.0
 40
1.9
  1
40
 41
0.8
  7
STYLE3
100
AcDbText
  0
TEXT
  5
56D
330
18
100
AcDbEntity
  8
文字
100
AcDbText
 10
154.4369242898495
 20
95.17438126731594
 30
0.0
 40
1.9
  1
30
 41
0.8
  7
STYLE3
100
AcDbText
  0
TEXT
  5
56E
330
18
100
AcDbEntity
  8
文字
100
AcDbText
 10
154.5373514612823
 20
103.3592514253968
 30
0.0
 40
1.9
  1
20
 41
0.8
  7
STYLE3
100
AcDbText
  0
TEXT
  5
56F
330
18
100
AcDbEntity
  8
文字
100
AcDbText
 10
158.6544540445829
 20
109.0345194006169
 30
0.0
 40
1.9
  1
10
 41
0.8
  7
STYLE3
100
AcDbText
  0
LINE
  5
573
330
18
100
AcDbEntity
  8
中心線
 48
0.5
100
AcDbLine
 10
156.5884242421683
 20
100.6849879608761
 30
0.0
 11
166.5742192797271
 21
100.6849879608761
 31
0.0
  0
ARC
  5
574
330
18
100
AcDbEntity
  8
外形線
100
AcDbCircle
 10
161.7259670568737
 20
100.6849879608761
 30
0.0
 40
4.0
100
AcDbArc
 50
30.00000000000032
 51
330.0000000000002
  0
LINE
  5
576
330
18
100
AcDbEntity
  8
中心線
100
AcDbLine
 10
161.7259670568737
 20
95.91082061254565
 30
0.0
 11
161.7259670568737
 21
105.3405122597387
 31
0.0
  0
LINE
  5
579
330
18
100
AcDbEntity
  8
目盛
100
AcDbLine
 10
161.7259670568737
 20
104.684987960876
 30
0.0
 11
161.7259670568737
 21
104.184987960876
 31
0.0
  0
LINE
  5
57A
330
18
100
AcDbEntity
  8
目盛
100
AcDbLine
 10
158.2618654417359
 20
102.6849879608761
 30
0.0
 11
158.6948781436282
 21
102.434987960876
 31
0.0
  0
LINE
  5
57B
330
18
100
AcDbEntity
  8
目盛
100
AcDbLine
 10
158.2618654417359
 20
98.68498796087607
 30
0.0
 11
158.6948781436282
 21
98.93498796087607
 31
0.0
  0
LINE
  5
57C
330
18
100
AcDbEntity
  8
目盛
100
AcDbLine
 10
161.7259670568737
 20
96.68498796087611
 30
0.0
 11
161.7259670568737
 21
97.1849879608761
 31
0.0
  0
LINE
  5
57D
330
18
100
AcDbEntity
  8
目盛
100
AcDbLine
 10
165.1900686720115
 20
98.6849879608761
 30
0.0
 11
164.7570559701192
 21
98.93498796087611
 31
0.0
  0
LINE
  5
57E
330
18
100
AcDbEntity
  8
目盛
100
AcDbLine
 10
165.1900686720115
 20
102.6849879608761
 30
0.0
 11
164.7570559701192
 21
102.434987960876
 31
0.0
  0
TEXT
  5
57F
330
18
100
AcDbEntity
  8
文字
100
AcDbText
 10
161.0846636418772
 20
102.7863322893332
 30
0.0
 40
1.0
  1
4
  7
STYLE3
100
AcDbText
  0
TEXT
  5
580
330
18
100
AcDbEntity
  8
文字
100
AcDbText
 10
163.5402574083223
 20
101.6405326899002
 30
0.0
 40
1.0
  1
5
  7
STYLE3
100
AcDbText
  0
TEXT
  5
581
330
18
100
AcDbEntity
  8
文字
100
AcDbText
 10
163.4208097017831
 20
98.79990316086599
 30
0.0
 40
1.0
  1
0
  7
STYLE3
100
AcDbText
  0
TEXT
  5
582
330
18
100
AcDbEntity
  8
文字
100
AcDbText
 10
160.989105633387
 20
97.7018447753938
 30
0.0
 40
1.0
  1
1
  7
STYLE3
100
AcDbText
  0
TEXT
  5
583
330
18
100
AcDbEntity
  8
文字
100
AcDbText
 10
159.1445960711221
 20
98.77603209891271
 30
0.0
 40
1.0
  1
2
  7
STYLE3
100
AcDbText
  0
TEXT
  5
584
330
18
100
AcDbEntity
  8
文字
100
AcDbText
 10
158.9534800541415
 20
101.5450493520331
 30
0.0
 40
1.0
  1
3
  7
STYLE3
100
AcDbText
  0
TEXT
  5
60E
330
18
100
AcDbEntity
  8
文字
100
AcDbText
 10
163.0416495921039
 20
93.78767898902799
 30
0.0
 40
1.0
  1
NO.196B-T
  7
STYLE3
100
AcDbText
  0
CIRCLE
  5
610
330
18
100
AcDbEntity
  8
針
100
AcDbCircle
 10
167.3324186976176
 20
100.2949879608761
 30
0.0
 40
1.5
  0
LINE
  5
612
330
18
100
AcDbEntity
  8
針
100
AcDbLine
 10
158.5156399132305
 20
112.4302428765003
 30
0.0
 11
158.5722711028368
 21
112.4713878441608
 31
0.0
  0
CIRCLE
  5
614
330
18
100
AcDbEntity
  8
針
100
AcDbCircle
 10
167.3324186976176
 20
100.2949879608761
 30
0.0
 40
1.3
  0
LINE
  5
616
330
18
100
AcDbEntity
  8
針
100
AcDbLine
 10
166.335117396957
 20
102.0881531714437
 30
0.0
 11
158.5722711028368
 21
112.4713878441608
 31
0.0
  0
ARC
  5
619
330
18
100
AcDbEntity
  8
針
100
AcDbCircle
 10
167.1360265336952
 20
102.686939071987
 30
0.0
 40
1.0
100
AcDbArc
 50
216.7829935738394
 51
254.6754659060525
  0
LINE
  5
61A
330
18
100
AcDbEntity
  8
針
100
AcDbLine
 10
165.9352002897299
 20
101.7975963853664
 30
0.0
 11
158.4590087236243
 21
112.3890979088398
 31
0.0
  0
ARC
  5
61B
330
18
100
AcDbEntity
  8
針
100
AcDbCircle
 10
165.1182265229503
 20
101.2209215511711
 30
0.0
 40
1.0
100
AcDbArc
 50
357.3245340939475
 51
35.21700642616058
  0
LINE
  5
61C
330
18
100
AcDbEntity
  8
針
100
AcDbLine
 10
158.5156399132305
 20
112.4302428765003
 30
0.0
 11
158.4590087236243
 21
112.3890979088398
 31
0.0
  0
CIRCLE
  5
61D
330
18
100
AcDbEntity
  8
針
100
AcDbCircle
 10
167.3324186976176
 20
100.2949879608761
 30
0.0
 40
0.3
  0
HATCH
  5
627
330
18
100
AcDbEntity
  8
針
100
AcDbHatch
 10
0.0
 20
0.0
 30
0.0
210
0.0
220
0.0
230
1.0
  2
SOLID
 70
     1
 71
     0
 91
        1
 92
        7
 72
     1
 73
     1
 93
        7
 10
165.9352002897299
 20
101.7975963853663
 42
-0.166860330303522
 10
166.1171364773516
 20
101.1742428301291
 42
-0.1594072402788452
 10
166.8717404837543
 20
101.7224947325839
 42
-0.1668603303035367
 10
166.335117396957
 20
102.0881531714437
 42
0.0
 10
158.5722711028367
 20
112.4713878441608
 42
0.0
 10
158.5156399132305
 20
112.4302428765003
 42
0.0
 10
158.4590087236243
 20
112.3890979088398
 42
0.0
 97
        0
 75
     0
 76
     1
 47
0.0506089553640833
 98
        1
 10
164.5054388951851
 20
104.1022535373633
450
        0
451
        0
460
0.0
461
0.0
452
        0
462
0.0
453
        0
470

  0
CIRCLE
  5
628
330
18
100
AcDbEntity
  8
針
100
AcDbCircle
 10
161.7259670568737
 20
100.6849879608761
 30
0.0
 40
0.7
  0
CIRCLE
  5
629
330
18
100
AcDbEntity
  8
針
100
AcDbCircle
 10
161.7259670568737
 20
100.6849879608761
 30
0.0
 40
0.275
  0
CIRCLE
  5
62A
330
18
100
AcDbEntity
  8
針
100
AcDbCircle
 10
161.7259670568737
 20
100.6849879608761
 30
0.0
 40
0.4
  0
LINE
  5
62C
330
18
100
AcDbEntity
  8
針
100
AcDbLine
 10
164.9698560529915
 20
102.4646464058777
 30
0.0
 11
165.0179549298834
 21
102.376973730307
 31
0.0
  0
LINE
  5
62F
330
18
100
AcDbEntity
  8
針
100
AcDbLine
 10
162.6776149303561
 20
101.0515667643239
 30
0.0
 11
165.0179549298834
 21
102.376973730307
 31
0.0
  0
ARC
  5
631
330
18
100
AcDbEntity
  8
針
100
AcDbCircle
 10
162.9240106474905
 20
100.616493034276
 30
0.0
 40
0.5
100
AcDbArc
 50
119.5242201649264
 51
176.7278297118104
  0
LINE
  5
632
330
18
100
AcDbEntity
  8
針
100
AcDbLine
 10
162.5464565136242
 20
101.2906369892763
 30
0.0
 11
164.9217571760996
 21
102.5523190814485
 31
0.0
  0
ARC
  5
633
330
18
100
AcDbEntity
  8
針
100
AcDbCircle
 10
162.3119073737185
 20
101.7322099741491
 30
0.0
 40
0.5
100
AcDbArc
 50
240.7721702881896
 51
297.9757798350735
  0
LINE
  5
634
330
18
100
AcDbEntity
  8
針
100
AcDbLine
 10
164.9698560529915
 20
102.4646464058777
 30
0.0
 11
164.9217571760996
 21
102.5523190814485
 31
0.0
  0
HATCH
  5
63C
330
18
100
AcDbEntity
  8
針
100
AcDbHatch
 10
0.0
 20
0.0
 30
0.0
210
0.0
220
0.0
230
1.0
  2
SOLID
 70
     1
 71
     0
 91
        1
 92
        7
 72
     1
 73
     1
 93
        8
 10
165.0179549298834
 20
102.376973730307
 42
0.0
 10
164.9698560529915
 20
102.4646464058777
 42
0.0
 10
164.9217571760996
 20
102.5523190814485
 42
0.0
 10
162.5464565136242
 20
101.2906369892763
 42
-0.2549126604385726
 10
162.0677670767218
 20
101.2958666283968
 42
-0.2715629374459081
 10
162.4259670568737
 20
100.6849879608761
 42
-0.0142778933762944
 10
162.4248259160432
 20
100.6450343007138
 42
-0.2549126627183762
 10
162.6776149303561
 20
101.0515667643239
 42
0.0
 97
        0
 75
     0
 76
     1
 47
0.0080572292577995
 98
        1
 10
163.3409217018318
 20
101.5459147900391
450
        0
451
        0
460
0.0
461
0.0
452
        0
462
0.0
453
        0
470

  0
LINE
  5
6CF
330
18
100
AcDbEntity
  8
外形線
100
AcDbLine
 10
72.91158655196207
 20
102.5449879608761
 30
0.0
 11
72.91158655196207
 21
107.0449879608761
 31
0.0
  0
LINE
  5
6EC
330
18
100
AcDbEntity
  8
外形線
100
AcDbLine
 10
82.91158655196205
 20
108.794987960876
 30
0.0
 11
94.91158655196207
 21
108.794987960876
 31
0.0
  0
LINE
  5
6ED
330
18
100
AcDbEntity
  8
外形線
100
AcDbLine
 10
82.91158655196207
 20
100.7949879608761
 30
0.0
 11
94.91158655196207
 21
100.7949879608761
 31
0.0
  0
LINE
  5
6EE
330
18
100
AcDbEntity
  8
外形線
100
AcDbLine
 10
82.91158655196207
 20
100.7949879608761
 30
0.0
 11
82.91158655196205
 21
108.794987960876
 31
0.0
  0
LINE
  5
700
330
18
100
AcDbEntity
  8
外形線
100
AcDbLine
 10
79.41158655196206
 20
108.6949879608761
 30
0.0
 11
82.91158655196204
 21
108.6949879608761
 31
0.0
  0
LINE
  5
701
330
18
100
AcDbEntity
  8
外形線
100
AcDbLine
 10
79.41158655196208
 20
100.894987960876
 30
0.0
 11
82.91158655196207
 21
100.8949879608761
 31
0.0
  0
LINE
  5
702
330
18
100
AcDbEntity
  8
外形線
100
AcDbLine
 10
78.41158655196207
 20
101.894987960876
 30
0.0
 11
78.41158655196206
 21
107.6949879608761
 31
0.0
  0
ARC
  5
703
330
18
100
AcDbEntity
  8
外形線
100
AcDbCircle
 10
79.41158655196206
 20
107.6949879608761
 30
0.0
 40
1.0
100
AcDbArc
 50
90.0
 51
180.0000000000001
  0
ARC
  5
704
330
18
100
AcDbEntity
  8
外形線
100
AcDbCircle
 10
79.41158655196208
 20
101.894987960876
 30
0.0
 40
1.0
100
AcDbArc
 50
180.0000000000001
 51
270.0
  0
LINE
  5
705
330
18
100
AcDbEntity
  8
外形線
100
AcDbLine
 10
72.91158655196207
 20
106.5449879608761
 30
0.0
 11
78.41158655196204
 21
106.5449879608761
 31
0.0
  0
LINE
  5
706
330
18
100
AcDbEntity
  8
外形線
100
AcDbLine
 10
72.91158655196207
 20
103.0449879608761
 30
0.0
 11
78.41158655196206
 21
103.0449879608761
 31
0.0
  0
LINE
  5
709
330
18
100
AcDbEntity
  8
外形線
100
AcDbLine
 10
61.41158655196207
 20
103.4949879608761
 30
0.0
 11
61.41158655196207
 21
106.094987960876
 31
0.0
  0
LINE
  5
70A
330
18
100
AcDbEntity
  8
外形線
100
AcDbLine
 10
61.41158655196207
 20
106.094987960876
 30
0.0
 11
67.91158655196198
 21
107.294987960876
 31
0.0
  0
LINE
  5
70B
330
18
100
AcDbEntity
  8
外形線
100
AcDbLine
 10
61.41158655196207
 20
103.4949879608761
 30
0.0
 11
67.91158655196216
 21
102.2949879608761
 31
0.0
  0
LINE
  5
70C
330
18
100
AcDbEntity
  8
外形線
100
AcDbLine
 10
67.91158655196207
 20
102.2949879608761
 30
0.0
 11
67.91158655196207
 21
107.294987960876
 31
0.0
  0
LINE
  5
70D
330
18
100
AcDbEntity
  8
外形線
100
AcDbLine
 10
67.91158655196198
 20
107.294987960876
 30
0.0
 11
72.41158655196207
 21
107.2949879608761
 31
0.0
  0
LINE
  5
70E
330
18
100
AcDbEntity
  8
外形線
100
AcDbLine
 10
67.91158655196216
 20
102.2949879608761
 30
0.0
 11
72.41158655196207
 21
102.2949879608761
 31
0.0
  0
LINE
  5
70F
330
18
100
AcDbEntity
  8
外形線
100
AcDbLine
 10
72.41158655196207
 20
102.2949879608761
 30
0.0
 11
72.41158655196207
 21
107.2949879608761
 31
0.0
  0
LINE
  5
710
330
18
100
AcDbEntity
  8
外形線
100
AcDbLine
 10
72.41158655196207
 20
107.0449879608761
 30
0.0
 11
72.91158655196207
 21
107.0449879608761
 31
0.0
  0
LINE
  5
711
330
18
100
AcDbEntity
  8
外形線
100
AcDbLine
 10
72.41158655196207
 20
102.5449879608761
 30
0.0
 11
72.91158655196207
 21
102.5449879608761
 31
0.0
  0
LINE
  5
712
330
18
100
AcDbEntity
  8
外形線
 62
     4
100
AcDbLine
 10
68.23341829948359
 20
104.7949879608761
 30
0.0
 11
72.41158655196207
 21
107.2072545261641
 31
0.0
  0
LINE
  5
713
330
18
100
AcDbEntity
  8
外形線
 62
     4
100
AcDbLine
 10
67.91158655196207
 20
105.76387885319
 30
0.0
 11
70.56354531840574
 21
107.2949879608761
 31
0.0
  0
LINE
  5
714
330
18
100
AcDbEntity
  8
外形線
 62
     4
100
AcDbLine
 10
67.91158655196207
 20
106.9185793915693
 30
0.0
 11
68.56354531840577
 21
107.2949879608761
 31
0.0
  0
LINE
  5
715
330
18
100
AcDbEntity
  8
外形線
 62
     4
100
AcDbLine
 10
70.23341829948357
 20
104.7949879608761
 30
0.0
 11
72.41158655196207
 21
106.0525539877848
 31
0.0
  0
LINE
  5
716
330
18
100
AcDbEntity
  8
外形線
 62
     4
100
AcDbLine
 10
72.23341829948359
 20
104.7949879608761
 30
0.0
 11
72.41158655196207
 21
104.8978534494056
 31
0.0
  0
LINE
  5
718
330
18
100
AcDbEntity
  8
外形線
 62
     4
100
AcDbLine
 10
71.5080527654089
 20
104.7949879608761
 30
0.0
 11
67.91158655196207
 21
106.871408697341
 31
0.0
  0
LINE
  5
719
330
18
100
AcDbEntity
  8
外形線
 62
     4
100
AcDbLine
 10
69.50805276540892
 20
104.7949879608761
 30
0.0
 11
67.91158655196207
 21
105.7167081589617
 31
0.0
  0
LINE
  5
71A
330
18
100
AcDbEntity
  8
外形線
 62
     4
100
AcDbLine
 10
72.41158655196207
 20
106.5827335627462
 30
0.0
 11
71.17792574648672
 21
107.2949879608761
 31
0.0
  0
LINE
  5
71B
330
18
100
AcDbEntity
  8
外形線
 62
     4
100
AcDbLine
 10
72.41158655196207
 20
105.4280330243669
 30
0.0
 11
69.17792574648675
 21
107.2949879608761
 31
0.0
  0
LINE
  5
770
330
18
100
AcDbEntity
  8
0
  6
ByBlock
 62
     2
100
AcDbLine
 10
94.91158655196207
 20
108.794987960876
 30
0.0
 11
94.91158655196207
 21
129.2252730927582
 31
0.0
  0
LINE
  5
771
330
18
100
AcDbEntity
  8
0
  6
ByBlock
 62
     2
100
AcDbLine
 10
80.91158655196206
 20
127.9752730927582
 30
0.0
 11
92.41158655196207
 21
127.9752730927582
 31
0.0
  0
INSERT
  5
772
330
18
100
AcDbEntity
  8
0
  6
ByBlock
 62
     2
100
AcDbBlockReference
  2
_OPEN
 10
78.41158655196206
 20
127.9752730927582
 30
0.0
 41
2.5
 42
2.5
 43
2.5
 50
180.0
  0
INSERT
  5
773
330
18
100
AcDbEntity
  8
0
  6
ByBlock
 62
     2
100
AcDbBlockReference
  2
_OPEN
 10
94.91158655196207
 20
127.9752730927582
 30
0.0
 41
2.5
 42
2.5
 43
2.5
  0
MTEXT
  5
774
330
18
100
AcDbEntity
  8
0
  6
ByBlock
 62
     6
100
AcDbMText
 10
86.66158655196207
 20
129.8502730927582
 30
0.0
 40
2.5
 41
0.0
 71
     5
 72
     1
  1
\A1;16.5
  7
STYLE3
 73
     1
 44
1.0
  0
POINT
  5
775
330
18
100
AcDbEntity
  8
DEFPOINTS
  6
ByBlock
 62
     0
100
AcDbPoint
 10
78.41158655196206
 20
107.6949879608761
 30
0.0
  0
POINT
  5
776
330
18
100
AcDbEntity
  8
DEFPOINTS
  6
ByBlock
 62
     0
100
AcDbPoint
 10
94.91158655196207
 20
108.794987960876
 30
0.0
  0
POINT
  5
777
330
18
100
AcDbEntity
  8
DEFPOINTS
  6
ByBlock
 62
     0
100
AcDbPoint
 10
94.91158655196207
 20
127.9752730927582
 30
0.0
  0
LINE
  5
778
330
18
100
AcDbEntity
  8
0
  6
ByBlock
 62
     2
100
AcDbLine
 10
97.01158655196207
 20
114.2949879608761
 30
0.0
 11
97.01158655196207
 21
129.2252730927582
 31
0.0
  0
LINE
  5
779
330
18
100
AcDbEntity
  8
0
  6
ByBlock
 62
     2
100
AcDbLine
 10
92.41158655196207
 20
127.9752730927582
 30
0.0
 11
89.91158655196207
 21
127.9752730927582
 31
0.0
  0
LINE
  5
77A
330
18
100
AcDbEntity
  8
0
  6
ByBlock
 62
     2
100
AcDbLine
 10
99.51158655196207
 20
127.9752730927582
 30
0.0
 11
105.2779570876474
 21
127.9752730927582
 31
0.0
  0
MTEXT
  5
77D
330
18
100
AcDbEntity
  8
0
  6
ByBlock
 62
     6
100
AcDbMText
 10
99.99337832749002
 20
129.9292169917416
 30
0.0
 40
2.5
 41
0.0
 71
     4
 72
     1
  1
\A1;2.1
  7
STYLE3
 73
     1
 44
1.0
  0
LINE
  5
77E
330
18
100
AcDbEntity
  8
0
  6
ByBlock
 62
     2
100
AcDbLine
 10
94.91158655196207
 20
127.9752730927582
 30
0.0
 11
97.01158655196207
 21
127.9752730927582
 31
0.0
  0
LINE
  5
77F
330
18
100
AcDbEntity
  8
0
  6
ByBlock
 62
     2
100
AcDbLine
 10
94.91158655196207
 20
127.9752730927582
 30
0.0
 11
97.01158655196207
 21
127.9752730927582
 31
0.0
  0
INSERT
  5
780
330
18
100
AcDbEntity
  8
0
  6
ByBlock
 62
     2
100
AcDbBlockReference
  2
_OPEN
 10
94.91158655196207
 20
127.9752730927582
 30
0.0
 41
2.5
 42
2.5
 43
2.5
  0
INSERT
  5
781
330
18
100
AcDbEntity
  8
0
  6
ByBlock
 62
     2
100
AcDbBlockReference
  2
_OPEN
 10
97.01158655196207
 20
127.9752730927582
 30
0.0
 41
2.5
 42
2.5
 43
2.5
 50
180.0
  0
POINT
  5
782
330
18
100
AcDbEntity
  8
DEFPOINTS
  6
ByBlock
 62
     0
100
AcDbPoint
 10
94.91158655196207
 20
108.794987960876
 30
0.0
  0
POINT
  5
783
330
18
100
AcDbEntity
  8
DEFPOINTS
  6
ByBlock
 62
     0
100
AcDbPoint
 10
97.01158655196207
 20
114.2949879608761
 30
0.0
  0
POINT
  5
784
330
18
100
AcDbEntity
  8
DEFPOINTS
  6
ByBlock
 62
     0
100
AcDbPoint
 10
97.01158655196207
 20
127.9752730927582
 30
0.0
  0
LINE
  5
785
330
18
100
AcDbEntity
  8
0
  6
ByBlock
 62
     2
100
AcDbLine
 10
78.41158655196206
 20
107.6949879608761
 30
0.0
 11
78.41158655196206
 21
129.2252730927582
 31
0.0
  0
LINE
  5
786
330
18
100
AcDbEntity
  8
0
  6
ByBlock
 62
     2
100
AcDbLine
 10
70.41158655196207
 20
127.9752730927582
 30
0.0
 11
67.91158655196207
 21
127.9752730927582
 31
0.0
  0
LINE
  5
787
330
18
100
AcDbEntity
  8
0
  6
ByBlock
 62
     2
100
AcDbLine
 10
80.91158655196206
 20
127.9752730927582
 30
0.0
 11
83.41158655196206
 21
127.9752730927582
 31
0.0
  0
MTEXT
  5
78A
330
18
100
AcDbEntity
  8
0
  6
ByBlock
 62
     6
100
AcDbMText
 10
73.01216698476188
 20
125.3301927565574
 30
0.0
 40
2.5
 41
0.0
 71
     4
 72
     1
  1
\A1;5.5
  7
STYLE3
 73
     1
 44
1.0
  0
LINE
  5
78B
330
18
100
AcDbEntity
  8
0
  6
ByBlock
 62
     2
100
AcDbLine
 10
72.91158655196207
 20
127.9752730927582
 30
0.0
 11
78.41158655196206
 21
127.9752730927582
 31
0.0
  0
LINE
  5
78C
330
18
100
AcDbEntity
  8
0
  6
ByBlock
 62
     2
100
AcDbLine
 10
72.91158655196207
 20
127.9752730927582
 30
0.0
 11
78.41158655196206
 21
127.9752730927582
 31
0.0
  0
INSERT
  5
78D
330
18
100
AcDbEntity
  8
0
  6
ByBlock
 62
     2
100
AcDbBlockReference
  2
_OPEN
 10
72.91158655196207
 20
127.9752730927582
 30
0.0
 41
2.5
 42
2.5
 43
2.5
  0
INSERT
  5
78E
330
18
100
AcDbEntity
  8
0
  6
ByBlock
 62
     2
100
AcDbBlockReference
  2
_OPEN
 10
78.41158655196206
 20
127.9752730927582
 30
0.0
 41
2.5
 42
2.5
 43
2.5
 50
180.0
  0
POINT
  5
78F
330
18
100
AcDbEntity
  8
DEFPOINTS
  6
ByBlock
 62
     0
100
AcDbPoint
 10
72.91158655196207
 20
107.0449879608761
 30
0.0
  0
POINT
  5
790
330
18
100
AcDbEntity
  8
DEFPOINTS
  6
ByBlock
 62
     0
100
AcDbPoint
 10
78.41158655196206
 20
107.6949879608761
 30
0.0
  0
POINT
  5
791
330
18
100
AcDbEntity
  8
DEFPOINTS
  6
ByBlock
 62
     0
100
AcDbPoint
 10
78.41158655196206
 20
127.9752730927582
 30
0.0
  0
LINE
  5
792
330
18
100
AcDbEntity
  8
0
  6
ByBlock
 62
     2
100
AcDbLine
 10
60.41158655196207
 20
104.7949879608761
 30
0.0
 11
60.41158655196207
 21
129.2252730927582
 31
0.0
  0
LINE
  5
793
330
18
100
AcDbEntity
  8
0
  6
ByBlock
 62
     2
100
AcDbLine
 10
72.91158655196207
 20
107.0449879608761
 30
0.0
 11
72.91158655196207
 21
129.2252730927582
 31
0.0
  0
LINE
  5
794
330
18
100
AcDbEntity
  8
0
  6
ByBlock
 62
     2
100
AcDbLine
 10
62.91158655196207
 20
127.9752730927582
 30
0.0
 11
70.41158655196207
 21
127.9752730927582
 31
0.0
  0
INSERT
  5
795
330
18
100
AcDbEntity
  8
0
  6
ByBlock
 62
     2
100
AcDbBlockReference
  2
_OPEN
 10
60.41158655196207
 20
127.9752730927582
 30
0.0
 41
2.5
 42
2.5
 43
2.5
 50
180.0
  0
INSERT
  5
796
330
18
100
AcDbEntity
  8
0
  6
ByBlock
 62
     2
100
AcDbBlockReference
  2
_OPEN
 10
72.91158655196207
 20
127.9752730927582
 30
0.0
 41
2.5
 42
2.5
 43
2.5
  0
MTEXT
  5
797
330
18
100
AcDbEntity
  8
0
  6
ByBlock
 62
     6
100
AcDbMText
 10
66.66158655196207
 20
129.8502730927582
 30
0.0
 40
2.5
 41
0.0
 71
     5
 72
     1
  1
\A1;12.5
  7
STYLE3
 73
     1
 44
1.0
  0
POINT
  5
798
330
18
100
AcDbEntity
  8
DEFPOINTS
  6
ByBlock
 62
     0
100
AcDbPoint
 10
60.41158655196207
 20
104.7949879608761
 30
0.0
  0
POINT
  5
799
330
18
100
AcDbEntity
  8
DEFPOINTS
  6
ByBlock
 62
     0
100
AcDbPoint
 10
72.91158655196207
 20
107.0449879608761
 30
0.0
  0
POINT
  5
79A
330
18
100
AcDbEntity
  8
DEFPOINTS
  6
ByBlock
 62
     0
100
AcDbPoint
 10
72.91158655196207
 20
127.9752730927582
 30
0.0
  0
LINE
  5
7DA
330
18
100
AcDbEntity
  8
0
  6
ByBlock
 62
     2
100
AcDbLine
 10
89.40707701295947
 20
100.7949879608761
 30
0.0
 11
87.89335238361138
 21
100.7949879608761
 31
0.0
  0
LINE
  5
7DB
330
18
100
AcDbEntity
  8
0
  6
ByBlock
 62
     2
100
AcDbLine
 10
90.4619739453634
 20
108.794987960876
 30
0.0
 11
87.89335238361138
 21
108.794987960876
 31
0.0
  0
LINE
  5
7DC
330
18
100
AcDbEntity
  8
0
  6
ByBlock
 62
     2
100
AcDbLine
 10
89.14335238361138
 20
103.2949879608761
 30
0.0
 11
89.14335238361138
 21
106.2949879608761
 31
0.0
  0
LINE
  5
7DD
330
18
100
AcDbEntity
  8
0
  6
ByBlock
 62
     2
100
AcDbLine
 10
89.14335238361138
 20
108.794987960876
 30
0.0
 11
89.1433523836114
 21
118.0050402072428
 31
0.0
  0
INSERT
  5
7DE
330
18
100
AcDbEntity
  8
0
  6
ByBlock
 62
     2
100
AcDbBlockReference
  2
_OPEN
 10
89.14335238361138
 20
100.7949879608761
 30
0.0
 41
2.5
 42
2.5
 43
2.5
 50
270.0
  0
INSERT
  5
7DF
330
18
100
AcDbEntity
  8
0
  6
ByBlock
 62
     2
100
AcDbBlockReference
  2
_OPEN
 10
89.14335238361138
 20
108.794987960876
 30
0.0
 41
2.5
 42
2.5
 43
2.5
 50
90.0
  0
MTEXT
  5
7E0
330
18
100
AcDbEntity
  8
0
  6
ByBlock
 62
     6
100
AcDbMText
 10
87.2683523836114
 20
113.3324211596237
 30
0.0
 40
2.5
 41
0.0
 71
     5
 72
     1
  1
\A1;φ8.0
  7
STYLE3
 11
0.0000000000000001
 21
1.0
 31
0.0
 73
     1
 44
1.0
  0
POINT
  5
7E1
330
18
100
AcDbEntity
  8
DEFPOINTS
  6
ByBlock
 62
     0
100
AcDbPoint
 10
89.40707701295947
 20
100.7949879608761
 30
0.0
  0
POINT
  5
7E2
330
18
100
AcDbEntity
  8
DEFPOINTS
  6
ByBlock
 62
     0
100
AcDbPoint
 10
90.4619739453634
 20
108.794987960876
 30
0.0
  0
POINT
  5
7E3
330
18
100
AcDbEntity
  8
DEFPOINTS
  6
ByBlock
 62
     0
100
AcDbPoint
 10
89.14335238361138
 20
108.794987960876
 30
0.0
  0
TEXT
  5
7E4
330
18
100
AcDbEntity
  8
文字
100
AcDbText
 10
85.6764574019785
 20
119.5923855229728
 30
0.0
 40
1.0
  1
0
 50
90.0
  7
STYLE3
100
AcDbText
  0
TEXT
  5
7E5
330
18
100
AcDbEntity
  8
文字
100
AcDbText
 10
87.01468606232083
 20
118.3687033378971
 30
0.0
 40
1.0
  1
-0.03
 50
90.0
  7
STYLE3
100
AcDbText
  0
LINE
  5
7F3
330
18
100
AcDbEntity
  8
0
  6
ByBlock
 62
     2
100
AcDbLine
 10
60.41158655196207
 20
136.1979867215316
 30
0.0
 11
60.41158655196207
 21
142.5772780019075
 31
0.0
  0
LINE
  5
7F4
330
18
100
AcDbEntity
  8
0
  6
ByBlock
 62
     2
100
AcDbLine
 10
118.9115865519621
 20
136.1979867215316
 30
0.0
 11
118.9115865519621
 21
142.5772780019075
 31
0.0
  0
LINE
  5
7F5
330
18
100
AcDbEntity
  8
0
  6
ByBlock
 62
     2
100
AcDbLine
 10
62.91158655196207
 20
141.3272780019075
 30
0.0
 11
116.4115865519621
 21
141.3272780019075
 31
0.0
  0
INSERT
  5
7F6
330
18
100
AcDbEntity
  8
0
  6
ByBlock
 62
     2
100
AcDbBlockReference
  2
_OPEN
 10
60.41158655196207
 20
141.3272780019075
 30
0.0
 41
2.5
 42
2.5
 43
2.5
 50
180.0
  0
INSERT
  5
7F7
330
18
100
AcDbEntity
  8
0
  6
ByBlock
 62
     2
100
AcDbBlockReference
  2
_OPEN
 10
118.9115865519621
 20
141.3272780019075
 30
0.0
 41
2.5
 42
2.5
 43
2.5
  0
MTEXT
  5
7F8
330
18
100
AcDbEntity
  8
0
  6
ByBlock
 62
     6
100
AcDbMText
 10
89.66158655196208
 20
143.2022780019075
 30
0.0
 40
2.5
 41
0.0
 71
     5
 72
     1
  1
\A1;58.5
  7
STYLE3
 73
     1
 44
1.0
  0
POINT
  5
7F9
330
18
100
AcDbEntity
  8
DEFPOINTS
  6
ByBlock
 62
     0
100
AcDbPoint
 10
60.41158655196207
 20
136.1979867215316
 30
0.0
  0
POINT
  5
7FA
330
18
100
AcDbEntity
  8
DEFPOINTS
  6
ByBlock
 62
     0
100
AcDbPoint
 10
118.9115865519621
 20
136.1979867215316
 30
0.0
  0
POINT
  5
7FB
330
18
100
AcDbEntity
  8
DEFPOINTS
  6
ByBlock
 62
     0
100
AcDbPoint
 10
118.9115865519621
 20
141.3272780019075
 30
0.0
  0
LINE
  5
7FC
330
18
100
AcDbEntity
  8
0
  6
ByBlock
 62
     2
100
AcDbLine
 10
118.9115865519621
 20
100.2949879608761
 30
0.0
 11
118.9115865519621
 21
136.1979867215316
 31
0.0
  0
LINE
  5
7FD
330
18
100
AcDbEntity
  8
0
  6
ByBlock
 62
     2
100
AcDbLine
 10
99.51158655196207
 20
134.9479867215316
 30
0.0
 11
116.4115865519621
 21
134.9479867215316
 31
0.0
  0
INSERT
  5
7FE
330
18
100
AcDbEntity
  8
0
  6
ByBlock
 62
     2
100
AcDbBlockReference
  2
_OPEN
 10
97.01158655196207
 20
134.9479867215316
 30
0.0
 41
2.5
 42
2.5
 43
2.5
 50
180.0
  0
INSERT
  5
7FF
330
18
100
AcDbEntity
  8
0
  6
ByBlock
 62
     2
100
AcDbBlockReference
  2
_OPEN
 10
118.9115865519621
 20
134.9479867215316
 30
0.0
 41
2.5
 42
2.5
 43
2.5
  0
MTEXT
  5
800
330
18
100
AcDbEntity
  8
0
  6
ByBlock
 62
     6
100
AcDbMText
 10
107.961586551962
 20
136.8229867215316
 30
0.0
 40
2.5
 41
0.0
 71
     5
 72
     1
  1
\A1;21.9
  7
STYLE3
 73
     1
 44
1.0
  0
POINT
  5
801
330
18
100
AcDbEntity
  8
DEFPOINTS
  6
ByBlock
 62
     0
100
AcDbPoint
 10
97.01158655196207
 20
129.2252730927582
 30
0.0
  0
POINT
  5
802
330
18
100
AcDbEntity
  8
DEFPOINTS
  6
ByBlock
 62
     0
100
AcDbPoint
 10
118.9115865519621
 20
100.2949879608761
 30
0.0
  0
POINT
  5
803
330
18
100
AcDbEntity
  8
DEFPOINTS
  6
ByBlock
 62
     0
100
AcDbPoint
 10
118.9115865519621
 20
134.9479867215316
 30
0.0
  0
LINE
  5
804
330
18
100
AcDbEntity
  8
0
  6
ByBlock
 62
     2
100
AcDbLine
 10
60.41158655196207
 20
129.2252730927582
 30
0.0
 11
60.41158655196207
 21
136.1979867215316
 31
0.0
  0
LINE
  5
805
330
18
100
AcDbEntity
  8
0
  6
ByBlock
 62
     2
100
AcDbLine
 10
97.01158655196207
 20
129.2252730927582
 30
0.0
 11
97.01158655196207
 21
136.1979867215316
 31
0.0
  0
LINE
  5
806
330
18
100
AcDbEntity
  8
0
  6
ByBlock
 62
     2
100
AcDbLine
 10
62.91158655196207
 20
134.9479867215316
 30
0.0
 11
94.51158655196207
 21
134.9479867215316
 31
0.0
  0
INSERT
  5
807
330
18
100
AcDbEntity
  8
0
  6
ByBlock
 62
     2
100
AcDbBlockReference
  2
_OPEN
 10
60.41158655196207
 20
134.9479867215316
 30
0.0
 41
2.5
 42
2.5
 43
2.5
 50
180.0
  0
INSERT
  5
808
330
18
100
AcDbEntity
  8
0
  6
ByBlock
 62
     2
100
AcDbBlockReference
  2
_OPEN
 10
97.01158655196207
 20
134.9479867215316
 30
0.0
 41
2.5
 42
2.5
 43
2.5
  0
MTEXT
  5
809
330
18
100
AcDbEntity
  8
0
  6
ByBlock
 62
     6
100
AcDbMText
 10
78.71158655196207
 20
136.8229867215316
 30
0.0
 40
2.5
 41
0.0
 71
     5
 72
     1
  1
\A1;36.6
  7
STYLE3
 73
     1
 44
1.0
  0
POINT
  5
80A
330
18
100
AcDbEntity
  8
DEFPOINTS
  6
ByBlock
 62
     0
100
AcDbPoint
 10
60.41158655196207
 20
129.2252730927582
 30
0.0
  0
POINT
  5
80B
330
18
100
AcDbEntity
  8
DEFPOINTS
  6
ByBlock
 62
     0
100
AcDbPoint
 10
97.01158655196207
 20
129.2252730927582
 30
0.0
  0
POINT
  5
80C
330
18
100
AcDbEntity
  8
DEFPOINTS
  6
ByBlock
 62
     0
100
AcDbPoint
 10
97.01158655196207
 20
134.9479867215316
 30
0.0
  0
HATCH
  5
80D
330
18
100
AcDbEntity
  8
ROGO
 62
     4
100
AcDbHatch
 10
0.0
 20
0.0
 30
0.0
210
0.0
220
0.0
230
1.0
  2
SOLID
 70
     1
 71
     1
 91
        1
 92
        7
 72
     0
 73
     1
 93
       11
 10
171.592103920077
 20
105.4180417451616
 10
172.2037449539135
 20
105.4180417451616
 10
172.4197769806961
 20
105.8512909111005
 10
172.6358090074787
 20
105.4180417451616
 10
173.2474366591013
 20
105.4180417451616
 10
172.8336001287917
 20
106.2479850376534
 10
173.8390628139712
 20
107.0779283301453
 10
173.2274351623486
 20
107.0779283301453
 10
172.9410529589582
 20
106.8967024927514
 10
173.0314180145325
 20
107.0779283301452
 10
172.4197769806961
 20
107.0779283301453
 97
       11
330
85B
330
85E
330
85D
330
85C
330
812
330
80F
330
858
330
857
330
859
330
856
330
85A
 75
     0
 76
     1
 47
0.0514683685270805
 98
        1
 10
172.3671369856981
 20
106.3658046391757
450
        0
451
        0
460
0.0
461
0.0
452
        0
462
0.0
453
        0
470

  0
HATCH
  5
80E
330
18
100
AcDbEntity
  8
ROGO
 62
     4
100
AcDbHatch
 10
0.0
 20
0.0
 30
0.0
210
0.0
220
0.0
230
1.0
  2
SOLID
 70
     1
 71
     1
 91
        1
 92
        5
 93
        8
 72
     4
 94
        3
 73
     0
 74
     0
 95
       26
 96
       22
 40
0.0
 40
0.0
 40
0.0
 40
0.0
 40
0.1927099265173959
 40
0.3217143003795198
 40
0.4147369596493893
 40
0.4841939694029859
 40
0.5742833564486608
 40
0.6400398264178261
 40
0.758780684707237
 40
0.8554340362639557
 40
0.9211738023510461
 40
0.9856350088615965
 40
1.100943575280585
 40
1.18248049438522
 40
1.226394424896
 40
1.288772865988462
 40
1.333817737941422
 40
1.399072885742904
 40
1.436001654955427
 40
1.516362799066885
 40
1.553056395558953
 40
1.553056395558953
 40
1.553056395558953
 40
1.553056395558953
 10
171.1334802244841
 20
107.0779283301453
 10
171.0680714978911
 20
107.0740259333525
 10
170.9588766935815
 20
107.067511184078
 10
170.8389814627125
 20
106.9946761189045
 10
170.7511391975264
 20
106.9523330127419
 10
170.6884902005267
 20
106.8947711673093
 10
170.6425682317657
 20
106.8353139857906
 10
170.5846749692035
 20
106.7644711899623
 10
170.5374646678857
 20
106.6819776209518
 10
170.5134233315237
 20
106.5910553265384
 10
170.4921277439509
 20
106.5185897303431
 10
170.4763345796993
 20
106.4378362803366
 10
170.4803528077837
 20
106.3505941467514
 10
170.4861070942999
 20
106.2695681194104
 10
170.5117985843378
 20
106.2117276671489
 10
170.541056640744
 20
106.1705492508771
 10
170.5768827301262
 20
106.1251957905897
 10
170.616084306433
 20
106.0951583407016
 10
170.6485072098938
 20
106.0407434817613
 10
170.7052624086364
 20
106.0337997533179
 10
170.7413382708769
 20
106.01997966129
 10
170.7526471091634
 20
106.0156474242722
 72
     1
 10
170.7526471091635
 20
106.0156474242722
 11
171.6676036373189
 21
106.0156474242722
 72
     1
 10
171.6676036373189
 20
106.0156474242722
 11
171.8646796680801
 21
106.4108806090248
 72
     1
 10
171.8646796680801
 20
106.4108806090248
 11
171.1854118319565
 21
106.4108806090248
 72
     4
 94
        3
 73
     0
 74
     0
 95
       16
 96
       12
 40
0.0
 40
0.0
 40
0.0
 40
0.0
 40
0.0581978857823591
 40
0.1169960404798265
 40
0.1520664971353318
 40
0.1856918471252166
 40
0.2226204696139885
 40
0.248408665313774
 40
0.2728794248980376
 40
0.3225026120845838
 40
0.4241003886766465
 40
0.4241003886766465
 40
0.4241003886766465
 40
0.4241003886766465
 10
171.1854118319565
 20
106.4108806090248
 10
171.1649227202418
 20
106.4169088061156
 10
171.1237331665087
 20
106.4290273767712
 10
171.1202859334744
 20
106.4877737553055
 10
171.1249822897557
 20
106.529635357211
 10
171.1446506403505
 20
106.5601130479583
 10
171.1685117610522
 20
106.5822895780411
 10
171.1773963145595
 20
106.6111710410378
 10
171.2035116501268
 20
106.6329801589865
 10
171.2498211375488
 20
106.6696382397266
 10
171.3010314139901
 20
106.6774455918526
 10
171.3354370287614
 20
106.6826909599369
 72
     1
 10
171.3354370287615
 20
106.682690959937
 11
172.000213087702
 21
106.682690959937
 72
     1
 10
172.000213087702
 20
106.682690959937
 11
172.1972912054667
 21
107.0779283301452
 72
     1
 10
172.1972912054667
 20
107.0779283301452
 11
171.1334802244841
 21
107.0779283301453
 97
        8
330
810
330
834
330
840
330
839
330
854
330
853
330
855
330
811
 75
     0
 76
     1
 47
0.0514683685270805
 98
        1
 10
171.3170472071946
 20
106.8834210831486
450
        0
451
        0
460
0.0
461
0.0
452
        0
462
0.0
453
        0
470

  0
LINE
  5
80F
102
{ACAD_REACTORS
330
80D
330
818
102
}
330
18
100
AcDbEntity
  8
ROGO
 62
     4
100
AcDbLine
 10
160.9679647550117
 20
105.4180417451616
 30
0.0
 11
172.2037449539135
 21
105.4180417451616
 31
0.0
  0
LINE
  5
810
102
{ACAD_REACTORS
330
80E
102
}
330
18
100
AcDbEntity
  8
ROGO
 62
     4
100
AcDbLine
 10
171.1334802244844
 20
107.0779283301453
 30
0.0
 11
172.1972912054667
 21
107.0779283301453
 31
0.0
  0
LINE
  5
811
102
{ACAD_REACTORS
330
80E
102
}
330
18
100
AcDbEntity
  8
ROGO
 62
     4
100
AcDbLine
 10
172.1972912054667
 20
107.0779283301453
 30
0.0
 11
172.0002130877021
 21
106.682690959937
 31
0.0
  0
LINE
  5
812
102
{ACAD_REACTORS
330
80D
102
}
330
18
100
AcDbEntity
  8
ROGO
 62
     4
100
AcDbLine
 10
172.4197769806961
 20
107.0779283301453
 30
0.0
 11
171.592103920077
 21
105.4180417451616
 31
0.0
  0
HATCH
  5
813
330
18
100
AcDbEntity
  8
ROGO
 62
     4
100
AcDbHatch
 10
0.0
 20
0.0
 30
0.0
210
0.0
220
0.0
230
1.0
  2
SOLID
 70
     1
 71
     0
 91
        1
 92
        7
 72
     0
 73
     1
 93
        4
 10
171.6750657842823
 20
105.5844205872574
 10
161.8148254905006
 20
105.5844205872574
 10
161.7395509827899
 20
105.4180417451616
 10
171.592103920077
 20
105.4180417451616
 97
        0
 75
     0
 76
     1
 47
0.0514683685270805
 98
        1
 10
168.0407671778952
 20
105.5404160574244
450
        0
451
        0
460
0.0
461
0.0
452
        0
462
0.0
453
        0
470

  0
HATCH
  5
814
330
18
100
AcDbEntity
  8
ROGO
 62
     4
100
AcDbHatch
 10
0.0
 20
0.0
 30
0.0
210
0.0
220
0.0
230
1.0
  2
SOLID
 70
     1
 71
     1
 91
        2
 92
        7
 72
     0
 73
     1
 93
        8
 10
166.3312818399572
 20
107.0779283301453
 10
165.7173250239074
 20
107.0779283301452
 10
164.9512936174936
 20
106.0156474242722
 10
165.5396071016668
 20
106.0156474242722
 10
165.6854547418602
 20
106.2178991362084
 10
166.3631521220044
 20
106.2178991362084
 10
166.5089997621978
 20
106.0156474242722
 10
167.097313246371
 20
106.0156474242722
 97
        8
330
816
330
81E
330
823
330
81F
330
815
330
837
330
83D
330
836
 92
       22
 72
     0
 73
     1
 93
        3
 10
166.2093222178808
 20
106.4312201156546
 10
165.8392846459838
 20
106.4312201156547
 10
166.0243034319323
 20
106.6877917416941
 97
        3
330
842
330
841
330
843
 75
     0
 76
     1
 47
0.0514683685270805
 98
        2
 10
166.4026271632455
 20
106.5336801969066
 10
166.4026271632455
 20
106.5336801969066
450
        0
451
        0
460
0.0
461
0.0
452
        0
462
0.0
453
        0
470

  0
LINE
  5
815
102
{ACAD_REACTORS
330
814
102
}
330
18
100
AcDbEntity
  8
ROGO
 62
     4
100
AcDbLine
 10
165.6854547418602
 20
106.2178991362084
 30
0.0
 11
166.3631521220044
 21
106.2178991362084
 31
0.0
  0
LINE
  5
816
102
{ACAD_REACTORS
330
814
102
}
330
18
100
AcDbEntity
  8
ROGO
 62
     4
100
AcDbLine
 10
165.7173250239074
 20
107.0779283301453
 30
0.0
 11
166.3312818399572
 21
107.0779283301453
 31
0.0
  0
LINE
  5
817
330
18
100
AcDbEntity
  8
ROGO
 62
     4
100
AcDbLine
 10
161.8032869413587
 20
105.5844205872574
 30
0.0
 11
171.6750657842824
 21
105.5844205872574
 31
0.0
  0
HATCH
  5
818
330
18
100
AcDbEntity
  8
ROGO
 62
     4
100
AcDbHatch
 10
0.0
 20
0.0
 30
0.0
210
0.0
220
0.0
230
1.0
  2
SOLID
 70
     1
 71
     1
 91
        2
 92
        5
 93
        6
 72
     1
 10
160.9679647550117
 20
105.4180417451616
 11
161.7395509827899
 21
105.4180417451616
 72
     1
 10
161.7395509827899
 20
105.4180417451616
 11
162.0099247438613
 21
106.0156474242722
 72
     1
 10
162.0099247438613
 20
106.0156474242722
 11
162.7311996136472
 21
106.0156474242722
 72
     4
 94
        3
 73
     0
 74
     0
 95
       18
 96
       14
 40
0.108740278791501
 40
0.108740278791501
 40
0.108740278791501
 40
0.108740278791501
 40
0.6623149649549278
 40
1.384304701649787
 40
2.097394834876493
 40
2.774073369849618
 40
3.428974823686337
 40
4.005208313035923
 40
4.455173659284313
 40
4.720999734343524
 40
5.086034088486724
 40
5.569973738255373
 40
6.060470601257719
 40
6.060470601257719
 40
6.060470601257719
 40
6.060470601257719
 10
162.7311996136472
 20
106.0156474242722
 10
162.78196174737
 20
106.0160254345118
 10
162.8989294726356
 20
106.0168964577453
 10
163.0625664050169
 20
106.1043149027107
 10
163.2177409710835
 20
106.2156796323735
 10
163.342723527741
 20
106.3548182433798
 10
163.4205914261057
 20
106.5138994072967
 10
163.4326529174352
 20
106.6663640908866
 10
163.4252896733087
 20
106.7869617601491
 10
163.3726755956387
 20
106.8710213295802
 10
163.3179768414779
 20
106.9563331963365
 10
163.2176778224838
 20
107.0302335040181
 10
163.1354972994073
 20
107.062612824149
 10
163.0937068319883
 20
107.0779283301453
 72
     1
 10
163.0937068319883
 20
107.0779283301453
 11
161.7892612001497
 21
107.0779283301453
 72
     1
 10
161.7892612001497
 20
107.0779283301453
 11
160.9679647550117
 21
105.4180417451616
 97
        6
330
81A
330
824
330
81B
330
80F
330
821
330
820
 92
       20
 93
        4
 72
     1
 10
162.1768652351429
 20
106.3846350999553
 11
162.3046790341645
 21
106.6671412568446
 72
     1
 10
162.3046790341645
 20
106.6671412568446
 11
162.6331060243147
 21
106.6671412568446
 72
     4
 94
        3
 73
     0
 74
     0
 95
       15
 96
       11
 40
0.0
 40
0.0
 40
0.0
 40
0.0
 40
0.1245558822265106
 40
0.1813465134536237
 40
0.2458076605629357
 40
0.2897215910737034
 40
0.3591719276284023
 40
0.4007707820523276
 40
0.4721407847095294
 40
0.4959308007789738
 40
0.4959308007789738
 40
0.4959308007789738
 40
0.4959308007789738
 10
162.6331060243147
 20
106.6671412568446
 10
162.6798867982585
 20
106.6673555377601
 10
162.7479970319922
 20
106.6676675189868
 10
162.7852421336105
 20
106.5834149628906
 10
162.7685471032125
 20
106.529169460003
 10
162.7475600893355
 20
106.4734762356387
 10
162.7104712825701
 20
106.4356318497099
 10
162.6606926713846
 20
106.3991813263781
 10
162.6136495049978
 20
106.394768827311
 10
162.5830532060368
 20
106.3866618462025
 10
162.5754041276351
 20
106.3846350999552
 72
     1
 10
162.5754041276351
 20
106.3846350999552
 11
162.1768652351429
 21
106.3846350999553
 97
        4
330
827
330
825
330
829
330
826
 75
     0
 76
     1
 47
0.0514683685270805
 98
        2
 10
161.7962332596697
 20
106.5616595505079
 10
161.7962332596697
 20
106.5616595505079
450
        0
451
        0
460
0.0
461
0.0
452
        0
462
0.0
453
        0
470

  0
HATCH
  5
819
330
18
100
AcDbEntity
  8
ROGO
 62
     4
100
AcDbHatch
 10
0.0
 20
0.0
 30
0.0
210
0.0
220
0.0
230
1.0
  2
SOLID
 70
     1
 71
     1
 91
        1
 92
        1
 93
       12
 72
     1
 10
163.864340944728
 20
107.0779283301453
 11
165.3011200632953
 21
107.0779283301453
 72
     1
 10
165.3011200632953
 20
107.0779283301453
 11
165.1807192449311
 21
106.8345914638934
 72
     1
 10
165.1807192449311
 20
106.8345914638934
 11
164.4255844468148
 21
106.8345914638934
 72
     1
 10
164.4255844468148
 20
106.8345914638934
 11
164.331445968548
 21
106.6443322729145
 72
     1
 10
164.331445968548
 20
106.6443322729145
 11
165.0865807666644
 21
106.6443322729145
 72
     1
 10
165.0865807666644
 20
106.6443322729145
 11
164.9900505760947
 21
106.4492392960473
 72
     1
 10
164.9900505760947
 20
106.4492392960473
 11
164.2349157779784
 21
106.4492392960473
 72
     1
 10
164.2349157779784
 20
106.4492392960473
 11
164.140773314341
 21
106.2589720504088
 72
     1
 10
164.140773314341
 20
106.2589720504088
 11
164.8959081124573
 21
106.2589720504088
 72
     1
 10
164.8959081124573
 20
106.2589720504088
 11
164.7755133503884
 21
106.0156474242722
 72
     1
 10
164.7755133503884
 20
106.0156474242722
 11
163.3387342318211
 21
106.0156474242722
 72
     1
 10
163.3387342318211
 20
106.0156474242722
 11
163.8643409447281
 21
107.0779283301453
 97
       12
330
828
330
82A
330
82C
330
82B
330
82D
330
830
330
82F
330
831
330
82E
330
81D
330
822
330
81C
 75
     0
 76
     1
 98
        1
 10
105.0933378152136
 20
33.62595705337893
450
        0
451
        0
460
0.0
461
0.0
452
        0
462
0.0
453
        0
470

  0
SPLINE
  5
81A
102
{ACAD_REACTORS
330
818
102
}
330
18
100
AcDbEntity
  8
ROGO
 62
     4
100
AcDbSpline
210
0.0
220
0.0
230
1.0
 70
     8
 71
     3
 72
    18
 73
    14
 74
     0
 42
0.0000000001
 43
0.0000000001
 40
0.1087402787915014
 40
0.1087402787915014
 40
0.1087402787915014
 40
0.1087402787915014
 40
0.5992371417938475
 40
1.083176791562496
 40
1.448211145705696
 40
1.714037220764907
 40
2.164002567013297
 40
2.740236056362883
 40
3.395137510199602
 40
4.071816045172726
 40
4.784906178399433
 40
5.506895915094292
 40
6.060470601257719
 40
6.060470601257719
 40
6.060470601257719
 40
6.060470601257719
 10
163.0937068319883
 20
107.0779283301453
 30
0.0
 10
163.1354972994073
 20
107.062612824149
 30
0.0
 10
163.2176778224838
 20
107.0302335040181
 30
0.0
 10
163.3179768414779
 20
106.9563331963365
 30
0.0
 10
163.3726755956387
 20
106.8710213295802
 30
0.0
 10
163.4252896733087
 20
106.7869617601491
 30
0.0
 10
163.4326529174352
 20
106.6663640908866
 30
0.0
 10
163.4205914261057
 20
106.5138994072967
 30
0.0
 10
163.342723527741
 20
106.3548182433798
 30
0.0
 10
163.2177409710835
 20
106.2156796323735
 30
0.0
 10
163.0625664050169
 20
106.1043149027107
 30
0.0
 10
162.8989294726356
 20
106.0168964577453
 30
0.0
 10
162.78196174737
 20
106.0160254345118
 30
0.0
 10
162.7311996136472
 20
106.0156474242722
 30
0.0
  0
LINE
  5
81B
102
{ACAD_REACTORS
330
818
102
}
330
18
100
AcDbEntity
  8
ROGO
 62
     4
100
AcDbLine
 10
161.7892612001497
 20
107.0779283301453
 30
0.0
 11
160.9679647550117
 21
105.4180417451616
 31
0.0
  0
LINE
  5
81C
102
{ACAD_REACTORS
330
819
102
}
330
18
100
AcDbEntity
  8
ROGO
 62
     4
100
AcDbLine
 10
163.8643409447281
 20
107.0779283301453
 30
0.0
 11
163.3387342318211
 21
106.0156474242722
 31
0.0
  0
LINE
  5
81D
102
{ACAD_REACTORS
330
819
102
}
330
18
100
AcDbEntity
  8
ROGO
 62
     4
100
AcDbLine
 10
164.8959081124573
 20
106.2589720504088
 30
0.0
 11
164.7755133503884
 21
106.0156474242722
 31
0.0
  0
LINE
  5
81E
102
{ACAD_REACTORS
330
814
102
}
330
18
100
AcDbEntity
  8
ROGO
 62
     4
100
AcDbLine
 10
165.7173250239074
 20
107.0779283301453
 30
0.0
 11
164.9512936174937
 21
106.0156474242722
 31
0.0
  0
LINE
  5
81F
102
{ACAD_REACTORS
330
814
102
}
330
18
100
AcDbEntity
  8
ROGO
 62
     4
100
AcDbLine
 10
165.6854547418602
 20
106.2178991362084
 30
0.0
 11
165.5396071016669
 21
106.0156474242722
 31
0.0
  0
LINE
  5
820
102
{ACAD_REACTORS
330
818
102
}
330
18
100
AcDbEntity
  8
ROGO
 62
     4
100
AcDbLine
 10
162.7311996138972
 20
106.0156474242722
 30
0.0
 11
162.0099247438613
 21
106.0156474242722
 31
0.0
  0
LINE
  5
821
102
{ACAD_REACTORS
330
818
102
}
330
18
100
AcDbEntity
  8
ROGO
 62
     4
100
AcDbLine
 10
162.0099247438613
 20
106.0156474242722
 30
0.0
 11
161.7395509827899
 21
105.4180417451616
 31
0.0
  0
LINE
  5
822
102
{ACAD_REACTORS
330
819
102
}
330
18
100
AcDbEntity
  8
ROGO
 62
     4
100
AcDbLine
 10
163.3387342318211
 20
106.0156474242722
 30
0.0
 11
164.7755133503884
 21
106.0156474242722
 31
0.0
  0
LINE
  5
823
102
{ACAD_REACTORS
330
814
102
}
330
18
100
AcDbEntity
  8
ROGO
 62
     4
100
AcDbLine
 10
164.9512936174937
 20
106.0156474242722
 30
0.0
 11
165.5396071016669
 21
106.0156474242722
 31
0.0
  0
LINE
  5
824
102
{ACAD_REACTORS
330
818
102
}
330
18
100
AcDbEntity
  8
ROGO
 62
     4
100
AcDbLine
 10
161.7892612001497
 20
107.0779283301453
 30
0.0
 11
163.0937068319883
 21
107.0779283301453
 31
0.0
  0
LINE
  5
825
102
{ACAD_REACTORS
330
818
102
}
330
18
100
AcDbEntity
  8
ROGO
 62
     4
100
AcDbLine
 10
162.6331060243147
 20
106.6671412568446
 30
0.0
 11
162.3046790341645
 21
106.6671412568446
 31
0.0
  0
LINE
  5
826
102
{ACAD_REACTORS
330
818
102
}
330
18
100
AcDbEntity
  8
ROGO
 62
     4
100
AcDbLine
 10
162.5754041276351
 20
106.3846350999552
 30
0.0
 11
162.1768652351429
 21
106.3846350999552
 31
0.0
  0
LINE
  5
827
102
{ACAD_REACTORS
330
818
102
}
330
18
100
AcDbEntity
  8
ROGO
 62
     4
100
AcDbLine
 10
162.3046790341645
 20
106.6671412568446
 30
0.0
 11
162.1768652351429
 21
106.3846350999552
 31
0.0
  0
LINE
  5
828
102
{ACAD_REACTORS
330
819
102
}
330
18
100
AcDbEntity
  8
ROGO
 62
     4
100
AcDbLine
 10
163.864340944728
 20
107.0779283301453
 30
0.0
 11
165.3011200632953
 21
107.0779283301453
 31
0.0
  0
SPLINE
  5
829
102
{ACAD_REACTORS
330
818
102
}
330
18
100
AcDbEntity
  8
ROGO
 62
     4
100
AcDbSpline
210
0.0
220
0.0
230
1.0
 70
     8
 71
     3
 72
    15
 73
    11
 74
     9
 42
0.0000000001
 43
0.0000000001
 44
0.0000000001
 40
0.0
 40
0.0
 40
0.0
 40
0.0
 40
0.1245558822265106
 40
0.1813465134536237
 40
0.2458076605629357
 40
0.2897215910737034
 40
0.3591719276284023
 40
0.4007707820523276
 40
0.4721407847095294
 40
0.4959308007789738
 40
0.4959308007789738
 40
0.4959308007789738
 40
0.4959308007789738
 10
162.6331060243147
 20
106.6671412568446
 30
0.0
 10
162.6798867982585
 20
106.6673555377601
 30
0.0
 10
162.7479970319922
 20
106.6676675189868
 30
0.0
 10
162.7852421336105
 20
106.5834149628906
 30
0.0
 10
162.7685471032125
 20
106.529169460003
 30
0.0
 10
162.7475600893355
 20
106.4734762356387
 30
0.0
 10
162.7104712825701
 20
106.4356318497099
 30
0.0
 10
162.6606926713846
 20
106.3991813263781
 30
0.0
 10
162.6136495049978
 20
106.394768827311
 30
0.0
 10
162.5830532060368
 20
106.3866618462025
 30
0.0
 10
162.5754041276351
 20
106.3846350999552
 30
0.0
 11
162.6331060243147
 21
106.6671412568446
 31
0.0
 11
162.7542801068811
 21
106.6383140212605
 31
0.0
 11
162.7773609319124
 21
106.5864251851678
 31
0.0
 11
162.7658206852954
 21
106.5230054548415
 31
0.0
 11
162.7485101494714
 21
106.4826473250237
 31
0.0
 11
162.7023484994087
 21
106.4307584889311
 31
0.0
 11
162.6677274277605
 21
106.4076967004638
 31
0.0
 11
162.5984849526665
 21
106.390400547072
 31
0.0
 11
162.5754041276351
 21
106.3846350999552
 31
0.0
  0
LINE
  5
82A
102
{ACAD_REACTORS
330
819
102
}
330
18
100
AcDbEntity
  8
ROGO
 62
     4
100
AcDbLine
 10
165.3011200632953
 20
107.0779283301453
 30
0.0
 11
165.1807192449311
 21
106.8345914638934
 31
0.0
  0
LINE
  5
82B
102
{ACAD_REACTORS
330
819
102
}
330
18
100
AcDbEntity
  8
ROGO
 62
     4
100
AcDbLine
 10
164.4255844468148
 20
106.8345914638934
 30
0.0
 11
164.331445968548
 21
106.6443322729145
 31
0.0
  0
LINE
  5
82C
102
{ACAD_REACTORS
330
819
102
}
330
18
100
AcDbEntity
  8
ROGO
 62
     4
100
AcDbLine
 10
164.4255844468148
 20
106.8345914638934
 30
0.0
 11
165.1807192449311
 21
106.8345914638934
 31
0.0
  0
LINE
  5
82D
102
{ACAD_REACTORS
330
819
102
}
330
18
100
AcDbEntity
  8
ROGO
 62
     4
100
AcDbLine
 10
164.331445968548
 20
106.6443322729145
 30
0.0
 11
165.0865807666644
 21
106.6443322729145
 31
0.0
  0
LINE
  5
82E
102
{ACAD_REACTORS
330
819
102
}
330
18
100
AcDbEntity
  8
ROGO
 62
     4
100
AcDbLine
 10
164.140773314341
 20
106.2589720504088
 30
0.0
 11
164.8959081124573
 21
106.2589720504088
 31
0.0
  0
LINE
  5
82F
102
{ACAD_REACTORS
330
819
102
}
330
18
100
AcDbEntity
  8
ROGO
 62
     4
100
AcDbLine
 10
164.2349157779784
 20
106.4492392960473
 30
0.0
 11
164.9900505760947
 21
106.4492392960473
 31
0.0
  0
LINE
  5
830
102
{ACAD_REACTORS
330
819
102
}
330
18
100
AcDbEntity
  8
ROGO
 62
     4
100
AcDbLine
 10
165.0865807666644
 20
106.6443322729145
 30
0.0
 11
164.9900505760947
 21
106.4492392960473
 31
0.0
  0
LINE
  5
831
102
{ACAD_REACTORS
330
819
102
}
330
18
100
AcDbEntity
  8
ROGO
 62
     4
100
AcDbLine
 10
164.2349157779784
 20
106.4492392960473
 30
0.0
 11
164.140773314341
 21
106.2589720504088
 31
0.0
  0
HATCH
  5
832
330
18
100
AcDbEntity
  8
ROGO
 62
     4
100
AcDbHatch
 10
0.0
 20
0.0
 30
0.0
210
0.0
220
0.0
230
1.0
  2
SOLID
 70
     1
 71
     1
 91
        2
 92
        7
 72
     1
 73
     1
 93
        4
 10
169.7424991742009
 20
107.0779283301453
 42
0.0
 10
169.3129512106537
 20
107.0779283301453
 42
0.959739618504987
 10
169.312951210654
 20
106.0156474242722
 42
0.0
 10
169.7733683867938
 20
106.0156474242722
 42
0.97136276557683
 97
        4
330
852
330
83A
330
83F
330
83B
 92
       22
 72
     1
 73
     1
 93
        2
 10
169.6708629331973
 20
106.4953774476509
 42
0.103417365020592
 10
169.6771886993316
 20
106.5406348708849
 42
0.0
 97
        8
330
84A
330
850
330
84C
330
84F
330
84B
330
84E
330
849
330
84D
 75
     0
 76
     1
 47
0.0514683685270805
 98
        2
 10
169.8469214509303
 20
106.645597235394
 10
169.8469214509303
 20
106.645597235394
450
        0
451
        0
460
0.0
461
0.0
452
        0
462
0.0
453
        0
470

  0
HATCH
  5
833
330
18
100
AcDbEntity
  8
ROGO
 62
     4
100
AcDbHatch
 10
0.0
 20
0.0
 30
0.0
210
0.0
220
0.0
230
1.0
  2
SOLID
 70
     1
 71
     1
 91
        1
 92
        5
 93
        8
 72
     1
 10
168.5774495187445
 20
106.682690959937
 11
168.7745276365092
 21
107.0779283301453
 72
     1
 10
168.7745276365092
 20
107.0779283301453
 11
167.7107166555267
 21
107.0779283301453
 72
     4
 94
        3
 73
     0
 74
     0
 95
       26
 96
       22
 40
0.0
 40
0.0
 40
0.0
 40
0.0
 40
0.1927099265173915
 40
0.3217143003795154
 40
0.414736959649385
 40
0.4841939694030216
 40
0.5742833564486675
 40
0.640039826417844
 40
0.7587806847072299
 40
0.8554340362639674
 40
0.9211738023510241
 40
0.9856350088616164
 40
1.100943575280605
 40
1.182480494385226
 40
1.226394424896031
 40
1.288772865988476
 40
1.333817737941426
 40
1.399072885742908
 40
1.436001654955431
 40
1.516362799066878
 40
1.55305639555896
 40
1.55305639555896
 40
1.55305639555896
 40
1.55305639555896
 10
167.7107166555265
 20
107.0779283301453
 10
167.6453079289335
 20
107.0740259333525
 10
167.536113124624
 20
107.067511184078
 10
167.4162178937549
 20
106.9946761189045
 10
167.3283756285688
 20
106.952333012742
 10
167.2657266315692
 20
106.8947711673093
 10
167.2198046628081
 20
106.8353139857906
 10
167.161911400246
 20
106.7644711899623
 10
167.1147010989281
 20
106.6819776209518
 10
167.0906597625661
 20
106.5910553265384
 10
167.0693641749934
 20
106.5185897303432
 10
167.0535710107417
 20
106.4378362803366
 10
167.0575892388261
 20
106.3505941467515
 10
167.0633435253422
 20
106.2695681194104
 10
167.0890350153803
 20
106.211727667149
 10
167.1182930717864
 20
106.1705492508771
 10
167.1541191611687
 20
106.1251957905898
 10
167.1933207374754
 20
106.0951583407016
 10
167.2257436409362
 20
106.0407434817612
 10
167.2824988396788
 20
106.0337997533179
 10
167.3185747019193
 20
106.01997966129
 10
167.3298835402059
 20
106.0156474242722
 72
     1
 10
167.3298835402059
 20
106.0156474242722
 11
168.2448400683613
 21
106.0156474242722
 72
     1
 10
168.2448400683613
 20
106.0156474242722
 11
168.4419160991226
 21
106.4108806090248
 72
     1
 10
168.4419160991226
 20
106.4108806090248
 11
167.762648262999
 21
106.4108806090248
 72
     4
 94
        3
 73
     0
 74
     0
 95
       16
 96
       12
 40
0.0
 40
0.0
 40
0.0
 40
0.0
 40
0.0581978857823273
 40
0.1169960404798281
 40
0.1520664971353054
 40
0.1856918471251902
 40
0.2226204696139844
 40
0.2484086653137572
 40
0.2728794248980106
 40
0.3225026120845569
 40
0.4241003886766307
 40
0.4241003886766307
 40
0.4241003886766307
 40
0.4241003886766307
 10
167.762648262999
 20
106.4108806090248
 10
167.7421591512841
 20
106.4169088061156
 10
167.7009695975512
 20
106.4290273767712
 10
167.6975223645168
 20
106.4877737553055
 10
167.702218720798
 20
106.529635357211
 10
167.721887071393
 20
106.5601130479584
 10
167.7457481920946
 20
106.5822895780411
 10
167.7546327456019
 20
106.6111710410379
 10
167.7807480811692
 20
106.6329801589866
 10
167.8270575685914
 20
106.6696382397266
 10
167.8782678450326
 20
106.6774455918527
 10
167.9126734598038
 20
106.682690959937
 72
     1
 10
167.9126734598038
 20
106.682690959937
 11
168.5774495187445
 21
106.682690959937
 97
        8
330
848
330
835
330
83C
330
838
330
847
330
844
330
846
330
845
 75
     0
 76
     1
 47
0.0514683685270805
 98
        1
 10
168.0827707424916
 20
106.8414521467262
450
        0
451
        0
460
0.0
461
0.0
452
        0
462
0.0
453
        0
470

  0
SPLINE
  5
834
102
{ACAD_REACTORS
330
80E
102
}
330
18
100
AcDbEntity
  8
ROGO
 62
     4
100
AcDbSpline
210
0.0
220
0.0
230
1.0
 70
     8
 71
     3
 72
    26
 73
    22
 74
    20
 42
0.0000000001
 43
0.0000000001
 44
0.0000000001
 40
0.0
 40
0.0
 40
0.0
 40
0.0
 40
0.1927099265173959
 40
0.3217143003795198
 40
0.4147369596493893
 40
0.4841939694029859
 40
0.5742833564486608
 40
0.6400398264178261
 40
0.758780684707237
 40
0.8554340362639557
 40
0.9211738023510461
 40
0.9856350088615965
 40
1.100943575280585
 40
1.18248049438522
 40
1.226394424896
 40
1.288772865988462
 40
1.333817737941422
 40
1.399072885742904
 40
1.436001654955427
 40
1.516362799066885
 40
1.553056395558953
 40
1.553056395558953
 40
1.553056395558953
 40
1.553056395558953
 10
171.1334802244841
 20
107.0779283301453
 30
0.0
 10
171.0680714978911
 20
107.0740259333525
 30
0.0
 10
170.9588766935815
 20
107.067511184078
 30
0.0
 10
170.8389814627125
 20
106.9946761189045
 30
0.0
 10
170.7511391975264
 20
106.9523330127419
 30
0.0
 10
170.6884902005267
 20
106.8947711673093
 30
0.0
 10
170.6425682317657
 20
106.8353139857906
 30
0.0
 10
170.5846749692035
 20
106.7644711899623
 30
0.0
 10
170.5374646678857
 20
106.6819776209518
 30
0.0
 10
170.5134233315237
 20
106.5910553265384
 30
0.0
 10
170.4921277439509
 20
106.5185897303431
 30
0.0
 10
170.4763345796993
 20
106.4378362803366
 30
0.0
 10
170.4803528077837
 20
106.3505941467514
 30
0.0
 10
170.4861070942999
 20
106.2695681194104
 30
0.0
 10
170.5117985843378
 20
106.2117276671489
 30
0.0
 10
170.541056640744
 20
106.1705492508771
 30
0.0
 10
170.5768827301262
 20
106.1251957905897
 30
0.0
 10
170.616084306433
 20
106.0951583407016
 30
0.0
 10
170.6485072098938
 20
106.0407434817613
 30
0.0
 10
170.7052624086364
 20
106.0337997533179
 30
0.0
 10
170.7413382708769
 20
106.01997966129
 30
0.0
 10
170.7526471091634
 20
106.0156474242722
 30
0.0
 11
171.1334802244841
 21
107.0779283301453
 31
0.0
 11
170.9430636668237
 21
107.0482862933206
 31
0.0
 11
170.8276595416672
 21
106.9906320101111
 31
0.0
 11
170.7468768199563
 21
106.9445086211353
 31
0.0
 11
170.6949452124838
 21
106.8983850442007
 31
0.0
 11
170.6372433158042
 21
106.8291998667575
 31
0.0
 11
170.5968519549488
 21
106.7773110306649
 31
0.0
 11
170.5391497264717
 21
106.6735331705207
 31
0.0
 11
170.5102989440306
 21
106.5812862046103
 31
0.0
 11
170.4929884082065
 21
106.517866474284
 31
0.0
 11
170.4814478297921
 21
106.4544467439577
 31
0.0
 11
170.4814478297921
 21
106.3391381775387
 31
0.0
 11
170.4929884082065
 21
106.2584221058619
 31
0.0
 11
170.5102989440306
 21
106.2180639760441
 31
0.0
 11
170.5449200156789
 21
106.1661751399514
 31
0.0
 11
170.5737711299175
 21
106.1315824572505
 31
0.0
 11
170.6199324481826
 21
106.0854590682746
 31
0.0
 11
170.643013273214
 21
106.0566318326905
 31
0.0
 11
170.7180260375152
 21
106.0278047850651
 31
0.0
 11
170.7526471091634
 21
106.0156474242722
 31
0.0
  0
SPLINE
  5
835
102
{ACAD_REACTORS
330
833
102
}
330
18
100
AcDbEntity
  8
ROGO
 62
     4
100
AcDbSpline
210
0.0
220
0.0
230
1.0
 70
     8
 71
     3
 72
    26
 73
    22
 74
    20
 42
0.0000000001
 43
0.0000000001
 44
0.0000000001
 40
0.0
 40
0.0
 40
0.0
 40
0.0
 40
0.1927099265173915
 40
0.3217143003795154
 40
0.414736959649385
 40
0.4841939694030216
 40
0.5742833564486675
 40
0.640039826417844
 40
0.7587806847072299
 40
0.8554340362639674
 40
0.9211738023510241
 40
0.9856350088616164
 40
1.100943575280605
 40
1.182480494385226
 40
1.226394424896031
 40
1.288772865988476
 40
1.333817737941426
 40
1.399072885742908
 40
1.436001654955431
 40
1.516362799066878
 40
1.55305639555896
 40
1.55305639555896
 40
1.55305639555896
 40
1.55305639555896
 10
167.7107166555265
 20
107.0779283301453
 30
0.0
 10
167.6453079289335
 20
107.0740259333525
 30
0.0
 10
167.536113124624
 20
107.067511184078
 30
0.0
 10
167.4162178937549
 20
106.9946761189045
 30
0.0
 10
167.3283756285688
 20
106.952333012742
 30
0.0
 10
167.2657266315692
 20
106.8947711673093
 30
0.0
 10
167.2198046628081
 20
106.8353139857906
 30
0.0
 10
167.161911400246
 20
106.7644711899623
 30
0.0
 10
167.1147010989281
 20
106.6819776209518
 30
0.0
 10
167.0906597625661
 20
106.5910553265384
 30
0.0
 10
167.0693641749934
 20
106.5185897303432
 30
0.0
 10
167.0535710107417
 20
106.4378362803366
 30
0.0
 10
167.0575892388261
 20
106.3505941467515
 30
0.0
 10
167.0633435253422
 20
106.2695681194104
 30
0.0
 10
167.0890350153803
 20
106.211727667149
 30
0.0
 10
167.1182930717864
 20
106.1705492508771
 30
0.0
 10
167.1541191611687
 20
106.1251957905898
 30
0.0
 10
167.1933207374754
 20
106.0951583407016
 30
0.0
 10
167.2257436409362
 20
106.0407434817612
 30
0.0
 10
167.2824988396788
 20
106.0337997533179
 30
0.0
 10
167.3185747019193
 20
106.01997966129
 30
0.0
 10
167.3298835402059
 20
106.0156474242722
 30
0.0
 11
167.7107166555265
 21
107.0779283301453
 31
0.0
 11
167.5203000978662
 21
107.0482862933206
 31
0.0
 11
167.4048959727096
 21
106.9906320101111
 31
0.0
 11
167.3241132509987
 21
106.9445086211353
 31
0.0
 11
167.2721816435262
 21
106.8983850442007
 31
0.0
 11
167.2144797468467
 21
106.8291998667575
 31
0.0
 11
167.1740883859912
 21
106.7773110306649
 31
0.0
 11
167.1163861575142
 21
106.6735331705208
 31
0.0
 11
167.0875353750731
 21
106.5812862046103
 31
0.0
 11
167.0702248392489
 21
106.517866474284
 31
0.0
 11
167.0586842608346
 21
106.4544467439577
 31
0.0
 11
167.0586842608346
 21
106.3391381775387
 31
0.0
 11
167.0702248392489
 21
106.2584221058619
 31
0.0
 11
167.0875353750731
 21
106.2180639760441
 31
0.0
 11
167.1221564467213
 21
106.1661751399514
 31
0.0
 11
167.1510075609599
 21
106.1315824572505
 31
0.0
 11
167.1971688792251
 21
106.0854590682746
 31
0.0
 11
167.2202497042564
 21
106.0566318326905
 31
0.0
 11
167.2952624685576
 21
106.0278047850651
 31
0.0
 11
167.3298835402059
 21
106.0156474242722
 31
0.0
  0
LINE
  5
836
102
{ACAD_REACTORS
330
814
102
}
330
18
100
AcDbEntity
  8
ROGO
 62
     4
100
AcDbLine
 10
166.3312818399572
 20
107.0779283301453
 30
0.0
 11
167.0973132463709
 21
106.0156474242722
 31
0.0
  0
LINE
  5
837
102
{ACAD_REACTORS
330
814
102
}
330
18
100
AcDbEntity
  8
ROGO
 62
     4
100
AcDbLine
 10
166.3631521220044
 20
106.2178991362084
 30
0.0
 11
166.5089997621977
 21
106.0156474242722
 31
0.0
  0
LINE
  5
838
102
{ACAD_REACTORS
330
833
102
}
330
18
100
AcDbEntity
  8
ROGO
 62
     4
100
AcDbLine
 10
168.4419160991226
 20
106.4108806090248
 30
0.0
 11
168.2448400683613
 21
106.0156474242722
 31
0.0
  0
LINE
  5
839
102
{ACAD_REACTORS
330
80E
102
}
330
18
100
AcDbEntity
  8
ROGO
 62
     4
100
AcDbLine
 10
171.8646796680801
 20
106.4108806090248
 30
0.0
 11
171.6676036373189
 21
106.0156474242722
 31
0.0
  0
ARC
  5
83A
102
{ACAD_REACTORS
330
832
102
}
330
18
100
AcDbEntity
  8
ROGO
 62
     4
100
AcDbCircle
 10
169.3347836478326
 20
106.5467878772087
 30
0.0
 40
0.5315889728529103
100
AcDbArc
 50
92.3538081120337
 51
270.0
  0
ARC
  5
83B
102
{ACAD_REACTORS
330
832
102
}
330
18
100
AcDbEntity
  8
ROGO
 62
     4
100
AcDbCircle
 10
169.7424991742009
 20
106.5463393572924
 30
0.0
 40
0.5315889728529103
100
AcDbArc
 50
273.3290215232082
 51
90.0000000000006
  0
LINE
  5
83C
102
{ACAD_REACTORS
330
833
102
}
330
18
100
AcDbEntity
  8
ROGO
 62
     4
100
AcDbLine
 10
167.3298835402058
 20
106.0156474242722
 30
0.0
 11
168.2448400683613
 21
106.0156474242722
 31
0.0
  0
LINE
  5
83D
102
{ACAD_REACTORS
330
814
102
}
330
18
100
AcDbEntity
  8
ROGO
 62
     4
100
AcDbLine
 10
167.0973132463709
 20
106.0156474242722
 30
0.0
 11
166.5089997621977
 21
106.0156474242722
 31
0.0
  0
LINE
  5
83E
330
18
100
AcDbEntity
  8
ROGO
 62
     4
100
AcDbLine
 10
169.3129512106541
 20
106.0156474242722
 30
0.0
 11
169.7733683867934
 21
106.0156474242722
 31
0.0
  0
LINE
  5
83F
102
{ACAD_REACTORS
330
832
102
}
330
18
100
AcDbEntity
  8
ROGO
 62
     4
100
AcDbLine
 10
169.3129512106537
 20
106.0156474242722
 30
0.0
 11
169.7733683867938
 21
106.0156474242722
 31
0.0
  0
LINE
  5
840
102
{ACAD_REACTORS
330
80E
102
}
330
18
100
AcDbEntity
  8
ROGO
 62
     4
100
AcDbLine
 10
170.7526471091634
 20
106.0156474242722
 30
0.0
 11
171.6676036373189
 21
106.0156474242722
 31
0.0
  0
LINE
  5
841
102
{ACAD_REACTORS
330
814
102
}
330
18
100
AcDbEntity
  8
ROGO
 62
     4
100
AcDbLine
 10
166.0243034319323
 20
106.6877917416942
 30
0.0
 11
165.8392846459838
 21
106.4312201156546
 31
0.0
  0
LINE
  5
842
102
{ACAD_REACTORS
330
814
102
}
330
18
100
AcDbEntity
  8
ROGO
 62
     4
100
AcDbLine
 10
165.8392846459838
 20
106.4312201156547
 30
0.0
 11
166.2093222178808
 21
106.4312201156547
 31
0.0
  0
LINE
  5
843
102
{ACAD_REACTORS
330
814
102
}
330
18
100
AcDbEntity
  8
ROGO
 62
     4
100
AcDbLine
 10
166.0243034319323
 20
106.6877917416942
 30
0.0
 11
166.2093222178808
 21
106.4312201156546
 31
0.0
  0
SPLINE
  5
844
102
{ACAD_REACTORS
330
833
102
}
330
18
100
AcDbEntity
  8
ROGO
 62
     4
100
AcDbSpline
210
0.0
220
0.0
230
1.0
 70
     8
 71
     3
 72
    16
 73
    12
 74
    10
 42
0.0000000001
 43
0.0000000001
 44
0.0000000001
 40
0.0
 40
0.0
 40
0.0
 40
0.0
 40
0.1015977765920737
 40
0.15122096377862
 40
0.1756917233628735
 40
0.2014799190626463
 40
0.2384085415514404
 40
0.2720338915413252
 40
0.3071043481968025
 40
0.3659025028943033
 40
0.4241003886766307
 40
0.4241003886766307
 40
0.4241003886766307
 40
0.4241003886766307
 10
167.9126734598038
 20
106.682690959937
 30
0.0
 10
167.8782678450326
 20
106.6774455918527
 30
0.0
 10
167.8270575685914
 20
106.6696382397266
 30
0.0
 10
167.7807480811692
 20
106.6329801589866
 30
0.0
 10
167.7546327456019
 20
106.6111710410379
 30
0.0
 10
167.7457481920946
 20
106.5822895780411
 30
0.0
 10
167.721887071393
 20
106.5601130479584
 30
0.0
 10
167.702218720798
 20
106.529635357211
 30
0.0
 10
167.6975223645168
 20
106.4877737553055
 30
0.0
 10
167.7009695975512
 20
106.4290273767712
 30
0.0
 10
167.7421591512841
 20
106.4169088061156
 30
0.0
 10
167.762648262999
 20
106.4108806090248
 30
0.0
 11
167.9126734598038
 21
106.682690959937
 31
0.0
 11
167.8145802022688
 21
106.6562368291703
 31
0.0
 11
167.7741888414133
 21
106.6274097815449
 31
0.0
 11
167.7568783055892
 21
106.6101134401944
 31
0.0
 11
167.7453377271748
 21
106.5870516517271
 31
0.0
 11
167.7222569021435
 21
106.5582246041018
 31
0.0
 11
167.7049463663193
 21
106.5293973685176
 31
0.0
 11
167.6991760771121
 21
106.4948048737754
 31
0.0
 11
167.7107166555265
 21
106.4371504026072
 31
0.0
 11
167.762648262999
 21
106.4108806090248
 31
0.0
  0
LINE
  5
845
102
{ACAD_REACTORS
330
833
102
}
330
18
100
AcDbEntity
  8
ROGO
 62
     4
100
AcDbLine
 10
168.7745276365092
 20
107.0779283301453
 30
0.0
 11
168.5774495187445
 21
106.682690959937
 31
0.0
  0
LINE
  5
846
102
{ACAD_REACTORS
330
833
102
}
330
18
100
AcDbEntity
  8
ROGO
 62
     4
100
AcDbLine
 10
167.9126734598038
 20
106.682690959937
 30
0.0
 11
168.5774495187445
 21
106.682690959937
 31
0.0
  0
LINE
  5
847
102
{ACAD_REACTORS
330
833
102
}
330
18
100
AcDbEntity
  8
ROGO
 62
     4
100
AcDbLine
 10
167.7626482629989
 20
106.4108806090248
 30
0.0
 11
168.4419160991226
 21
106.4108806090248
 31
0.0
  0
LINE
  5
848
102
{ACAD_REACTORS
330
833
102
}
330
18
100
AcDbEntity
  8
ROGO
 62
     4
100
AcDbLine
 10
167.7107166555269
 20
107.0779283301453
 30
0.0
 11
168.7745276365092
 21
107.0779283301453
 31
0.0
  0
LINE
  5
849
102
{ACAD_REACTORS
330
832
102
}
330
18
100
AcDbEntity
  8
ROGO
 62
     4
100
AcDbLine
 10
169.5462805423641
 20
106.6485389110671
 30
0.0
 11
169.5847769129585
 21
106.6431581575907
 31
0.0
  0
LINE
  5
84A
102
{ACAD_REACTORS
330
832
102
}
330
18
100
AcDbEntity
  8
ROGO
 62
     4
100
AcDbLine
 10
169.6771886993316
 20
106.540634870885
 30
0.0
 11
169.6630519727932
 21
106.439494265541
 31
0.0
  0
LINE
  5
84B
102
{ACAD_REACTORS
330
832
102
}
330
18
100
AcDbEntity
  8
ROGO
 62
     4
100
AcDbLine
 10
169.4100335423401
 20
106.476878173015
 30
0.0
 11
169.4241702688785
 21
106.578018778359
 31
0.0
  0
LINE
  5
84C
102
{ACAD_REACTORS
330
832
102
}
330
18
100
AcDbEntity
  8
ROGO
 62
     4
100
AcDbLine
 10
169.5095682230664
 20
106.3858821929596
 30
0.0
 11
169.5480645936609
 21
106.3805014394831
 31
0.0
  0
ARC
  5
84D
102
{ACAD_REACTORS
330
832
102
}
330
18
100
AcDbEntity
  8
ROGO
 62
     4
100
AcDbCircle
 10
169.5657911203016
 20
106.533134448184
 30
0.0
 40
0.1116497960339707
100
AcDbArc
 50
3.851923331663601
 51
80.20940670206341
  0
ARC
  5
84E
102
{ACAD_REACTORS
330
832
102
}
330
18
100
AcDbEntity
  8
ROGO
 62
     4
100
AcDbCircle
 10
169.5312982394822
 20
106.5335006859524
 30
0.0
 40
0.1160097523366473
100
AcDbArc
 50
82.57970078354313
 51
157.4341870372611
  0
ARC
  5
84F
102
{ACAD_REACTORS
330
832
102
}
330
18
100
AcDbEntity
  8
ROGO
 62
     4
100
AcDbCircle
 10
169.5159708584693
 20
106.4928209257638
 30
0.0
 40
0.107130230625527
100
AcDbArc
 50
188.5583509056651
 51
266.5736774635929
  0
ARC
  5
850
102
{ACAD_REACTORS
330
832
102
}
330
18
100
AcDbEntity
  8
ROGO
 62
     4
100
AcDbCircle
 10
169.5711068050786
 20
106.4771498342742
 30
0.0
 40
0.0993572127362309
100
AcDbArc
 50
256.5902863289752
 51
337.7287536965499
  0
LINE
  5
851
330
18
100
AcDbEntity
  8
ROGO
 62
     4
100
AcDbLine
 10
169.3129512106539
 20
107.0779283301453
 30
0.0
 11
169.6139942854434
 21
107.0779283301453
 31
0.0
  0
LINE
  5
852
102
{ACAD_REACTORS
330
832
102
}
330
18
100
AcDbEntity
  8
ROGO
 62
     4
100
AcDbLine
 10
169.3129512106537
 20
107.0779283301453
 30
0.0
 11
169.7424991742009
 21
107.0779283301453
 31
0.0
  0
SPLINE
  5
853
102
{ACAD_REACTORS
330
80E
102
}
330
18
100
AcDbEntity
  8
ROGO
 62
     4
100
AcDbSpline
210
0.0
220
0.0
230
1.0
 70
     8
 71
     3
 72
    16
 73
    12
 74
    10
 42
0.0000000001
 43
0.0000000001
 44
0.0000000001
 40
0.0
 40
0.0
 40
0.0
 40
0.0
 40
0.1015977765920626
 40
0.1512209637786089
 40
0.1756917233628724
 40
0.2014799190626579
 40
0.2384085415514299
 40
0.2720338915413147
 40
0.30710434819682
 40
0.3659025028942874
 40
0.4241003886766465
 40
0.4241003886766465
 40
0.4241003886766465
 40
0.4241003886766465
 10
171.3354370287614
 20
106.6826909599369
 30
0.0
 10
171.3010314139901
 20
106.6774455918526
 30
0.0
 10
171.2498211375488
 20
106.6696382397266
 30
0.0
 10
171.2035116501268
 20
106.6329801589865
 30
0.0
 10
171.1773963145595
 20
106.6111710410378
 30
0.0
 10
171.1685117610522
 20
106.5822895780411
 30
0.0
 10
171.1446506403505
 20
106.5601130479583
 30
0.0
 10
171.1249822897557
 20
106.529635357211
 30
0.0
 10
171.1202859334744
 20
106.4877737553055
 30
0.0
 10
171.1237331665087
 20
106.4290273767712
 30
0.0
 10
171.1649227202418
 20
106.4169088061156
 30
0.0
 10
171.1854118319565
 20
106.4108806090248
 30
0.0
 11
171.3354370287614
 21
106.6826909599369
 31
0.0
 11
171.2373437712263
 21
106.6562368291703
 31
0.0
 11
171.1969524103709
 21
106.6274097815449
 31
0.0
 11
171.1796418745468
 21
106.6101134401944
 31
0.0
 11
171.1681012961324
 21
106.5870516517271
 31
0.0
 11
171.145020471101
 21
106.5582246041018
 31
0.0
 11
171.1277099352769
 21
106.5293973685176
 31
0.0
 11
171.1219396460697
 21
106.4948048737754
 31
0.0
 11
171.1334802244841
 21
106.4371504026072
 31
0.0
 11
171.1854118319565
 21
106.4108806090248
 31
0.0
  0
LINE
  5
854
102
{ACAD_REACTORS
330
80E
102
}
330
18
100
AcDbEntity
  8
ROGO
 62
     4
100
AcDbLine
 10
171.1854118319565
 20
106.4108806090248
 30
0.0
 11
171.8646796680802
 21
106.4108806090248
 31
0.0
  0
LINE
  5
855
102
{ACAD_REACTORS
330
80E
102
}
330
18
100
AcDbEntity
  8
ROGO
 62
     4
100
AcDbLine
 10
171.3354370287613
 20
106.682690959937
 30
0.0
 11
172.0002130877021
 21
106.682690959937
 31
0.0
  0
LINE
  5
856
102
{ACAD_REACTORS
330
80D
102
}
330
18
100
AcDbEntity
  8
ROGO
 62
     4
100
AcDbLine
 10
172.8336001287917
 20
106.2479850376534
 30
0.0
 11
173.2474366591013
 21
105.4180417451616
 31
0.0
  0
LINE
  5
857
102
{ACAD_REACTORS
330
80D
102
}
330
18
100
AcDbEntity
  8
ROGO
 62
     4
100
AcDbLine
 10
172.4197769806961
 20
105.8512909111005
 30
0.0
 11
172.6358090074787
 21
105.4180417451616
 31
0.0
  0
LINE
  5
858
102
{ACAD_REACTORS
330
80D
102
}
330
18
100
AcDbEntity
  8
ROGO
 62
     4
100
AcDbLine
 10
172.4197769806961
 20
105.8512909111005
 30
0.0
 11
172.2037449539135
 21
105.4180417451616
 31
0.0
  0
LINE
  5
859
102
{ACAD_REACTORS
330
80D
102
}
330
18
100
AcDbEntity
  8
ROGO
 62
     4
100
AcDbLine
 10
172.6358090074787
 20
105.4180417451616
 30
0.0
 11
173.2474366591013
 21
105.4180417451616
 31
0.0
  0
LINE
  5
85A
102
{ACAD_REACTORS
330
80D
102
}
330
18
100
AcDbEntity
  8
ROGO
 62
     4
100
AcDbLine
 10
172.8336001287917
 20
106.2479850376534
 30
0.0
 11
173.8390628139712
 21
107.0779283301453
 31
0.0
  0
LINE
  5
85B
102
{ACAD_REACTORS
330
80D
102
}
330
18
100
AcDbEntity
  8
ROGO
 62
     4
100
AcDbLine
 10
173.2274351623486
 20
107.0779283301453
 30
0.0
 11
173.8390628139711
 21
107.0779283301453
 31
0.0
  0
LINE
  5
85C
102
{ACAD_REACTORS
330
80D
102
}
330
18
100
AcDbEntity
  8
ROGO
 62
     4
100
AcDbLine
 10
172.4197769806961
 20
107.0779283301453
 30
0.0
 11
173.0314180145325
 21
107.0779283301452
 31
0.0
  0
LINE
  5
85D
102
{ACAD_REACTORS
330
80D
102
}
330
18
100
AcDbEntity
  8
ROGO
 62
     4
100
AcDbLine
 10
173.0314180145325
 20
107.0779283301452
 30
0.0
 11
172.9410529589582
 21
106.8967024927514
 31
0.0
  0
LINE
  5
85E
102
{ACAD_REACTORS
330
80D
102
}
330
18
100
AcDbEntity
  8
ROGO
 62
     4
100
AcDbLine
 10
172.9410529589582
 20
106.8967024927514
 30
0.0
 11
173.2274351623486
 21
107.0779283301453
 31
0.0
  0
LINE
  5
85F
330
18
100
AcDbEntity
  8
0
  6
ByBlock
 62
     2
100
AcDbLine
 10
150.8324186976176
 20
100.2949879608761
 30
0.0
 11
150.8324186976176
 21
140.9750638029922
 31
0.0
  0
LINE
  5
860
330
18
100
AcDbEntity
  8
0
  6
ByBlock
 62
     2
100
AcDbLine
 10
183.8324186976176
 20
100.2949879608761
 30
0.0
 11
183.8324186976176
 21
140.9750638029922
 31
0.0
  0
LINE
  5
861
330
18
100
AcDbEntity
  8
0
  6
ByBlock
 62
     2
100
AcDbLine
 10
153.3324186976176
 20
139.7250638029922
 30
0.0
 11
181.3324186976176
 21
139.7250638029922
 31
0.0
  0
INSERT
  5
862
330
18
100
AcDbEntity
  8
0
  6
ByBlock
 62
     2
100
AcDbBlockReference
  2
_OPEN
 10
150.8324186976176
 20
139.7250638029922
 30
0.0
 41
2.5
 42
2.5
 43
2.5
 50
180.0
  0
INSERT
  5
863
330
18
100
AcDbEntity
  8
0
  6
ByBlock
 62
     2
100
AcDbBlockReference
  2
_OPEN
 10
183.8324186976176
 20
139.7250638029922
 30
0.0
 41
2.5
 42
2.5
 43
2.5
  0
MTEXT
  5
864
330
18
100
AcDbEntity
  8
0
  6
ByBlock
 62
     6
100
AcDbMText
 10
167.3324186976176
 20
141.6000638029922
 30
0.0
 40
2.5
 41
0.0
 71
     5
 72
     1
  1
\A1;φ33
  7
STYLE3
 73
     1
 44
1.0
  0
POINT
  5
865
330
18
100
AcDbEntity
  8
DEFPOINTS
  6
ByBlock
 62
     0
100
AcDbPoint
 10
150.8324186976176
 20
100.2949879608761
 30
0.0
  0
POINT
  5
866
330
18
100
AcDbEntity
  8
DEFPOINTS
  6
ByBlock
 62
     0
100
AcDbPoint
 10
183.8324186976176
 20
100.2949879608761
 30
0.0
  0
POINT
  5
867
330
18
100
AcDbEntity
  8
DEFPOINTS
  6
ByBlock
 62
     0
100
AcDbPoint
 10
183.8324186976176
 20
139.7250638029922
 30
0.0
  0
LINE
  5
868
330
18
100
AcDbEntity
  8
0
  6
ByBlock
 62
     2
100
AcDbLine
 10
114.8115865519621
 20
119.2949879608761
 30
0.0
 11
131.6118832126625
 21
119.2949879608761
 31
0.0
  0
LINE
  5
869
330
18
100
AcDbEntity
  8
0
  6
ByBlock
 62
     2
100
AcDbLine
 10
114.8115865519621
 20
81.29498796087606
 30
0.0
 11
131.6118832126625
 21
81.29498796087604
 31
0.0
  0
LINE
  5
86A
330
18
100
AcDbEntity
  8
0
  6
ByBlock
 62
     2
100
AcDbLine
 10
130.3618832126625
 20
116.7949879608761
 30
0.0
 11
130.3618832126625
 21
83.79498796087604
 31
0.0
  0
INSERT
  5
86B
330
18
100
AcDbEntity
  8
0
  6
ByBlock
 62
     2
100
AcDbBlockReference
  2
_OPEN
 10
130.3618832126625
 20
119.2949879608761
 30
0.0
 41
2.5
 42
2.5
 43
2.5
 50
90.0
  0
INSERT
  5
86C
330
18
100
AcDbEntity
  8
0
  6
ByBlock
 62
     2
100
AcDbBlockReference
  2
_OPEN
 10
130.3618832126625
 20
81.29498796087604
 30
0.0
 41
2.5
 42
2.5
 43
2.5
 50
270.0
  0
MTEXT
  5
86D
330
18
100
AcDbEntity
  8
0
  6
ByBlock
 62
     6
100
AcDbMText
 10
128.4868832126625
 20
100.2949879608761
 30
0.0
 40
2.5
 41
0.0
 71
     5
 72
     1
  1
\A1;φ38
  7
STYLE3
 11
0.0000000000000001
 21
1.0
 31
0.0
 73
     1
 44
1.0
  0
POINT
  5
86E
330
18
100
AcDbEntity
  8
DEFPOINTS
  6
ByBlock
 62
     0
100
AcDbPoint
 10
114.8115865519621
 20
119.2949879608761
 30
0.0
  0
POINT
  5
86F
330
18
100
AcDbEntity
  8
DEFPOINTS
  6
ByBlock
 62
     0
100
AcDbPoint
 10
114.8115865519621
 20
81.29498796087606
 30
0.0
  0
POINT
  5
870
330
18
100
AcDbEntity
  8
DEFPOINTS
  6
ByBlock
 62
     0
100
AcDbPoint
 10
130.3618832126625
 20
81.29498796087604
 30
0.0
  0
LINE
  5
871
102
{ACAD_REACTORS
330
874
102
}
330
18
100
AcDbEntity
  8
外形線
100
AcDbLine
 10
175.1006349285443
 20
101.8345712942093
 30
0.0
 11
174.1006349285443
 21
101.8345712942093
 31
0.0
  0
LINE
  5
872
102
{ACAD_REACTORS
330
874
102
}
330
18
100
AcDbEntity
  8
外形線
100
AcDbLine
 10
175.1006349285443
 20
101.6554046275426
 30
0.0
 11
174.1006349285443
 21
101.6554046275427
 31
0.0
  0
TEXT
  5
873
330
18
100
AcDbEntity
  8
文字
100
AcDbText
 10
169.3303813113306
 20
99.25869772646349
 30
0.0
 40
1.0
  1
0.01mm
  7
STYLE3
100
AcDbText
  0
HATCH
  5
874
330
18
100
AcDbEntity
  8
外形線
100
AcDbHatch
 10
0.0
 20
0.0
 30
0.0
210
0.0
220
0.0
230
1.0
  2
SOLID
 70
     1
 71
     1
 91
        2
 92
        1
 93
        7
 72
     1
 10
172.9339682618776
 20
101.744987960876
 11
174.1006349285443
 21
101.3203560208987
 72
     1
 10
174.1006349285443
 20
101.3203560208988
 11
174.1006349285443
 21
101.6554046275427
 72
     1
 10
174.1006349285443
 20
101.6554046275427
 11
175.1006349285443
 21
101.6554046275426
 72
     1
 10
175.1006349285443
 20
101.6554046275426
 11
175.1006349285443
 21
101.8345712942093
 72
     1
 10
175.1006349285443
 20
101.8345712942093
 11
174.1006349285443
 21
101.8345712942093
 72
     1
 10
174.1006349285443
 20
101.8345712942093
 11
174.1006349285443
 21
102.1696199008532
 72
     1
 10
174.1006349285443
 20
102.1696199008532
 11
172.9339682618776
 21
101.744987960876
 97
        7
330
87D
330
880
330
872
330
899
330
871
330
87C
330
883
 92
        1
 93
        4
 72
     1
 10
172.9339682618776
 20
102.494987960876
 11
172.9339682618776
 21
100.994987960876
 72
     1
 10
172.9339682618776
 20
100.994987960876
 11
172.767301595211
 21
100.994987960876
 72
     1
 10
172.767301595211
 20
100.994987960876
 11
172.767301595211
 21
102.494987960876
 72
     1
 10
172.767301595211
 20
102.494987960876
 11
172.9339682618776
 21
102.494987960876
 97
        4
330
882
330
88F
330
881
330
879
 75
     0
 76
     1
 98
        1
 10
80.60441155539734
 20
33.08283715369498
450
        0
451
        0
460
0.0
461
0.0
452
        0
462
0.0
453
        0
470

  0
LINE
  5
875
102
{ACAD_REACTORS
330
877
102
}
330
18
100
AcDbEntity
  8
外形線
100
AcDbLine
 10
169.6006349285443
 20
101.8345712942093
 30
0.0
 11
170.6006349285443
 21
101.8345712942093
 31
0.0
  0
LINE
  5
876
102
{ACAD_REACTORS
330
877
102
}
330
18
100
AcDbEntity
  8
外形線
100
AcDbLine
 10
169.6006349285443
 20
101.6554046275426
 30
0.0
 11
170.6006349285443
 21
101.6554046275427
 31
0.0
  0
HATCH
  5
877
330
18
100
AcDbEntity
  8
外形線
100
AcDbHatch
 10
0.0
 20
0.0
 30
0.0
210
0.0
220
0.0
230
1.0
  2
SOLID
 70
     1
 71
     1
 91
        2
 92
        1
 93
        7
 72
     1
 10
171.7673015952111
 20
101.744987960876
 11
170.6006349285443
 21
101.3203560208987
 72
     1
 10
170.6006349285443
 20
101.3203560208988
 11
170.6006349285443
 21
101.6554046275427
 72
     1
 10
170.6006349285443
 20
101.6554046275427
 11
169.6006349285443
 21
101.6554046275426
 72
     1
 10
169.6006349285443
 20
101.6554046275426
 11
169.6006349285443
 21
101.8345712942093
 72
     1
 10
169.6006349285443
 20
101.8345712942093
 11
170.6006349285443
 21
101.8345712942093
 72
     1
 10
170.6006349285443
 20
101.8345712942093
 11
170.6006349285443
 21
102.1696199008532
 72
     1
 10
170.6006349285443
 20
102.1696199008532
 11
171.7673015952111
 21
101.744987960876
 97
        7
330
88B
330
888
330
876
330
878
330
875
330
885
330
88C
 92
        1
 93
        4
 72
     1
 10
171.7673015952111
 20
102.494987960876
 11
171.7673015952111
 21
100.994987960876
 72
     1
 10
171.7673015952111
 20
100.994987960876
 11
171.9339682618776
 21
100.994987960876
 72
     1
 10
171.9339682618776
 20
100.994987960876
 11
171.9339682618776
 21
102.494987960876
 72
     1
 10
171.9339682618776
 20
102.494987960876
 11
171.7673015952111
 21
102.494987960876
 97
        4
330
88D
330
898
330
88E
330
884
 75
     0
 76
     1
 98
        1
 10
264.0968583016914
 20
33.08283715369498
450
        0
451
        0
460
0.0
461
0.0
452
        0
462
0.0
453
        0
470

  0
LINE
  5
878
102
{ACAD_REACTORS
330
877
102
}
330
18
100
AcDbEntity
  8
外形線
100
AcDbLine
 10
169.6006349285443
 20
101.8345712942093
 30
0.0
 11
169.6006349285443
 21
101.6554046275426
 31
0.0
  0
LINE
  5
879
102
{ACAD_REACTORS
330
874
102
}
330
18
100
AcDbEntity
  8
外形線
100
AcDbLine
 10
172.767301595211
 20
102.494987960876
 30
0.0
 11
172.9339682618776
 21
102.494987960876
 31
0.0
  0
POINT
  5
87A
330
18
100
AcDbEntity
  8
DEFPOINTS
  6
ByBlock
 62
     0
100
AcDbPoint
 10
174.1006349285443
 20
102.1696199008532
 30
0.0
  0
POINT
  5
87B
330
18
100
AcDbEntity
  8
DEFPOINTS
  6
ByBlock
 62
     0
100
AcDbPoint
 10
174.1006349285443
 20
102.1696199008532
 30
0.0
  0
LINE
  5
87C
102
{ACAD_REACTORS
330
874
102
}
330
18
100
AcDbEntity
  8
外形線
100
AcDbLine
 10
174.1006349285443
 20
102.1696199008532
 30
0.0
 11
174.1006349285443
 21
101.8345712942093
 31
0.0
  0
LINE
  5
87D
102
{ACAD_REACTORS
330
874
102
}
330
18
100
AcDbEntity
  8
外形線
100
AcDbLine
 10
172.9339682618776
 20
101.744987960876
 30
0.0
 11
174.1006349285443
 21
101.3203560208987
 31
0.0
  0
POINT
  5
87E
330
18
100
AcDbEntity
  8
DEFPOINTS
  6
ByBlock
 62
     0
100
AcDbPoint
 10
174.1006349285443
 20
101.3203560208987
 30
0.0
  0
POINT
  5
87F
330
18
100
AcDbEntity
  8
DEFPOINTS
  6
ByBlock
 62
     0
100
AcDbPoint
 10
174.1006349285443
 20
101.3203560208987
 30
0.0
  0
LINE
  5
880
102
{ACAD_REACTORS
330
874
102
}
330
18
100
AcDbEntity
  8
外形線
100
AcDbLine
 10
174.1006349285443
 20
101.6554046275427
 30
0.0
 11
174.1006349285443
 21
101.3203560208988
 31
0.0
  0
LINE
  5
881
102
{ACAD_REACTORS
330
874
102
}
330
18
100
AcDbEntity
  8
外形線
100
AcDbLine
 10
172.767301595211
 20
102.494987960876
 30
0.0
 11
172.767301595211
 21
100.994987960876
 31
0.0
  0
LINE
  5
882
102
{ACAD_REACTORS
330
874
102
}
330
18
100
AcDbEntity
  8
外形線
100
AcDbLine
 10
172.9339682618776
 20
102.494987960876
 30
0.0
 11
172.9339682618776
 21
100.994987960876
 31
0.0
  0
LINE
  5
883
102
{ACAD_REACTORS
330
874
102
}
330
18
100
AcDbEntity
  8
外形線
100
AcDbLine
 10
172.9339682618776
 20
101.744987960876
 30
0.0
 11
174.1006349285443
 21
102.1696199008532
 31
0.0
  0
LINE
  5
884
102
{ACAD_REACTORS
330
877
102
}
330
18
100
AcDbEntity
  8
外形線
100
AcDbLine
 10
171.9339682618776
 20
102.494987960876
 30
0.0
 11
171.7673015952111
 21
102.494987960876
 31
0.0
  0
LINE
  5
885
102
{ACAD_REACTORS
330
877
102
}
330
18
100
AcDbEntity
  8
外形線
100
AcDbLine
 10
170.6006349285443
 20
102.1696199008532
 30
0.0
 11
170.6006349285443
 21
101.8345712942093
 31
0.0
  0
POINT
  5
886
330
18
100
AcDbEntity
  8
DEFPOINTS
  6
ByBlock
 62
     0
100
AcDbPoint
 10
170.6006349285443
 20
102.1696199008532
 30
0.0
  0
POINT
  5
887
330
18
100
AcDbEntity
  8
DEFPOINTS
  6
ByBlock
 62
     0
100
AcDbPoint
 10
170.6006349285443
 20
102.1696199008532
 30
0.0
  0
LINE
  5
888
102
{ACAD_REACTORS
330
877
102
}
330
18
100
AcDbEntity
  8
外形線
100
AcDbLine
 10
170.6006349285443
 20
101.6554046275427
 30
0.0
 11
170.6006349285443
 21
101.3203560208988
 31
0.0
  0
POINT
  5
889
330
18
100
AcDbEntity
  8
DEFPOINTS
  6
ByBlock
 62
     0
100
AcDbPoint
 10
170.6006349285443
 20
101.3203560208987
 30
0.0
  0
POINT
  5
88A
330
18
100
AcDbEntity
  8
DEFPOINTS
  6
ByBlock
 62
     0
100
AcDbPoint
 10
170.6006349285443
 20
101.3203560208987
 30
0.0
  0
LINE
  5
88B
102
{ACAD_REACTORS
330
877
102
}
330
18
100
AcDbEntity
  8
外形線
100
AcDbLine
 10
171.7673015952111
 20
101.744987960876
 30
0.0
 11
170.6006349285443
 21
101.3203560208987
 31
0.0
  0
LINE
  5
88C
102
{ACAD_REACTORS
330
877
102
}
330
18
100
AcDbEntity
  8
外形線
100
AcDbLine
 10
171.7673015952111
 20
101.744987960876
 30
0.0
 11
170.6006349285443
 21
102.1696199008532
 31
0.0
  0
LINE
  5
88D
102
{ACAD_REACTORS
330
877
102
}
330
18
100
AcDbEntity
  8
外形線
100
AcDbLine
 10
171.7673015952111
 20
102.494987960876
 30
0.0
 11
171.7673015952111
 21
100.994987960876
 31
0.0
  0
LINE
  5
88E
102
{ACAD_REACTORS
330
877
102
}
330
18
100
AcDbEntity
  8
外形線
100
AcDbLine
 10
171.9339682618776
 20
102.494987960876
 30
0.0
 11
171.9339682618776
 21
100.994987960876
 31
0.0
  0
LINE
  5
88F
102
{ACAD_REACTORS
330
874
102
}
330
18
100
AcDbEntity
  8
外形線
100
AcDbLine
 10
172.767301595211
 20
100.994987960876
 30
0.0
 11
172.9339682618776
 21
100.994987960876
 31
0.0
  0
POINT
  5
890
330
18
100
AcDbEntity
  8
DEFPOINTS
  6
ByBlock
 62
     0
100
AcDbPoint
 10
172.9339682618776
 20
100.994987960876
 30
0.0
  0
POINT
  5
891
330
18
100
AcDbEntity
  8
DEFPOINTS
  6
ByBlock
 62
     0
100
AcDbPoint
 10
172.767301595211
 20
100.994987960876
 30
0.0
  0
POINT
  5
892
330
18
100
AcDbEntity
  8
DEFPOINTS
  6
ByBlock
 62
     0
100
AcDbPoint
 10
172.9339682618776
 20
100.994987960876
 30
0.0
  0
POINT
  5
893
330
18
100
AcDbEntity
  8
DEFPOINTS
  6
ByBlock
 62
     0
100
AcDbPoint
 10
172.767301595211
 20
100.994987960876
 30
0.0
  0
POINT
  5
894
330
18
100
AcDbEntity
  8
DEFPOINTS
  6
ByBlock
 62
     0
100
AcDbPoint
 10
171.9339682618776
 20
100.994987960876
 30
0.0
  0
POINT
  5
895
330
18
100
AcDbEntity
  8
DEFPOINTS
  6
ByBlock
 62
     0
100
AcDbPoint
 10
171.7673015952111
 20
100.994987960876
 30
0.0
  0
POINT
  5
896
330
18
100
AcDbEntity
  8
DEFPOINTS
  6
ByBlock
 62
     0
100
AcDbPoint
 10
171.9339682618776
 20
100.994987960876
 30
0.0
  0
POINT
  5
897
330
18
100
AcDbEntity
  8
DEFPOINTS
  6
ByBlock
 62
     0
100
AcDbPoint
 10
171.7673015952111
 20
100.994987960876
 30
0.0
  0
LINE
  5
898
102
{ACAD_REACTORS
330
877
102
}
330
18
100
AcDbEntity
  8
外形線
100
AcDbLine
 10
171.9339682618776
 20
100.994987960876
 30
0.0
 11
171.7673015952111
 21
100.994987960876
 31
0.0
  0
LINE
  5
899
102
{ACAD_REACTORS
330
874
102
}
330
18
100
AcDbEntity
  8
外形線
100
AcDbLine
 10
175.1006349285443
 20
101.8345712942093
 30
0.0
 11
175.1006349285443
 21
101.6554046275426
 31
0.0
  0
ARC
  5
8D6
330
18
100
AcDbEntity
  8
外形線
100
AcDbCircle
 10
61.61158655196207
 20
104.7949879608761
 30
0.0
 40
1.199999999999999
100
AcDbArc
 50
99.59406822685991
 51
260.4059317731401
  0
TEXT
  5
906
330
18
100
AcDbEntity
  8
文字
100
AcDbText
 10
62.71665555995316
 20
182.8575160819246
 30
0.0
 40
3.5
  1
Model No.196B-T Back Plunger Type Dial Gauge
  7
STYLE3
100
AcDbText
  0
LINE
  5
907
330
18
100
AcDbEntity
  8
外形線
100
AcDbLine
 10
61.82991955995316
 20
179.4477780819245
 30
0.0
 11
188.8299195599531
 21
179.4477780819245
 31
0.0
  0
LINE
  5
908
330
18
100
AcDbEntity
  8
外形線
100
AcDbLine
 10
61.82991955995316
 20
180.4477780819245
 30
0.0
 11
188.8299195599531
 21
180.4477780819245
 31
0.0
  0
LINE
  5
90A
330
18
100
AcDbEntity
  8
外形線
100
AcDbLine
 10
113.6589925599531
 20
20.80646408192457
 30
0.0
 11
254.4504105599532
 21
20.80646408192457
 31
0.0
  0
LINE
  5
90B
330
18
100
AcDbEntity
  8
外形線
100
AcDbLine
 10
113.6589925599531
 20
10.02625808192457
 30
0.0
 11
254.4504105599532
 21
10.02625808192457
 31
0.0
  0
TEXT
  5
90C
330
18
100
AcDbEntity
  8
0
  6
Continuous
100
AcDbText
 10
115.1164595599531
 20
11.92424808192456
 30
0.0
 40
2.1
  1
Design and specifications are subject to change without notice for future improvement.
  7
STYLE3
100
AcDbText
  0
TEXT
  5
90D
330
18
100
AcDbEntity
  8
0
  6
Continuous
100
AcDbText
 10
115.4079535599531
 20
15.85339608192457
 30
0.0
 40
3.5
  1
仕様及び外観は予告なく変更される場合がございますのでご了承下さい。
  7
STYLE3
100
AcDbText
  0
TEXT
  5
90E
330
18
100
AcDbEntity
  8
0
  6
Continuous
100
AcDbText
 10
114.8249685599532
 20
2.159620081924568
 30
0.0
 40
2.1
  1
3RD Angle Projection
  7
STYLE3
100
AcDbText
  0
TEXT
  5
90F
330
18
100
AcDbEntity
  8
0
  6
Continuous
100
AcDbText
 10
117.4484115599532
 20
5.655903081924568
 30
0.0
 40
3.0
  1
三　　角　　法
  7
STYLE3
100
AcDbText
  0
LINE
  5
910
330
18
100
AcDbEntity
  8
外形線
100
AcDbLine
 10
113.6589925599531
 20
0.4114800819245682
 30
0.0
 11
113.6589925599531
 21
20.80646408192457
 31
0.0
  0
LINE
  5
911
330
18
100
AcDbEntity
  8
外形線
100
AcDbLine
 10
215.6817595599532
 20
10.02625808192457
 30
0.0
 11
215.6817595599532
 21
0.4114800819245682
 31
0.0
  0
LINE
  5
912
330
18
100
AcDbEntity
  8
外形線
100
AcDbLine
 10
185.9494095599531
 20
10.02625808192457
 30
0.0
 11
185.9494095599531
 21
0.4114800819245682
 31
0.0
  0
LINE
  5
913
330
18
100
AcDbEntity
  8
外形線
100
AcDbLine
 10
166.4193375599531
 20
10.02625808192457
 30
0.0
 11
166.4193375599531
 21
0.4114800819245682
 31
0.0
  0
LINE
  5
914
330
18
100
AcDbEntity
  8
外形線
100
AcDbLine
 10
148.9297205599532
 20
10.02625808192457
 30
0.0
 11
148.9297205599532
 21
0.4114800819245682
 31
0.0
  0
TEXT
  5
915
330
18
100
AcDbEntity
  8
0
  6
Continuous
100
AcDbText
 10
150.3871895599532
 20
5.661858081924568
 30
0.0
 40
3.0
  1
単位
  7
STYLE3
100
AcDbText
  0
TEXT
  5
916
330
18
100
AcDbEntity
  8
0
  6
Continuous
100
AcDbText
 10
150.5589105599532
 20
2.159621081924568
 30
0.0
 40
2.1
  1
Unit
  7
STYLE3
100
AcDbText
  0
TEXT
  5
917
330
18
100
AcDbEntity
  8
0
  6
Continuous
100
AcDbText
 10
167.7050855599532
 20
5.370500081924568
 30
0.0
 40
3.0
  1
尺 度
  7
STYLE3
100
AcDbText
  0
TEXT
  5
918
330
18
100
AcDbEntity
  8
0
  6
Continuous
100
AcDbText
 10
158.4292375599531
 20
3.907764081924567
 30
0.0
 40
2.399999999999999
  1
mm
  7
STYLE3
100
AcDbText
  0
TEXT
  5
919
330
18
100
AcDbEntity
  8
0
  6
Continuous
100
AcDbText
 10
168.1683005599531
 20
2.450978081924568
 30
0.0
 40
2.1
  1
Scale
  7
STYLE3
100
AcDbText
  0
TEXT
  5
91A
330
18
100
AcDbEntity
  8
0
  6
Continuous
100
AcDbText
 10
177.7875895599532
 20
4.199121081924568
 30
0.0
 40
2.399999999999999
  1
1/1
  7
STYLE3
100
AcDbText
  0
TEXT
  5
91B
330
18
100
AcDbEntity
  8
0
  6
Continuous
100
AcDbText
 10
187.8813605599532
 20
2.159622081924568
 30
0.0
 40
2.1
  1
Date
  7
STYLE3
100
AcDbText
  0
TEXT
  5
91C
330
18
100
AcDbEntity
  8
0
  6
Continuous
100
AcDbText
 10
187.4979995599531
 20
5.492705081924568
 30
0.0
 40
3.0
  1
日 付
  7
STYLE3
100
AcDbText
  0
TEXT
  5
91D
330
18
100
AcDbEntity
  8
0
  6
Continuous
100
AcDbText
 10
196.6261685599531
 20
3.907763081924568
 30
0.0
 40
2.1
  1
2010.06.09
  7
STYLE3
100
AcDbText
  0
TEXT
  5
91E
330
18
100
AcDbEntity
  8
0
  6
Continuous
100
AcDbText
 10
217.0307225599532
 20
5.947260081924568
 30
0.0
 40
3.0
  1
株式会社　尾崎製作所
  7
STYLE3
100
AcDbText
  0
TEXT
  5
91F
330
18
100
AcDbEntity
  8
0
  6
Continuous
100
AcDbText
 10
217.9052015599532
 20
2.159621081924568
 30
0.0
 40
2.1
  1
OZAKI MFG. CO., LTD.
  7
STYLE3
100
AcDbText
  0
VIEWPORT
  5
177
330
15
100
AcDbEntity
 67
     1
  8
0
100
AcDbViewport
 10
127.5041203589828
 20
97.49391214526822
 30
0.0
 40
418.3086347473814
 41
243.0346063651093
 68
     1
 69
     1
 12
127.5041203589828
 22
97.49391214526822
 13
0.0
 23
0.0
 14
10.0
 24
10.0
 15
10.0
 25
10.0
 16
0.0
 26
0.0
 36
1.0
 17
0.0
 27
0.0
 37
0.0
 42
50.0
 43
0.0
 44
0.0
 45
243.0346063651093
 50
0.0
 51
0.0
 72
   100
 90
    32800
  1

281
     0
 71
     1
 74
     0
110
0.0
120
0.0
130
0.0
111
1.0
121
0.0
131
0.0
112
0.0
122
1.0
132
0.0
 79
     0
146
0.0
170
     0
  0
ENDSEC
  0
SECTION
  2
OBJECTS
  0
DICTIONARY
  5
C
330
0
100
AcDbDictionary
281
     1
  3
ACAD_COLOR
350
8C4
  3
ACAD_GROUP
350
D
  3
ACAD_LAYOUT
350
8C7
  3
ACAD_MATERIAL
350
8C3
  3
ACAD_MLINESTYLE
350
1B
  3
ACAD_PLOTSETTINGS
350
8C8
  3
ACAD_PLOTSTYLENAME
350
8C1
  3
ACAD_TABLESTYLE
350
8C5
  3
ACDBVARIABLEDICTIONARY
350
61E
  0
DICTIONARY
  5
8C4
102
{ACAD_REACTORS
330
C
102
}
330
C
100
AcDbDictionary
281
     1
  0
DICTIONARY
  5
D
102
{ACAD_REACTORS
330
C
102
}
330
C
100
AcDbDictionary
281
     1
  0
DICTIONARY
  5
8C7
102
{ACAD_REACTORS
330
C
102
}
330
C
100
AcDbDictionary
281
     1
  3
Model
350
8C9
  3
レイアウト1
350
8CA
  0
DICTIONARY
  5
8C3
102
{ACAD_REACTORS
330
C
102
}
330
C
100
AcDbDictionary
281
     1
  0
DICTIONARY
  5
1B
102
{ACAD_REACTORS
330
C
102
}
330
C
100
AcDbDictionary
281
     1
  3
STANDARD
350
1C
  0
DICTIONARY
  5
8C8
102
{ACAD_REACTORS
330
C
102
}
330
C
100
AcDbDictionary
281
     1
  0
ACDBDICTIONARYWDFLT
  5
8C1
102
{ACAD_REACTORS
330
C
102
}
330
C
100
AcDbDictionary
281
     1
  3
Normal
350
8C2
100
AcDbDictionaryWithDefault
340
8C2
  0
DICTIONARY
  5
8C5
102
{ACAD_REACTORS
330
C
102
}
330
C
100
AcDbDictionary
281
     1
  3
Standard
350
8C6
  0
DICTIONARY
  5
61E
102
{ACAD_REACTORS
330
C
102
}
330
C
100
AcDbDictionary
281
     1
  3
CTABLESTYLE
350
8D9
  3
SORTENTS
350
61F
  0
LAYOUT
  5
8C9
102
{ACAD_REACTORS
330
8C7
102
}
330
8C7
100
AcDbPlotSettings
  1

  2
WIDR Printer
  4

  6

 40
0.0
 41
0.0
 42
0.0
 43
0.0
 44
0.0
 45
0.0
 46
0.0
 47
0.0
 48
0.0
 49
0.0
140
0.0
141
0.0
142
1.0
143
1.0
 70
  1712
 72
     0
 73
     0
 74
     0
  7
AutoCad LT 98.ctb
 75
     0
147
1.0
 76
     0
 77
     2
 78
   300
148
0.0
149
0.0
100
AcDbLayout
  1
Model
 70
     1
 71
     0
 10
0.0
 20
0.0
 11
12.0
 21
9.0
 12
0.0
 22
0.0
 32
0.0
 14
0.0
 24
0.0
 34
0.0
 15
0.0
 25
0.0
 35
0.0
146
0.0
 13
0.0
 23
0.0
 33
0.0
 16
1.0
 26
0.0
 36
0.0
 17
0.0
 27
1.0
 37
0.0
 76
     0
330
18
  0
LAYOUT
  5
8CA
102
{ACAD_REACTORS
330
8C7
102
}
330
8C7
100
AcDbPlotSettings
  1

  2
WIDR Printer
  4

  6

 40
0.0
 41
0.0
 42
0.0
 43
0.0
 44
0.0
 45
0.0
 46
0.0
 47
0.0
 48
0.0
 49
0.0
140
0.0
141
0.0
142
1.0
143
1.0
 70
   688
 72
     0
 73
     0
 74
     5
  7
AutoCad LT 98.ctb
 75
    16
147
1.0
 76
     0
 77
     2
 78
   300
148
0.0
149
0.0
100
AcDbLayout
  1
レイアウト1
 70
     1
 71
     1
 10
0.0
 20
0.0
 11
420.0
 21
297.0
 12
0.0
 22
0.0
 32
0.0
 14
-0.2
 24
-0.2
 34
0.0
 15
255.2
 25
195.2
 35
0.0
146
0.0
 13
0.0
 23
0.0
 33
0.0
 16
1.0
 26
0.0
 36
0.0
 17
0.0
 27
1.0
 37
0.0
 76
     0
330
15
331
177
  0
MLINESTYLE
  5
1C
102
{ACAD_REACTORS
330
1B
102
}
330
1B
100
AcDbMlineStyle
  2
STANDARD
 70
     0
  3

 62
   256
 51
90.0
 52
90.0
 71
     2
 49
0.5
 62
   256
  6
BYLAYER
 49
-0.5
 62
   256
  6
BYLAYER
  0
ACDBPLACEHOLDER
  5
8C2
102
{ACAD_REACTORS
330
8C1
102
}
330
8C1
  0
ACAD_PROXY_OBJECT
  5
8C6
102
{ACAD_REACTORS
330
8C5
102
}
330
8C5
100
AcDbProxyObject
 90
      499
 91
      503
 95
  2555929
 70
     0
 93
     1849
310
4214DD185B99185C992420000000000000F83F0000000000003E0FC00000000000004901028000000C1008070000C3001FDFF8000000C1003FBFF000000182007F7FE00000030400FEFFC00000060801FDFF8000000C1003FBFF000000182000000000000000C2020B0000001820100E000186003FBFF000000182007F7FE0
310
0000030400FEFFC00000060801FDFF8000000C1003FBFF000000182007F7FE0000003040000000000000012404160000003040201C00030C007F7FE00000030400FEFFC00000060801FDFF8000000C1003FBFF000000182007F7FE00000030400FEFFC000000608000
340
F
340
F
340
F
 94
        0
  0
DICTIONARYVAR
  5
8D9
102
{ACAD_REACTORS
330
61E
102
}
330
61E
100
DictionaryVariables
280
     0
  1
STANDARD
  0
DICTIONARYVAR
  5
61F
102
{ACAD_REACTORS
330
61E
102
}
330
61E
100
DictionaryVariables
280
     0
  1
96
  0
ENDSEC
  0
EOF
