  0
SECTION
  2
HEADER
  9
$ACADVER
  1
AC1018
  9
$ACADMAINTVER
 70
     0
  9
$DWGCODEPAGE
  3
ANSI_932
  9
$INSBASE
 10
0.0
 20
0.0
 30
0.0
  9
$EXTMIN
 10
296.4787634917252
 20
37.53740002719849
 30
-1.000015248078273
  9
$EXTMAX
 10
551.9172441640448
 20
232.9512182683115
 30
0.0000152620489651
  9
$LIMMIN
 10
0.0
 20
0.0
  9
$LIMMAX
 10
420.0
 20
297.0
  9
$ORTHOMODE
 70
     0
  9
$REGENMODE
 70
     1
  9
$FILLMODE
 70
     1
  9
$QTEXTMODE
 70
     0
  9
$MIRRTEXT
 70
     1
  9
$LTSCALE
 40
1.0
  9
$ATTMODE
 70
     1
  9
$TEXTSIZE
 40
2.5
  9
$TRACEWID
 40
1.0
  9
$TEXTSTYLE
  7
STYLE3
  9
$CLAYER
  8
文字
  9
$CELTYPE
  6
BYLAYER
  9
$CECOLOR
 62
   256
  9
$CELTSCALE
 40
1.0
  9
$DISPSILH
 70
     0
  9
$DIMSCALE
 40
1.0
  9
$DIMASZ
 40
2.5
  9
$DIMEXO
 40
0.0
  9
$DIMDLI
 40
3.75
  9
$DIMRND
 40
0.0
  9
$DIMDLE
 40
0.0
  9
$DIMEXE
 40
1.25
  9
$DIMTP
 40
0.0
  9
$DIMTM
 40
0.0
  9
$DIMTXT
 40
2.5
  9
$DIMCEN
 40
2.5
  9
$DIMTSZ
 40
0.0
  9
$DIMTOL
 70
     0
  9
$DIMLIM
 70
     0
  9
$DIMTIH
 70
     0
  9
$DIMTOH
 70
     0
  9
$DIMSE1
 70
     0
  9
$DIMSE2
 70
     0
  9
$DIMTAD
 70
     1
  9
$DIMZIN
 70
     8
  9
$DIMBLK
  1

  9
$DIMASO
 70
     1
  9
$DIMSHO
 70
     1
  9
$DIMPOST
  1

  9
$DIMAPOST
  1

  9
$DIMALT
 70
     0
  9
$DIMALTD
 70
     4
  9
$DIMALTF
 40
0.0394
  9
$DIMLFAC
 40
1.0
  9
$DIMTOFL
 70
     1
  9
$DIMTVP
 40
0.0
  9
$DIMTIX
 70
     0
  9
$DIMSOXD
 70
     0
  9
$DIMSAH
 70
     1
  9
$DIMBLK1
  1
OPEN
  9
$DIMBLK2
  1
OPEN
  9
$DIMSTYLE
  2
STYLE3
  9
$DIMCLRD
 70
     2
  9
$DIMCLRE
 70
     2
  9
$DIMCLRT
 70
     6
  9
$DIMTFAC
 40
1.0
  9
$DIMGAP
 40
0.625
  9
$DIMJUST
 70
     0
  9
$DIMSD1
 70
     0
  9
$DIMSD2
 70
     0
  9
$DIMTOLJ
 70
     1
  9
$DIMTZIN
 70
     0
  9
$DIMALTZ
 70
     0
  9
$DIMALTTZ
 70
     0
  9
$DIMUPT
 70
     0
  9
$DIMDEC
 70
     2
  9
$DIMTDEC
 70
     4
  9
$DIMALTU
 70
     8
  9
$DIMALTTD
 70
     4
  9
$DIMTXSTY
  7
STYLE3
  9
$DIMAUNIT
 70
     0
  9
$DIMADEC
 70
     0
  9
$DIMALTRND
 40
0.0
  9
$DIMAZIN
 70
     0
  9
$DIMDSEP
 70
    46
  9
$DIMATFIT
 70
     3
  9
$DIMFRAC
 70
     0
  9
$DIMLDRBLK
  1

  9
$DIMLUNIT
 70
     2
  9
$DIMLWD
 70
    -2
  9
$DIMLWE
 70
    -2
  9
$DIMTMOVE
 70
     0
  9
$LUNITS
 70
     2
  9
$LUPREC
 70
     4
  9
$SKETCHINC
 40
1.0
  9
$FILLETRAD
 40
0.0
  9
$AUNITS
 70
     0
  9
$AUPREC
 70
     0
  9
$MENU
  1
.
  9
$ELEVATION
 40
0.0
  9
$PELEVATION
 40
0.0
  9
$THICKNESS
 40
0.0
  9
$LIMCHECK
 70
     0
  9
$CHAMFERA
 40
10.0
  9
$CHAMFERB
 40
10.0
  9
$CHAMFERC
 40
20.0
  9
$CHAMFERD
 40
0.0
  9
$SKPOLY
 70
     0
  9
$TDCREATE
 40
2451219.631998495
  9
$TDUCREATE
 40
2451219.256998495
  9
$TDUPDATE
 40
2455356.662414456
  9
$TDUUPDATE
 40
2455356.287414456
  9
$TDINDWG
 40
0.1209688657
  9
$TDUSRTIMER
 40
0.1209688657
  9
$USRTIMER
 70
     1
  9
$ANGBASE
 50
0.0
  9
$ANGDIR
 70
     0
  9
$PDMODE
 70
     0
  9
$PDSIZE
 40
0.0
  9
$PLINEWID
 40
0.0
  9
$SPLFRAME
 70
     0
  9
$SPLINETYPE
 70
     6
  9
$SPLINESEGS
 70
     8
  9
$HANDSEED
  5
16CB
  9
$SURFTAB1
 70
     6
  9
$SURFTAB2
 70
     6
  9
$SURFTYPE
 70
     6
  9
$SURFU
 70
     6
  9
$SURFV
 70
     6
  9
$UCSBASE
  2

  9
$UCSNAME
  2

  9
$UCSORG
 10
0.0
 20
0.0
 30
0.0
  9
$UCSXDIR
 10
1.0
 20
0.0
 30
0.0
  9
$UCSYDIR
 10
0.0
 20
1.0
 30
0.0
  9
$UCSORTHOREF
  2

  9
$UCSORTHOVIEW
 70
     0
  9
$UCSORGTOP
 10
0.0
 20
0.0
 30
0.0
  9
$UCSORGBOTTOM
 10
0.0
 20
0.0
 30
0.0
  9
$UCSORGLEFT
 10
0.0
 20
0.0
 30
0.0
  9
$UCSORGRIGHT
 10
0.0
 20
0.0
 30
0.0
  9
$UCSORGFRONT
 10
0.0
 20
0.0
 30
0.0
  9
$UCSORGBACK
 10
0.0
 20
0.0
 30
0.0
  9
$PUCSBASE
  2

  9
$PUCSNAME
  2

  9
$PUCSORG
 10
0.0
 20
0.0
 30
0.0
  9
$PUCSXDIR
 10
1.0
 20
0.0
 30
0.0
  9
$PUCSYDIR
 10
0.0
 20
1.0
 30
0.0
  9
$PUCSORTHOREF
  2

  9
$PUCSORTHOVIEW
 70
     0
  9
$PUCSORGTOP
 10
0.0
 20
0.0
 30
0.0
  9
$PUCSORGBOTTOM
 10
0.0
 20
0.0
 30
0.0
  9
$PUCSORGLEFT
 10
0.0
 20
0.0
 30
0.0
  9
$PUCSORGRIGHT
 10
0.0
 20
0.0
 30
0.0
  9
$PUCSORGFRONT
 10
0.0
 20
0.0
 30
0.0
  9
$PUCSORGBACK
 10
0.0
 20
0.0
 30
0.0
  9
$USERI1
 70
     0
  9
$USERI2
 70
     0
  9
$USERI3
 70
     0
  9
$USERI4
 70
     0
  9
$USERI5
 70
     0
  9
$USERR1
 40
0.0
  9
$USERR2
 40
0.0
  9
$USERR3
 40
0.0
  9
$USERR4
 40
0.0
  9
$USERR5
 40
0.0
  9
$WORLDVIEW
 70
     1
  9
$SHADEDGE
 70
     3
  9
$SHADEDIF
 70
    70
  9
$TILEMODE
 70
     1
  9
$MAXACTVP
 70
    48
  9
$PINSBASE
 10
0.0
 20
0.0
 30
0.0
  9
$PLIMCHECK
 70
     0
  9
$PEXTMIN
 10
-0.2
 20
-0.2
 30
0.0
  9
$PEXTMAX
 10
255.2
 20
195.2
 30
0.0
  9
$PLIMMIN
 10
0.0
 20
0.0
  9
$PLIMMAX
 10
420.0
 20
297.0
  9
$UNITMODE
 70
     0
  9
$VISRETAIN
 70
     1
  9
$PLINEGEN
 70
     0
  9
$PSLTSCALE
 70
     1
  9
$TREEDEPTH
 70
  3020
  9
$CMLSTYLE
  2
STANDARD
  9
$CMLJUST
 70
     0
  9
$CMLSCALE
 40
20.0
  9
$PROXYGRAPHICS
 70
     1
  9
$MEASUREMENT
 70
     1
  9
$CELWEIGHT
370
    -1
  9
$ENDCAPS
280
     0
  9
$JOINSTYLE
280
     0
  9
$LWDISPLAY
290
     0
  9
$INSUNITS
 70
     0
  9
$HYPERLINKBASE
  1

  9
$STYLESHEET
  1

  9
$XEDIT
290
     1
  9
$CEPSNTYPE
380
     0
  9
$PSTYLEMODE
290
     1
  9
$FINGERPRINTGUID
  2
{F99FBB6D-1A44-4BA2-9C52-FF18D26F6948}
  9
$VERSIONGUID
  2
{E78E5F4E-7A21-45AF-87DF-DE55139CC5F7}
  9
$EXTNAMES
290
     1
  9
$PSVPSCALE
 40
0.0
  9
$OLESTARTUP
290
     0
  9
$SORTENTS
280
   127
  9
$INDEXCTL
280
     0
  9
$HIDETEXT
280
     0
  9
$XCLIPFRAME
290
     0
  9
$HALOGAP
280
     0
  9
$OBSCOLOR
 70
   257
  9
$OBSLTYPE
280
     0
  9
$INTERSECTIONDISPLAY
280
     0
  9
$INTERSECTIONCOLOR
 70
   257
  9
$DIMASSOC
280
     1
  9
$PROJECTNAME
  1

  0
ENDSEC
  0
SECTION
  2
CLASSES
  0
CLASS
  1
HATCH
  2
AcDbHatch
  3
ObjectDBX Classes
 90
        0
 91
       14
280
     0
281
     1
  0
CLASS
  1
LWPOLYLINE
  2
AcDbPolyline
  3
ObjectDBX Classes
 90
        0
 91
        1
280
     0
281
     1
  0
CLASS
  1
ACDBDICTIONARYWDFLT
  2
AcDbDictionaryWithDefault
  3
ObjectDBX Classes
 90
        0
 91
        1
280
     0
281
     0
  0
CLASS
  1
TABLESTYLE
  2
AcDbTableStyle
  3
ObjectDBX Classes
 90
     2047
 91
        1
280
     0
281
     0
  0
CLASS
  1
DICTIONARYVAR
  2
AcDbDictionaryVar
  3
ObjectDBX Classes
 90
        0
 91
        1
280
     0
281
     0
  0
ENDSEC
  0
SECTION
  2
TABLES
  0
TABLE
  2
VPORT
  5
8
330
0
100
AcDbSymbolTable
 70
     2
  0
VPORT
  5
16CA
330
8
100
AcDbSymbolTableRecord
100
AcDbViewportTableRecord
  2
*Active
 70
     0
 10
0.0
 20
0.0
 11
1.0
 21
1.0
 12
424.198003827885
 22
135.244309147755
 13
0.0
 23
0.0
 14
10.0
 24
10.0
 15
10.0
 25
10.0
 16
0.0
 26
0.0
 36
1.0
 17
0.0
 27
0.0
 37
0.0
 40
196.8998548817299
 41
1.530456852791878
 42
50.0
 43
0.0
 44
0.0
 50
0.0
 51
0.0
 71
     0
 72
   100
 73
     1
 74
     1
 75
     0
 76
     0
 77
     0
 78
     0
281
     0
 65
     1
110
0.0
120
0.0
130
0.0
111
1.0
121
0.0
131
0.0
112
0.0
122
1.0
132
0.0
 79
     0
146
0.0
  0
ENDTAB
  0
TABLE
  2
LTYPE
  5
5
330
0
100
AcDbSymbolTable
 70
     7
  0
LTYPE
  5
12
330
5
100
AcDbSymbolTableRecord
100
AcDbLinetypeTableRecord
  2
BYBLOCK
 70
     0
  3

 72
    65
 73
     0
 40
0.0
  0
LTYPE
  5
13
330
5
100
AcDbSymbolTableRecord
100
AcDbLinetypeTableRecord
  2
BYLAYER
 70
     0
  3

 72
    65
 73
     0
 40
0.0
  0
LTYPE
  5
14
330
5
100
AcDbSymbolTableRecord
100
AcDbLinetypeTableRecord
  2
CONTINUOUS
 70
     0
  3
Solid line
 72
    65
 73
     0
 40
0.0
  0
LTYPE
  5
22
330
5
100
AcDbSymbolTableRecord
100
AcDbLinetypeTableRecord
  2
CENTER2
 70
     0
  3
Center (.5x) ___ _ ___ _ ___ _ ___ _ ___ _ ___
 72
    65
 73
     4
 40
28.575
 49
19.05
 74
     0
 49
-3.174999999999999
 74
     0
 49
3.174999999999999
 74
     0
 49
-3.174999999999999
 74
     0
  0
LTYPE
  5
24
330
5
100
AcDbSymbolTableRecord
100
AcDbLinetypeTableRecord
  2
PHANTOM2
 70
     0
  3
Phantom (.5x) ___ _ _ ___ _ _ ___ _ _ ___ _ _
 72
    65
 73
     6
 40
31.75
 49
15.875
 74
     0
 49
-3.174999999999999
 74
     0
 49
3.174999999999999
 74
     0
 49
-3.174999999999999
 74
     0
 49
3.174999999999999
 74
     0
 49
-3.174999999999999
 74
     0
  0
ENDTAB
  0
TABLE
  2
LAYER
  5
2
330
0
100
AcDbSymbolTable
 70
    19
  0
LAYER
  5
E
330
2
100
AcDbSymbolTableRecord
100
AcDbLayerTableRecord
  2
0
 70
     0
 62
     7
  6
CONTINUOUS
370
    -3
390
160E
  0
LAYER
  5
25
330
2
100
AcDbSymbolTableRecord
100
AcDbLayerTableRecord
  2
外形線
 70
     0
 62
     7
  6
CONTINUOUS
370
    -3
390
160E
  0
LAYER
  5
26
330
2
100
AcDbSymbolTableRecord
100
AcDbLayerTableRecord
  2
寸法線
 70
     0
 62
     2
  6
CONTINUOUS
370
    -3
390
160E
  0
LAYER
  5
27
330
2
100
AcDbSymbolTableRecord
100
AcDbLayerTableRecord
  2
中心線
 70
     0
 62
     4
  6
CENTER2
370
    -3
390
160E
  0
LAYER
  5
29
330
2
100
AcDbSymbolTableRecord
100
AcDbLayerTableRecord
  2
想像線
 70
     0
 62
     1
  6
PHANTOM2
370
    -3
390
160E
  0
LAYER
  5
2A
330
2
100
AcDbSymbolTableRecord
100
AcDbLayerTableRecord
  2
ﾊｯﾁﾝｸ
 70
     0
 62
     6
  6
CONTINUOUS
370
    -3
390
160E
  0
LAYER
  5
2B
330
2
100
AcDbSymbolTableRecord
100
AcDbLayerTableRecord
  2
文字
 70
     0
 62
     6
  6
CONTINUOUS
370
    -3
390
160E
  0
LAYER
  5
2C
330
2
100
AcDbSymbolTableRecord
100
AcDbLayerTableRecord
  2
目盛
 70
     0
 62
    70
  6
CONTINUOUS
370
    -3
390
160E
  0
LAYER
  5
2D
330
2
100
AcDbSymbolTableRecord
100
AcDbLayerTableRecord
  2
針
 70
     0
 62
     5
  6
CONTINUOUS
370
    -3
390
160E
  0
LAYER
  5
53
330
2
100
AcDbSymbolTableRecord
100
AcDbLayerTableRecord
  2
DEFPOINTS
 70
     0
 62
     7
  6
CONTINUOUS
290
     0
370
    -3
390
160E
  0
LAYER
  5
A5
330
2
100
AcDbSymbolTableRecord
100
AcDbLayerTableRecord
  2
C
 70
     0
 62
     7
  6
CONTINUOUS
370
    -3
390
160E
  0
LAYER
  5
BC6
330
2
100
AcDbSymbolTableRecord
100
AcDbLayerTableRecord
  2
ROGO
 70
     0
 62
     6
  6
CONTINUOUS
370
    -3
390
160E
  0
ENDTAB
  0
TABLE
  2
STYLE
  5
3
330
0
100
AcDbSymbolTable
 70
     3
  0
STYLE
  5
F
330
3
100
AcDbSymbolTableRecord
100
AcDbTextStyleTableRecord
  2
STANDARD
 70
     0
 40
0.0
 41
1.0
 50
0.0
 71
     0
 42
2.5
  3
txt
  4

  0
STYLE
  5
3F
330
3
100
AcDbSymbolTableRecord
100
AcDbTextStyleTableRecord
  2
STYLE3
 70
     0
 40
0.0
 41
1.0
 50
0.0
 71
     0
 42
2.5
  3
romans.shx
  4
bigfont.shx
  0
ENDTAB
  0
TABLE
  2
VIEW
  5
6
330
0
100
AcDbSymbolTable
 70
     0
  0
ENDTAB
  0
TABLE
  2
UCS
  5
7
330
0
100
AcDbSymbolTable
 70
     0
  0
ENDTAB
  0
TABLE
  2
APPID
  5
9
330
0
100
AcDbSymbolTable
 70
     1
  0
APPID
  5
10
330
9
100
AcDbSymbolTableRecord
100
AcDbRegAppTableRecord
  2
ACAD
 70
     0
  0
ENDTAB
  0
TABLE
  2
DIMSTYLE
  5
A
330
0
100
AcDbSymbolTable
 70
     3
100
AcDbDimStyleTable
 71
     1
340
8F
  0
DIMSTYLE
105
1D
330
A
100
AcDbSymbolTableRecord
100
AcDbDimStyleTableRecord
  2
STANDARD
 70
     0
 41
2.5
 42
0.625
 43
3.75
 44
1.25
 73
     0
 74
     0
 77
     1
 78
     8
140
2.5
141
2.5
143
0.0394
147
0.625
171
     4
172
     1
273
     8
274
     4
277
     6
340
F
  0
DIMSTYLE
105
8F
330
A
100
AcDbSymbolTableRecord
100
AcDbDimStyleTableRecord
  2
STYLE3
 70
     0
 41
2.5
 42
0.0
 43
3.75
 44
1.25
 73
     0
 74
     0
 77
     1
 78
     8
140
2.5
141
2.5
143
0.0394
147
0.625
171
     4
172
     1
173
     1
176
     2
177
     2
178
     6
271
     1
273
     8
274
     4
340
3F
341
45
343
45
344
45
  0
ENDTAB
  0
TABLE
  2
BLOCK_RECORD
  5
1
330
0
100
AcDbSymbolTable
 70
     7
  0
BLOCK_RECORD
  5
18
330
1
100
AcDbSymbolTableRecord
100
AcDbBlockTableRecord
  2
*MODEL_SPACE
340
1615
  0
BLOCK_RECORD
  5
15
330
1
100
AcDbSymbolTableRecord
100
AcDbBlockTableRecord
  2
*PAPER_SPACE
340
1616
  0
BLOCK_RECORD
  5
45
330
1
100
AcDbSymbolTableRecord
100
AcDbBlockTableRecord
  2
_OPEN
340
0
102
{BLKREFS
331
145D
331
145E
331
153F
331
1540
331
1548
331
1549
331
1550
331
1551
331
1559
331
155A
331
1563
331
1564
331
156F
331
1570
331
1576
331
1577
331
1580
331
1581
331
158B
331
158C
331
159E
331
159F
331
15AA
331
15AB
331
15B2
331
15B3
331
15BB
331
15BC
331
15C4
331
15C5
331
15D8
331
15D9
331
15E3
331
15E4
331
1645
331
1655
331
1667
331
1677
102
}
  0
ENDTAB
  0
ENDSEC
  0
SECTION
  2
BLOCKS
  0
BLOCK
  5
19
330
18
100
AcDbEntity
  8
0
100
AcDbBlockBegin
  2
*MODEL_SPACE
 70
     0
 10
0.0
 20
0.0
 30
0.0
  3
*MODEL_SPACE
  1

  0
ENDBLK
  5
1A
330
18
100
AcDbEntity
  8
0
100
AcDbBlockEnd
  0
BLOCK
  5
16
330
15
100
AcDbEntity
 67
     1
  8
0
100
AcDbBlockBegin
  2
*PAPER_SPACE
 70
     0
 10
0.0
 20
0.0
 30
0.0
  3
*PAPER_SPACE
  1

  0
ENDBLK
  5
17
330
15
100
AcDbEntity
 67
     1
  8
0
100
AcDbBlockEnd
  0
BLOCK
  5
46
330
45
100
AcDbEntity
  8
0
100
AcDbBlockBegin
  2
_OPEN
 70
     0
 10
0.0
 20
0.0
 30
0.0
  3
_OPEN
  1

  0
LINE
  5
47
330
45
100
AcDbEntity
  8
0
  6
ByBlock
 62
     0
100
AcDbLine
 10
-1.0
 20
0.1666666666666666
 30
0.0
 11
0.0
 21
0.0
 31
0.0
  0
LINE
  5
48
330
45
100
AcDbEntity
  8
0
  6
ByBlock
 62
     0
100
AcDbLine
 10
0.0
 20
0.0
 30
0.0
 11
-1.0
 21
-0.1666666666666666
 31
0.0
  0
LINE
  5
49
330
45
100
AcDbEntity
  8
0
  6
ByBlock
 62
     0
100
AcDbLine
 10
0.0
 20
0.0
 30
0.0
 11
-1.0
 21
0.0
 31
0.0
  0
ENDBLK
  5
4A
330
45
100
AcDbEntity
  8
0
100
AcDbBlockEnd
  0
ENDSEC
  0
SECTION
  2
ENTITIES
  0
LWPOLYLINE
  5
EE7
330
18
100
AcDbEntity
  8
C
100
AcDbPolyline
 90
        5
 70
     0
 43
0.4
 10
296.7088198767266
 20
232.7406190896847
 10
551.7088198767265
 20
232.7406190896847
 10
551.7088198767265
 20
37.74061908968474
 10
296.7088198767266
 20
37.74061908968474
 10
296.7088198767266
 20
232.7406190896847
  0
LINE
  5
F2B
330
18
100
AcDbEntity
  8
中心線
 48
0.5
100
AcDbLine
 10
362.0524018129657
 20
144.5922679538193
 30
0.0
 11
407.5613350735227
 21
144.5922679538193
 31
0.0
  0
LINE
  5
F2C
330
18
100
AcDbEntity
  8
中心線
 48
0.5
100
AcDbLine
 10
384.8573811744029
 20
177.23160791481
 30
0.0
 11
384.8573811744029
 21
95.73155533712849
 31
0.0
  0
CIRCLE
  5
F2D
330
18
100
AcDbEntity
  8
外形線
100
AcDbCircle
 10
384.8573811744029
 20
144.5922679538193
 30
0.0
 40
20.4
  0
CIRCLE
  5
F2E
330
18
100
AcDbEntity
  8
外形線
100
AcDbCircle
 10
384.8573811744029
 20
144.5922679538193
 30
0.0
 40
17.15
  0
LINE
  5
F2F
330
18
100
AcDbEntity
  8
外形線
100
AcDbLine
 10
380.8573811744029
 20
174.0204711840948
 30
0.0
 11
388.8573811744029
 21
174.0204711840948
 31
0.0
  0
LINE
  5
F30
330
18
100
AcDbEntity
  8
外形線
100
AcDbLine
 10
388.8573811744029
 20
174.0204711840948
 30
0.0
 11
388.8573811744029
 21
164.5962675538993
 31
0.0
  0
LINE
  5
F31
330
18
100
AcDbEntity
  8
外形線
100
AcDbLine
 10
380.8573811744029
 20
174.0204711840948
 30
0.0
 11
380.8573811744029
 21
164.5962675538993
 31
0.0
  0
LINE
  5
F32
330
18
100
AcDbEntity
  8
外形線
100
AcDbLine
 10
388.8573811744029
 20
124.5882683537393
 30
0.0
 11
388.8573811744029
 21
112.2922679538193
 31
0.0
  0
LINE
  5
F33
330
18
100
AcDbEntity
  8
外形線
100
AcDbLine
 10
380.8573811744029
 20
124.5882683537393
 30
0.0
 11
380.8573811744029
 21
112.2922679538193
 31
0.0
  0
LINE
  5
F34
330
18
100
AcDbEntity
  8
外形線
100
AcDbLine
 10
384.8573811744029
 20
105.8922679538193
 30
0.0
 11
387.1073811744029
 21
105.8922679538193
 31
0.0
  0
LINE
  5
F35
330
18
100
AcDbEntity
  8
外形線
100
AcDbLine
 10
381.8573811744029
 20
111.2922679538193
 30
0.0
 11
387.8573811744029
 21
111.2922679538193
 31
0.0
  0
LINE
  5
F36
330
18
100
AcDbEntity
  8
外形線
100
AcDbLine
 10
386.8573811744029
 20
111.2922679538193
 30
0.0
 11
386.8573811744029
 21
105.8922679538193
 31
0.0
  0
LINE
  5
F37
330
18
100
AcDbEntity
  8
外形線
100
AcDbLine
 10
382.8573811744029
 20
111.2922679538193
 30
0.0
 11
382.8573811744029
 21
105.8922679538193
 31
0.0
  0
LINE
  5
F3E
330
18
100
AcDbEntity
  8
外形線
100
AcDbLine
 10
387.0952033479118
 20
102.8922679538193
 30
0.0
 11
386.1573811744029
 21
99.39226795381932
 31
0.0
  0
LINE
  5
F3F
330
18
100
AcDbEntity
  8
外形線
100
AcDbLine
 10
384.8573811744029
 20
99.39226795381932
 30
0.0
 11
386.1573811744029
 21
99.39226795381932
 31
0.0
  0
LINE
  5
F40
330
18
100
AcDbEntity
  8
外形線
100
AcDbLine
 10
384.8573811744029
 20
102.8922679538193
 30
0.0
 11
387.3573811744029
 21
102.8922679538193
 31
0.0
  0
LINE
  5
F41
330
18
100
AcDbEntity
  8
外形線
100
AcDbLine
 10
387.3573811744029
 20
105.3922679538193
 30
0.0
 11
387.3573811744029
 21
102.8922679538193
 31
0.0
  0
LINE
  5
F42
330
18
100
AcDbEntity
  8
外形線
100
AcDbLine
 10
384.8573811744029
 20
105.3922679538193
 30
0.0
 11
387.3573811744029
 21
105.3922679538193
 31
0.0
  0
LINE
  5
F43
330
18
100
AcDbEntity
  8
外形線
100
AcDbLine
 10
387.1073811744029
 20
105.8922679538193
 30
0.0
 11
387.1073811744029
 21
105.3922679538193
 31
0.0
  0
LINE
  5
F44
330
18
100
AcDbEntity
  8
外形線
100
AcDbLine
 10
384.8573811744029
 20
105.3922679538193
 30
0.0
 11
382.3573811744029
 21
105.3922679538193
 31
0.0
  0
LINE
  5
F45
330
18
100
AcDbEntity
  8
外形線
100
AcDbLine
 10
384.8573811744029
 20
102.8922679538193
 30
0.0
 11
382.3573811744029
 21
102.8922679538193
 31
0.0
  0
LINE
  5
F46
330
18
100
AcDbEntity
  8
外形線
100
AcDbLine
 10
382.619559000894
 20
102.8922679538193
 30
0.0
 11
383.5573811744029
 21
99.39226795381932
 31
0.0
  0
LINE
  5
F47
330
18
100
AcDbEntity
  8
外形線
100
AcDbLine
 10
384.8573811744029
 20
105.8922679538193
 30
0.0
 11
382.6073811744029
 21
105.8922679538193
 31
0.0
  0
LINE
  5
F48
330
18
100
AcDbEntity
  8
外形線
100
AcDbLine
 10
384.8573811744029
 20
99.39226795381932
 30
0.0
 11
383.5573811744029
 21
99.39226795381932
 31
0.0
  0
LINE
  5
F49
330
18
100
AcDbEntity
  8
外形線
100
AcDbLine
 10
382.3573811744029
 20
105.3922679538193
 30
0.0
 11
382.3573811744029
 21
102.8922679538193
 31
0.0
  0
LINE
  5
F4A
330
18
100
AcDbEntity
  8
外形線
100
AcDbLine
 10
382.6073811744029
 20
105.8922679538193
 30
0.0
 11
382.6073811744029
 21
105.3922679538193
 31
0.0
  0
LINE
  5
F4B
330
18
100
AcDbEntity
  8
外形線
 62
     4
100
AcDbLine
 10
383.4350259660607
 20
102.8922679538193
 30
0.0
 11
384.8784016390348
 21
105.3922679538193
 31
0.0
  0
LINE
  5
F4C
330
18
100
AcDbEntity
  8
外形線
 62
     4
100
AcDbLine
 10
382.3573811744029
 20
103.025732422156
 30
0.0
 11
383.7237011006556
 21
105.3922679538193
 31
0.0
  0
LINE
  5
F4D
330
18
100
AcDbEntity
  8
外形線
 62
     4
100
AcDbLine
 10
382.3573811744029
 20
105.025732422156
 30
0.0
 11
382.5690005622763
 21
105.3922679538193
 31
0.0
  0
LINE
  5
F4E
330
18
100
AcDbEntity
  8
外形線
 62
     4
100
AcDbLine
 10
384.58972650444
 20
102.8922679538193
 30
0.0
 11
384.8573811744029
 21
103.3558594410782
 31
0.0
  0
LINE
  5
F4F
330
18
100
AcDbEntity
  8
外形線
 62
     4
100
AcDbLine
 10
382.721800032797
 20
102.8922679538193
 30
0.0
 11
382.3573811744029
 21
103.5234599317941
 31
0.0
  0
LINE
  5
F50
330
18
100
AcDbEntity
  8
外形線
 62
     4
100
AcDbLine
 10
383.8765005711763
 20
102.8922679538193
 30
0.0
 11
382.4331248982022
 21
105.3922679538193
 31
0.0
  0
LINE
  5
F51
330
18
100
AcDbEntity
  8
外形線
 62
     4
100
AcDbLine
 10
384.8573811744029
 20
103.1933329128719
 30
0.0
 11
383.5878254365815
 21
105.3922679538193
 31
0.0
  0
LINE
  5
F52
330
18
100
AcDbEntity
  8
外形線
 62
     4
100
AcDbLine
 10
384.8573811744029
 20
105.1933329128719
 30
0.0
 11
384.7425259749607
 21
105.3922679538193
 31
0.0
  0
LINE
  5
F56
330
18
100
AcDbEntity
  8
外形線
100
AcDbLine
 10
461.4751696584743
 20
105.3922679538193
 30
0.0
 11
463.9751696584743
 21
105.3922679538193
 31
0.0
  0
LINE
  5
F57
330
18
100
AcDbEntity
  8
外形線
100
AcDbLine
 10
461.4751696584743
 20
102.8922679538193
 30
0.0
 11
463.9751696584743
 21
102.8922679538193
 31
0.0
  0
LINE
  5
F58
330
18
100
AcDbEntity
  8
外形線
100
AcDbLine
 10
463.7129918319832
 20
102.8922679538193
 30
0.0
 11
462.7751696584743
 21
99.39226795381932
 31
0.0
  0
LINE
  5
F59
330
18
100
AcDbEntity
  8
外形線
100
AcDbLine
 10
461.4751696584743
 20
105.8922679538193
 30
0.0
 11
463.7251696584743
 21
105.8922679538193
 31
0.0
  0
LINE
  5
F5A
330
18
100
AcDbEntity
  8
外形線
100
AcDbLine
 10
458.5251696584744
 20
111.2922679538193
 30
0.0
 11
464.5251696584743
 21
111.2922679538193
 31
0.0
  0
LINE
  5
F5B
330
18
100
AcDbEntity
  8
外形線
 62
     4
100
AcDbLine
 10
458.9751696584743
 20
103.025732422156
 30
0.0
 11
460.341489584727
 21
105.3922679538193
 31
0.0
  0
LINE
  5
F5C
330
18
100
AcDbEntity
  8
外形線
 62
     4
100
AcDbLine
 10
461.4751696584743
 20
103.1933329128719
 30
0.0
 11
460.2056139206529
 21
105.3922679538193
 31
0.0
  0
LINE
  5
F5D
330
18
100
AcDbEntity
  8
外形線
 62
     4
100
AcDbLine
 10
460.4942890552477
 20
102.8922679538193
 30
0.0
 11
459.0509133822735
 21
105.3922679538193
 31
0.0
  0
LINE
  5
F5E
330
18
100
AcDbEntity
  8
外形線
 62
     4
100
AcDbLine
 10
460.0528144501321
 20
102.8922679538193
 30
0.0
 11
461.4961901231062
 21
105.3922679538193
 31
0.0
  0
LINE
  5
F5F
330
18
100
AcDbEntity
  8
外形線
100
AcDbLine
 10
458.9751696584743
 20
105.3922679538193
 30
0.0
 11
458.9751696584743
 21
102.8922679538193
 31
0.0
  0
LINE
  5
F60
330
18
100
AcDbEntity
  8
外形線
 62
     4
100
AcDbLine
 10
459.3395885168684
 20
102.8922679538193
 30
0.0
 11
458.9751696584743
 21
103.5234599317941
 31
0.0
  0
LINE
  5
F61
330
18
100
AcDbEntity
  8
外形線
 62
     4
100
AcDbLine
 10
461.2075149885114
 20
102.8922679538193
 30
0.0
 11
461.4751696584743
 21
103.3558594410782
 31
0.0
  0
LINE
  5
F62
330
18
100
AcDbEntity
  8
外形線
100
AcDbLine
 10
461.4751696584743
 20
99.39226795381932
 30
0.0
 11
460.1751696584742
 21
99.39226795381932
 31
0.0
  0
LINE
  5
F63
330
18
100
AcDbEntity
  8
外形線
100
AcDbLine
 10
459.2373474849654
 20
102.8922679538193
 30
0.0
 11
460.1751696584742
 21
99.39226795381932
 31
0.0
  0
LINE
  5
F64
330
18
100
AcDbEntity
  8
外形線
100
AcDbLine
 10
461.4751696584743
 20
102.8922679538193
 30
0.0
 11
458.9751696584743
 21
102.8922679538193
 31
0.0
  0
LINE
  5
F65
330
18
100
AcDbEntity
  8
外形線
100
AcDbLine
 10
461.4751696584743
 20
99.39226795381932
 30
0.0
 11
462.7751696584743
 21
99.39226795381932
 31
0.0
  0
LINE
  5
F67
330
18
100
AcDbEntity
  8
外形線
 62
     4
100
AcDbLine
 10
461.4751696584743
 20
105.1933329128719
 30
0.0
 11
461.3603144590321
 21
105.3922679538193
 31
0.0
  0
LINE
  5
F68
330
18
100
AcDbEntity
  8
外形線
 62
     4
100
AcDbLine
 10
458.9751696584743
 20
105.025732422156
 30
0.0
 11
459.1867890463476
 21
105.3922679538193
 31
0.0
  0
LINE
  5
F69
330
18
100
AcDbEntity
  8
外形線
100
AcDbLine
 10
459.2251696584743
 20
105.8922679538193
 30
0.0
 11
459.2251696584743
 21
105.3922679538193
 31
0.0
  0
LINE
  5
F6A
330
18
100
AcDbEntity
  8
外形線
100
AcDbLine
 10
461.4751696584743
 20
105.8922679538193
 30
0.0
 11
459.2251696584743
 21
105.8922679538193
 31
0.0
  0
LINE
  5
F6B
330
18
100
AcDbEntity
  8
外形線
100
AcDbLine
 10
461.4751696584743
 20
105.3922679538193
 30
0.0
 11
458.9751696584743
 21
105.3922679538193
 31
0.0
  0
LINE
  5
F6C
330
18
100
AcDbEntity
  8
外形線
100
AcDbLine
 10
459.5251696584743
 20
111.2922679538193
 30
0.0
 11
459.4751696584743
 21
105.8922679538193
 31
0.0
  0
LINE
  5
F6D
330
18
100
AcDbEntity
  8
外形線
100
AcDbLine
 10
463.9751696584743
 20
105.3922679538193
 30
0.0
 11
463.9751696584743
 21
102.8922679538193
 31
0.0
  0
LINE
  5
F6E
330
18
100
AcDbEntity
  8
外形線
100
AcDbLine
 10
463.7251696584743
 20
105.8922679538193
 30
0.0
 11
463.7251696584743
 21
105.3922679538193
 31
0.0
  0
LINE
  5
F70
330
18
100
AcDbEntity
  8
外形線
100
AcDbLine
 10
463.5251696584743
 20
111.2922679538193
 30
0.0
 11
463.4751696584743
 21
105.8922679538193
 31
0.0
  0
LINE
  5
F72
330
18
100
AcDbEntity
  8
外形線
100
AcDbLine
 10
457.5251696584743
 20
126.0922679538193
 30
0.0
 11
457.5251696584744
 21
112.2922679538193
 31
0.0
  0
LINE
  5
F73
330
18
100
AcDbEntity
  8
外形線
100
AcDbLine
 10
465.5251696584742
 20
126.0922679538193
 30
0.0
 11
465.5251696584743
 21
112.2922679538193
 31
0.0
  0
LINE
  5
F74
330
18
100
AcDbEntity
  8
中心線
 48
0.5
100
AcDbLine
 10
447.0430389116999
 20
144.5922679538193
 30
0.0
 11
492.306536283174
 21
144.5922679538193
 31
0.0
  0
LINE
  5
F75
330
18
100
AcDbEntity
  8
中心線
 48
0.5
100
AcDbLine
 10
461.5251696584742
 20
178.4808403466595
 30
0.0
 11
461.5251696584742
 21
95.77096121891901
 31
0.0
  0
LINE
  5
F76
330
18
100
AcDbEntity
  8
外形線
100
AcDbLine
 10
466.6251696584743
 20
163.0922679538193
 30
0.0
 11
466.6251696584743
 21
126.0922679538193
 31
0.0
  0
LINE
  5
F77
330
18
100
AcDbEntity
  8
外形線
100
AcDbLine
 10
456.3251696584743
 20
163.0922679538193
 30
0.0
 11
466.6251696584743
 21
163.0922679538193
 31
0.0
  0
LINE
  5
F78
330
18
100
AcDbEntity
  8
外形線
100
AcDbLine
 10
456.3251696584743
 20
126.0922679538193
 30
0.0
 11
466.6251696584743
 21
126.0922679538193
 31
0.0
  0
LINE
  5
F79
330
18
100
AcDbEntity
  8
外形線
100
AcDbLine
 10
456.3251696584743
 20
164.7922679538193
 30
0.0
 11
456.3251696584743
 21
144.5922679538193
 31
0.0
  0
LINE
  5
F7A
330
18
100
AcDbEntity
  8
外形線
100
AcDbLine
 10
452.7251696584743
 20
164.9922679538193
 30
0.0
 11
456.1251696584744
 21
164.9922679538193
 31
0.0
  0
LINE
  5
F7B
330
18
100
AcDbEntity
  8
外形線
100
AcDbLine
 10
456.3251696584743
 20
164.7922679538193
 30
0.0
 11
456.1251696584744
 21
164.9922679538193
 31
0.0
  0
LINE
  5
F7C
330
18
100
AcDbEntity
  8
外形線
100
AcDbLine
 10
452.5251696584743
 20
164.7922679538193
 30
0.0
 11
452.5251696584737
 21
144.5922679538193
 31
0.0
  0
LINE
  5
F7D
330
18
100
AcDbEntity
  8
外形線
100
AcDbLine
 10
452.7251696584743
 20
164.9922679538193
 30
0.0
 11
452.5251696584743
 21
164.7922679538193
 31
0.0
  0
LINE
  5
F7E
330
18
100
AcDbEntity
  8
外形線
100
AcDbLine
 10
451.3251696584744
 20
163.4422679538193
 30
0.0
 11
452.5251696584742
 21
163.7922679538193
 31
0.0
  0
LINE
  5
F7F
330
18
100
AcDbEntity
  8
外形線
100
AcDbLine
 10
451.3251696584744
 20
163.4422679538193
 30
0.0
 11
451.3251696584744
 21
144.5922679538193
 31
0.0
  0
LINE
  5
F80
330
18
100
AcDbEntity
  8
外形線
100
AcDbLine
 10
451.3251696584744
 20
125.7422679538193
 30
0.0
 11
451.3251696584744
 21
144.5922679538193
 31
0.0
  0
LINE
  5
F81
330
18
100
AcDbEntity
  8
外形線
100
AcDbLine
 10
452.5251696584743
 20
124.3922679538193
 30
0.0
 11
452.5251696584737
 21
144.5922679538193
 31
0.0
  0
LINE
  5
F82
330
18
100
AcDbEntity
  8
外形線
100
AcDbLine
 10
456.3251696584743
 20
124.3922679538193
 30
0.0
 11
456.3251696584743
 21
144.5922679538193
 31
0.0
  0
LINE
  5
F83
330
18
100
AcDbEntity
  8
外形線
100
AcDbLine
 10
452.7251696584743
 20
124.1922679538193
 30
0.0
 11
456.1251696584744
 21
124.1922679538193
 31
0.0
  0
LINE
  5
F84
330
18
100
AcDbEntity
  8
外形線
100
AcDbLine
 10
451.3251696584744
 20
125.7422679538193
 30
0.0
 11
452.5251696584742
 21
125.3922679538193
 31
0.0
  0
LINE
  5
F85
330
18
100
AcDbEntity
  8
外形線
100
AcDbLine
 10
452.7251696584743
 20
124.1922679538193
 30
0.0
 11
452.5251696584743
 21
124.3922679538193
 31
0.0
  0
LINE
  5
F86
330
18
100
AcDbEntity
  8
外形線
100
AcDbLine
 10
456.3251696584743
 20
124.3922679538193
 30
0.0
 11
456.1251696584744
 21
124.1922679538193
 31
0.0
  0
ARC
  5
F87
330
18
100
AcDbEntity
  8
外形線
100
AcDbCircle
 10
517.8974522671681
 20
144.5922679538193
 30
0.0
 40
68.87228260869386
100
AcDbArc
 50
165.1510621681627
 51
194.8489378318372
  0
LINE
  5
F88
330
18
100
AcDbEntity
  8
ﾊｯﾁﾝｸ
 62
     4
100
AcDbLine
 10
452.5251696584742
 20
164.0922679538193
 30
0.0
 11
456.3251696584743
 21
164.0922679538193
 31
0.0
  0
LINE
  5
F89
330
18
100
AcDbEntity
  8
ﾊｯﾁﾝｸ
 62
     4
100
AcDbLine
 10
452.5251696584742
 20
163.0922679538193
 30
0.0
 11
456.3251696584743
 21
163.0922679538193
 31
0.0
  0
LINE
  5
F8A
330
18
100
AcDbEntity
  8
ﾊｯﾁﾝｸ
 62
     4
100
AcDbLine
 10
452.5251696584742
 20
161.9922679538193
 30
0.0
 11
456.3251696584743
 21
161.9922679538193
 31
0.0
  0
LINE
  5
F8B
330
18
100
AcDbEntity
  8
ﾊｯﾁﾝｸ
 62
     4
100
AcDbLine
 10
452.5251696584741
 20
160.7922679538193
 30
0.0
 11
456.3251696584743
 21
160.7922679538194
 31
0.0
  0
LINE
  5
F8C
330
18
100
AcDbEntity
  8
ﾊｯﾁﾝｸ
 62
     4
100
AcDbLine
 10
452.5251696584742
 20
125.0922679538193
 30
0.0
 11
456.3251696584743
 21
125.0922679538192
 31
0.0
  0
LINE
  5
F8D
330
18
100
AcDbEntity
  8
ﾊｯﾁﾝｸ
 62
     4
100
AcDbLine
 10
452.5251696584742
 20
126.0922679538193
 30
0.0
 11
456.3251696584743
 21
126.0922679538192
 31
0.0
  0
LINE
  5
F8E
330
18
100
AcDbEntity
  8
ﾊｯﾁﾝｸ
 62
     4
100
AcDbLine
 10
452.5251696584742
 20
127.1922679538193
 30
0.0
 11
456.3251696584743
 21
127.1922679538193
 31
0.0
  0
LINE
  5
F8F
330
18
100
AcDbEntity
  8
ﾊｯﾁﾝｸ
 62
     4
100
AcDbLine
 10
452.5251696584741
 20
128.3922679538193
 30
0.0
 11
456.3251696584743
 21
128.3922679538192
 31
0.0
  0
LINE
  5
F90
330
18
100
AcDbEntity
  8
ﾊｯﾁﾝｸ
 62
     4
100
AcDbLine
 10
452.5251696584737
 20
144.5922679538193
 30
0.0
 11
456.3251696584743
 21
144.5922679538193
 31
0.0
  0
LINE
  5
F91
330
18
100
AcDbEntity
  8
ﾊｯﾁﾝｸ
 62
     4
100
AcDbLine
 10
452.5251696584737
 20
145.6922679538193
 30
0.0
 11
456.3251696584743
 21
145.6922679538193
 31
0.0
  0
LINE
  5
F92
330
18
100
AcDbEntity
  8
ﾊｯﾁﾝｸ
 62
     4
100
AcDbLine
 10
452.5251696584737
 20
143.4922679538193
 30
0.0
 11
456.3251696584743
 21
143.4922679538193
 31
0.0
  0
LINE
  5
F93
330
18
100
AcDbEntity
  8
ﾊｯﾁﾝｸ
 62
     4
100
AcDbLine
 10
452.5251696584737
 20
146.6922679538193
 30
0.0
 11
456.3251696584743
 21
146.6922679538193
 31
0.0
  0
LINE
  5
F94
330
18
100
AcDbEntity
  8
ﾊｯﾁﾝｸ
 62
     4
100
AcDbLine
 10
452.5251696584737
 20
142.4922679538193
 30
0.0
 11
456.3251696584743
 21
142.4922679538193
 31
0.0
  0
LINE
  5
F95
330
18
100
AcDbEntity
  8
ﾊｯﾁﾝｸ
 62
     4
100
AcDbLine
 10
452.5251696584737
 20
147.5922679538193
 30
0.0
 11
456.3251696584743
 21
147.5922679538193
 31
0.0
  0
LINE
  5
F96
330
18
100
AcDbEntity
  8
ﾊｯﾁﾝｸ
 62
     4
100
AcDbLine
 10
452.5251696584737
 20
141.5922679538193
 30
0.0
 11
456.3251696584743
 21
141.5922679538193
 31
0.0
  0
CIRCLE
  5
105F
330
18
100
AcDbEntity
  8
外形線
100
AcDbCircle
 10
384.8573811744029
 20
144.5922679538193
 30
0.0
 40
10.5
  0
HATCH
  5
1088
330
18
100
AcDbEntity
  8
ROGO
 62
     4
100
AcDbHatch
 10
0.0
 20
0.0
 30
0.0
210
0.0
220
0.0
230
1.0
  2
SOLID
 70
     1
 71
     1
 91
        1
 92
        7
 72
     0
 73
     1
 93
       11
 10
388.718372708276
 20
137.7949305951547
 10
389.2860786619276
 20
137.7949305951547
 10
389.4865927886771
 20
138.1970588326527
 10
389.6871069154268
 20
137.7949305951547
 10
390.2548004481287
 20
137.7949305951547
 10
389.8706904079281
 20
138.5652578333151
 10
390.8039292211754
 20
139.3355850714756
 10
390.2362356884735
 20
139.3355850714756
 10
389.9704247423621
 20
139.1673769540464
 10
390.0542987423287
 20
139.3355850714755
 10
389.4865927886772
 20
139.3355850714756
 97
       11
330
10CE
330
10D1
330
10D2
330
108A
330
10BE
330
1091
330
10BD
330
1089
330
10CD
330
10D0
330
10CF
 75
     0
 76
     1
 47
0.0514683685270805
 98
        1
 10
389.4377340023837
 20
138.6746142785841
450
        0
451
        0
460
0.0
461
0.0
452
        0
462
0.0
453
        0
470

  0
LINE
  5
1089
102
{ACAD_REACTORS
330
1088
102
}
330
18
100
AcDbEntity
  8
ROGO
 62
     4
100
AcDbLine
 10
389.4865927886772
 20
138.1970588326527
 30
0.0
 11
389.6871069154268
 21
137.7949305951547
 31
0.0
  0
LINE
  5
108A
102
{ACAD_REACTORS
330
1088
102
}
330
18
100
AcDbEntity
  8
ROGO
 62
     4
100
AcDbLine
 10
389.4865927886772
 20
139.3355850714756
 30
0.0
 11
390.0542987423288
 21
139.3355850714756
 31
0.0
  0
HATCH
  5
108B
330
18
100
AcDbEntity
  8
ROGO
 62
     4
100
AcDbHatch
 10
0.0
 20
0.0
 30
0.0
210
0.0
220
0.0
230
1.0
  2
SOLID
 70
     1
 71
     1
 91
        2
 92
        5
 93
        6
 72
     1
 10
378.8573811744029
 20
137.7949305951547
 11
379.5735432221284
 21
137.7949305951547
 72
     1
 10
379.5735432221284
 20
137.7949305951547
 11
379.8244956360118
 21
138.3496093743711
 72
     1
 10
379.8244956360118
 20
138.3496093743711
 11
380.4939602650089
 21
138.3496093743711
 72
     4
 94
        3
 73
     0
 74
     0
 95
       18
 96
       14
 40
0.108740278791501
 40
0.108740278791501
 40
0.108740278791501
 40
0.108740278791501
 40
0.6623149649549278
 40
1.384304701649787
 40
2.097394834876493
 40
2.774073369849618
 40
3.428974823686337
 40
4.005208313035923
 40
4.455173659284313
 40
4.720999734343524
 40
5.086034088486724
 40
5.569973738255373
 40
6.060470601257719
 40
6.060470601257719
 40
6.060470601257719
 40
6.060470601257719
 10
380.4939602650089
 20
138.3496093743711
 10
380.5410760795803
 20
138.3499602315761
 10
380.6496418401243
 20
138.3507686879223
 10
380.8015244896049
 20
138.4319077366786
 10
380.9455526370605
 20
138.5352729730819
 10
381.0615575118022
 20
138.6644170518491
 10
381.1338320438471
 20
138.8120711804529
 10
381.1450271404133
 20
138.9535841002985
 10
381.138192809004
 20
139.0655190605927
 10
381.0893580783584
 20
139.1435405068129
 10
381.0385884166181
 20
139.2227242959888
 10
380.9454940245182
 20
139.2913162352582
 10
380.8692166499737
 20
139.3213697009293
 10
380.8304280536447
 20
139.3355850714756
 72
     1
 10
380.8304280536447
 20
139.3355850714756
 11
379.619682681045
 21
139.3355850714756
 72
     1
 10
379.619682681045
 20
139.3355850714756
 11
378.8573811744029
 21
137.7949305951547
 97
        6
330
10B3
330
1092
330
1095
330
1091
330
1093
330
1090
 92
       20
 93
        4
 72
     1
 10
379.9794445448704
 20
138.6920921195124
 11
380.0980772896492
 21
138.9543054412763
 72
     1
 10
380.0980772896492
 20
138.9543054412763
 11
380.4029128832959
 21
138.9543054412763
 72
     4
 94
        3
 73
     0
 74
     0
 95
       15
 96
       11
 40
0.0
 40
0.0
 40
0.0
 40
0.0
 40
0.1156088489662582
 40
0.1683201251490143
 40
0.2281509327120859
 40
0.2689104606378715
 40
0.3333720767885836
 40
0.3719828239672797
 40
0.4382262137648758
 40
0.4603073577904129
 40
0.4603073577904129
 40
0.4603073577904129
 40
0.4603073577904129
 10
380.4029128832958
 20
138.9543054412763
 10
380.4463333250502
 20
138.9545043300767
 10
380.5095510999479
 20
138.9547939012303
 10
380.5441208308249
 20
138.8765933308628
 10
380.5286250291553
 20
138.8262443626862
 10
380.5091455435285
 20
138.774551665008
 10
380.4747208806139
 20
138.739425697299
 10
380.4285179407011
 20
138.7055934689749
 10
380.3848539545409
 20
138.7014979262425
 10
380.3564554329917
 20
138.6939732815788
 10
380.3493557992059
 20
138.6920921195124
 72
     1
 10
380.3493557992059
 20
138.6920921195124
 11
379.9794445448704
 21
138.6920921195124
 97
        4
330
1094
330
108F
330
10B2
330
108E
 75
     0
 76
     1
 47
0.0514683685270805
 98
        2
 10
379.6261539272168
 20
138.8564006419315
 10
379.6261539272168
 20
138.8564006419315
450
        0
451
        0
460
0.0
461
0.0
452
        0
462
0.0
453
        0
470

  0
HATCH
  5
108C
330
18
100
AcDbEntity
  8
ROGO
 62
     4
100
AcDbHatch
 10
0.0
 20
0.0
 30
0.0
210
0.0
220
0.0
230
1.0
  2
SOLID
 70
     1
 71
     0
 91
        1
 92
        7
 72
     0
 73
     1
 93
        4
 10
379.643410650606
 20
137.9493581989193
 10
379.5735432221284
 20
137.7949305951547
 10
388.7183727082759
 20
137.7949305951547
 10
388.7953752990604
 20
137.9493581989193
 97
        0
 75
     0
 76
     1
 47
0.0514683685270805
 98
        1
 10
385.4221337373352
 20
137.9085145795546
450
        0
451
        0
460
0.0
461
0.0
452
        0
462
0.0
453
        0
470

  0
LINE
  5
108D
330
18
100
AcDbEntity
  8
ROGO
 62
     4
100
AcDbLine
 10
379.6327009325166
 20
137.9493581989193
 30
0.0
 11
388.7953752990604
 21
137.9493581989193
 31
0.0
  0
LINE
  5
108E
102
{ACAD_REACTORS
330
108B
102
}
330
18
100
AcDbEntity
  8
ROGO
 62
     4
100
AcDbLine
 10
380.349355799206
 20
138.6920921195124
 30
0.0
 11
379.9794445448704
 21
138.6920921195124
 31
0.0
  0
LINE
  5
108F
102
{ACAD_REACTORS
330
108B
102
}
330
18
100
AcDbEntity
  8
ROGO
 62
     4
100
AcDbLine
 10
380.4029128832958
 20
138.9543054412763
 30
0.0
 11
380.0980772896492
 21
138.9543054412763
 31
0.0
  0
LINE
  5
1090
102
{ACAD_REACTORS
330
108B
102
}
330
18
100
AcDbEntity
  8
ROGO
 62
     4
100
AcDbLine
 10
380.493960265241
 20
138.3496093743711
 30
0.0
 11
379.8244956360118
 21
138.3496093743711
 31
0.0
  0
LINE
  5
1091
102
{ACAD_REACTORS
330
108B
330
1088
102
}
330
18
100
AcDbEntity
  8
ROGO
 62
     4
100
AcDbLine
 10
378.8573811744029
 20
137.7949305951547
 30
0.0
 11
389.2860786619277
 21
137.7949305951547
 31
0.0
  0
LINE
  5
1092
102
{ACAD_REACTORS
330
108B
102
}
330
18
100
AcDbEntity
  8
ROGO
 62
     4
100
AcDbLine
 10
379.619682681045
 20
139.3355850714756
 30
0.0
 11
380.8304280536448
 21
139.3355850714756
 31
0.0
  0
LINE
  5
1093
102
{ACAD_REACTORS
330
108B
102
}
330
18
100
AcDbEntity
  8
ROGO
 62
     4
100
AcDbLine
 10
379.8244956360118
 20
138.3496093743711
 30
0.0
 11
379.5735432221284
 21
137.7949305951547
 31
0.0
  0
LINE
  5
1094
102
{ACAD_REACTORS
330
108B
102
}
330
18
100
AcDbEntity
  8
ROGO
 62
     4
100
AcDbLine
 10
380.0980772896492
 20
138.9543054412763
 30
0.0
 11
379.9794445448704
 21
138.6920921195124
 31
0.0
  0
LINE
  5
1095
102
{ACAD_REACTORS
330
108B
102
}
330
18
100
AcDbEntity
  8
ROGO
 62
     4
100
AcDbLine
 10
379.619682681045
 20
139.3355850714756
 30
0.0
 11
378.8573811744029
 21
137.7949305951546
 31
0.0
  0
HATCH
  5
1096
330
18
100
AcDbEntity
  8
ROGO
 62
     4
100
AcDbHatch
 10
0.0
 20
0.0
 30
0.0
210
0.0
220
0.0
230
1.0
  2
SOLID
 70
     1
 71
     1
 91
        1
 92
        5
 93
        8
 72
     1
 10
385.9202653917939
 20
138.9687381861947
 11
386.1031870968465
 21
139.3355850714756
 72
     1
 10
386.1031870968465
 20
139.3355850714756
 11
385.1157912321909
 21
139.3355850714756
 72
     4
 94
        3
 73
     0
 74
     0
 95
       26
 96
       22
 40
0.0
 40
0.0
 40
0.0
 40
0.0
 40
0.1788672874439025
 40
0.2986050863114078
 40
0.3849457903691007
 40
0.4494136003730423
 40
0.5330317334891365
 40
0.5940648189551028
 40
0.7042763457550083
 40
0.7939869441021301
 40
0.8550045255505416
 40
0.9148353882480543
 40
1.021861169779601
 40
1.097541171377479
 40
1.13830069930319
 40
1.196198404703419
 40
1.238007636874677
 40
1.298575410885722
 40
1.332851531981694
 40
1.407440216243285
 40
1.441498057423176
 40
1.441498057423176
 40
1.441498057423176
 40
1.441498057423176
 10
385.1157912321909
 20
139.3355850714756
 10
385.05508091118
 20
139.3319629896168
 10
384.9537297311822
 20
139.3259162044191
 10
384.8424467520928
 20
139.2583129897128
 10
384.7609143267488
 20
139.2190114514989
 10
384.7027654998728
 20
139.1655843585677
 10
384.6601421740544
 20
139.110398074345
 10
384.6064074701763
 20
139.04464402133
 10
384.5625883546345
 20
138.968076087404
 10
384.5402739430245
 20
138.8836848758884
 10
384.5205080490073
 20
138.8164245906571
 10
384.5058493311045
 20
138.741471780413
 10
384.5095789239219
 20
138.6604963783297
 10
384.5149198715263
 20
138.5852905703844
 10
384.5387659038324
 20
138.5316048833649
 10
384.5659223107692
 20
138.4933843736441
 10
384.599174959158
 20
138.4512887194948
 10
384.6355606282527
 20
138.4234089040629
 10
384.6656545465987
 20
138.3729027449292
 10
384.7183329354648
 20
138.3664577947711
 10
384.751817415158
 20
138.3536304203958
 10
384.7623139228627
 20
138.3496093743711
 72
     1
 10
384.7623139228627
 20
138.3496093743711
 11
385.6115477702195
 21
138.3496093743711
 72
     1
 10
385.6115477702195
 20
138.3496093743711
 11
385.7944675381812
 21
138.7164523748437
 72
     1
 10
385.7944675381812
 20
138.7164523748437
 11
385.1639925154825
 21
138.7164523748437
 72
     4
 94
        3
 73
     0
 74
     0
 95
       16
 96
       12
 40
0.0
 40
0.0
 40
0.0
 40
0.0
 40
0.0540174455616886
 40
0.1085920418344853
 40
0.1411433357130011
 40
0.1723533270752968
 40
0.2066293119868672
 40
0.2305651034442044
 40
0.2532780921710005
 40
0.2993367724205433
 40
0.3936366304390786
 40
0.3936366304390786
 40
0.3936366304390786
 40
0.3936366304390786
 10
385.1639925154826
 20
138.7164523748437
 10
385.1449751669693
 20
138.7220475576208
 10
385.1067443198074
 20
138.7332956334207
 10
385.1035447066211
 20
138.7878221726887
 10
385.1079037166838
 20
138.8266767938086
 10
385.1261592605626
 20
138.8549652269478
 10
385.1483064016694
 20
138.8755487840717
 10
385.1565527645566
 20
138.9023556488606
 10
385.1807921969407
 20
138.9225981856075
 10
385.2237752053816
 20
138.9566230621844
 10
385.271306971917
 20
138.9638696006587
 10
385.3032411804873
 20
138.9687381861947
 72
     1
 10
385.3032411804873
 20
138.9687381861946
 11
385.9202653917939
 21
138.9687381861947
 97
        8
330
10C7
330
1097
330
1098
330
10C8
330
10CA
330
10C9
330
10CB
330
10CC
 75
     0
 76
     1
 47
0.0514683685270805
 98
        1
 10
385.461120123756
 20
139.1160953221012
450
        0
451
        0
460
0.0
461
0.0
452
        0
462
0.0
453
        0
470

  0
SPLINE
  5
1097
102
{ACAD_REACTORS
330
1096
102
}
330
18
100
AcDbEntity
  8
ROGO
 62
     4
100
AcDbSpline
210
0.0
220
0.0
230
1.0
 70
     8
 71
     3
 72
    26
 73
    22
 74
    20
 42
0.0000000001
 43
0.0000000001
 44
0.0000000001
 40
0.0
 40
0.0
 40
0.0
 40
0.0
 40
0.1788672874439025
 40
0.2986050863114078
 40
0.3849457903691007
 40
0.4494136003730423
 40
0.5330317334891365
 40
0.5940648189551028
 40
0.7042763457550083
 40
0.7939869441021301
 40
0.8550045255505416
 40
0.9148353882480543
 40
1.021861169779601
 40
1.097541171377479
 40
1.13830069930319
 40
1.196198404703419
 40
1.238007636874677
 40
1.298575410885722
 40
1.332851531981694
 40
1.407440216243285
 40
1.441498057423176
 40
1.441498057423176
 40
1.441498057423176
 40
1.441498057423176
 10
385.1157912321909
 20
139.3355850714756
 30
0.0
 10
385.05508091118
 20
139.3319629896168
 30
0.0
 10
384.9537297311822
 20
139.3259162044191
 30
0.0
 10
384.8424467520928
 20
139.2583129897128
 30
0.0
 10
384.7609143267488
 20
139.2190114514989
 30
0.0
 10
384.7027654998728
 20
139.1655843585677
 30
0.0
 10
384.6601421740544
 20
139.110398074345
 30
0.0
 10
384.6064074701763
 20
139.04464402133
 30
0.0
 10
384.5625883546345
 20
138.968076087404
 30
0.0
 10
384.5402739430245
 20
138.8836848758884
 30
0.0
 10
384.5205080490073
 20
138.8164245906571
 30
0.0
 10
384.5058493311045
 20
138.741471780413
 30
0.0
 10
384.5095789239219
 20
138.6604963783297
 30
0.0
 10
384.5149198715263
 20
138.5852905703844
 30
0.0
 10
384.5387659038324
 20
138.5316048833649
 30
0.0
 10
384.5659223107692
 20
138.4933843736441
 30
0.0
 10
384.599174959158
 20
138.4512887194948
 30
0.0
 10
384.6355606282527
 20
138.4234089040629
 30
0.0
 10
384.6656545465987
 20
138.3729027449292
 30
0.0
 10
384.7183329354648
 20
138.3664577947711
 30
0.0
 10
384.751817415158
 20
138.3536304203958
 30
0.0
 10
384.7623139228627
 20
138.3496093743711
 30
0.0
 11
385.1157912321909
 21
139.3355850714756
 31
0.0
 11
384.9390525775267
 21
139.3080722660018
 31
0.0
 11
384.8319381013831
 21
139.254559375236
 31
0.0
 11
384.7569581220644
 21
139.211749097515
 31
0.0
 11
384.7087568387727
 21
139.1689386453363
 31
0.0
 11
384.6551997546829
 21
139.104723141526
 31
0.0
 11
384.6177097650236
 21
139.0565615572826
 31
0.0
 11
384.5641523729698
 21
138.9602382143383
 31
0.0
 11
384.5373739849068
 21
138.8746174844386
 31
0.0
 11
384.5213068904763
 21
138.8157532871505
 31
0.0
 11
384.5105952888799
 21
138.7568890898624
 31
0.0
 11
384.5105952888799
 21
138.6498633083309
 31
0.0
 11
384.5213068904763
 21
138.5749451914759
 31
0.0
 11
384.5373739849068
 21
138.5374860458197
 31
0.0
 11
384.5695081737679
 21
138.4893244615762
 31
0.0
 11
384.5962868697948
 21
138.4572166224423
 31
0.0
 11
384.6391323522883
 21
138.4144063447212
 31
0.0
 11
384.6605552475172
 21
138.3876498121096
 31
0.0
 11
384.7301797340015
 21
138.3608934539555
 31
0.0
 11
384.7623139228627
 21
138.3496093743711
 31
0.0
  0
LINE
  5
1098
102
{ACAD_REACTORS
330
1096
102
}
330
18
100
AcDbEntity
  8
ROGO
 62
     4
100
AcDbLine
 10
384.7623139228626
 20
138.3496093743711
 30
0.0
 11
385.6115477702195
 21
138.3496093743711
 31
0.0
  0
HATCH
  5
1099
330
18
100
AcDbEntity
  8
ROGO
 62
     4
100
AcDbHatch
 10
0.0
 20
0.0
 30
0.0
210
0.0
220
0.0
230
1.0
  2
SOLID
 70
     1
 71
     1
 91
        2
 92
        7
 72
     0
 73
     1
 93
        8
 10
384.0542839858113
 20
139.3355850714755
 10
383.2655878700468
 20
139.3355850714755
 10
382.5545816326506
 20
138.3496093743711
 10
383.1006356890368
 20
138.3496093743711
 10
383.2360068775008
 20
138.5373330466732
 10
383.8591205365394
 20
138.5373330466732
 10
383.9425148301638
 20
138.3496093743711
 10
384.4922934588975
 20
138.3496093743711
 97
        8
330
10A0
330
10A6
330
10A1
330
10A2
330
10A4
330
109A
330
109F
330
109C
 92
       22
 72
     0
 73
     1
 93
        3
 10
383.7711620603124
 20
138.7353308646267
 10
383.3787869520698
 20
138.7353308646267
 10
383.621587069435
 20
139.0720297603394
 97
        3
330
10A3
330
10A5
330
109B
 75
     0
 76
     1
 47
0.0128389261915577
 98
        2
 10
383.9925228480408
 20
139.0990356500716
 10
383.9925228480408
 20
139.0990356500716
450
        0
451
        0
460
0.0
461
0.0
452
        0
462
0.0
453
        0
470

  0
LINE
  5
109A
102
{ACAD_REACTORS
330
1099
102
}
330
18
100
AcDbEntity
  8
ROGO
 62
     4
100
AcDbLine
 10
383.8591205365394
 20
138.5373330466732
 30
0.0
 11
383.9425148301637
 21
138.3496093743711
 31
0.0
  0
LINE
  5
109B
102
{ACAD_REACTORS
330
1099
102
}
330
18
100
AcDbEntity
  8
ROGO
 62
     4
100
AcDbLine
 10
383.621587069435
 20
139.0720297603394
 30
0.0
 11
383.7711620603124
 21
138.7353308646267
 31
0.0
  0
LINE
  5
109C
102
{ACAD_REACTORS
330
1099
102
}
330
18
100
AcDbEntity
  8
ROGO
 62
     4
100
AcDbLine
 10
384.0542839858113
 20
139.3355850714756
 30
0.0
 11
384.4922934588975
 21
138.3496093743711
 31
0.0
  0
HATCH
  5
109D
330
18
100
AcDbEntity
  8
ROGO
 62
     4
100
AcDbHatch
 10
0.0
 20
0.0
 30
0.0
210
0.0
220
0.0
230
1.0
  2
SOLID
 70
     1
 71
     1
 91
        1
 92
        1
 93
       12
 72
     1
 10
381.5457063781634
 20
139.3355850714756
 11
382.8792795273956
 21
139.3355850714756
 72
     1
 10
382.8792795273956
 20
139.3355850714756
 11
382.7675272779085
 21
139.1097274522645
 72
     1
 10
382.7675272779085
 20
139.1097274522645
 11
382.0666349293177
 21
139.1097274522645
 72
     1
 10
382.0666349293177
 20
139.1097274522645
 11
381.9792585571922
 21
138.9331348604003
 72
     1
 10
381.9792585571922
 20
138.9331348604003
 11
382.680150905783
 21
138.9331348604003
 72
     1
 10
382.680150905783
 20
138.9331348604003
 11
382.590554621587
 21
138.7520557006382
 72
     1
 10
382.590554621587
 20
138.7520557006382
 11
381.8896622729962
 21
138.7520557006382
 72
     1
 10
381.8896622729962
 20
138.7520557006382
 11
381.8022822017751
 21
138.5754556326926
 72
     1
 10
381.8022822017752
 20
138.5754556326926
 11
382.5031745503659
 21
138.5754556326926
 72
     1
 10
382.5031745503659
 20
138.5754556326926
 11
382.3914279221414
 21
138.3496093743711
 72
     1
 10
382.3914279221414
 20
138.3496093743711
 11
381.0578547729092
 21
138.3496093743711
 72
     1
 10
381.0578547729092
 20
138.3496093743711
 11
381.5457063781634
 21
139.3355850714756
 97
       12
330
109E
330
10B0
330
10AD
330
10AE
330
10AC
330
10A9
330
10AA
330
10A7
330
10AB
330
10A8
330
10AF
330
10B1
 75
     0
 76
     1
 98
        1
 10
326.9963113360652
 20
71.15977753986971
450
        0
451
        0
460
0.0
461
0.0
452
        0
462
0.0
453
        0
470

  0
LINE
  5
109E
102
{ACAD_REACTORS
330
109D
102
}
330
18
100
AcDbEntity
  8
ROGO
 62
     4
100
AcDbLine
 10
381.5457063781634
 20
139.3355850714756
 30
0.0
 11
382.8792795273956
 21
139.3355850714756
 31
0.0
  0
LINE
  5
109F
102
{ACAD_REACTORS
330
1099
102
}
330
18
100
AcDbEntity
  8
ROGO
 62
     4
100
AcDbLine
 10
384.4922934588975
 20
138.3496093743711
 30
0.0
 11
383.9425148301637
 21
138.3496093743711
 31
0.0
  0
LINE
  5
10A0
102
{ACAD_REACTORS
330
1099
102
}
330
18
100
AcDbEntity
  8
ROGO
 62
     4
100
AcDbLine
 10
383.2655878700468
 20
139.3355850714756
 30
0.0
 11
384.0542839858113
 21
139.3355850714756
 31
0.0
  0
LINE
  5
10A1
102
{ACAD_REACTORS
330
1099
102
}
330
18
100
AcDbEntity
  8
ROGO
 62
     4
100
AcDbLine
 10
382.5545816326506
 20
138.3496093743711
 30
0.0
 11
383.1006356890368
 21
138.3496093743711
 31
0.0
  0
LINE
  5
10A2
102
{ACAD_REACTORS
330
1099
102
}
330
18
100
AcDbEntity
  8
ROGO
 62
     4
100
AcDbLine
 10
383.2360068775008
 20
138.5373330466732
 30
0.0
 11
383.1006356890368
 21
138.3496093743711
 31
0.0
  0
LINE
  5
10A3
102
{ACAD_REACTORS
330
1099
102
}
330
18
100
AcDbEntity
  8
ROGO
 62
     4
100
AcDbLine
 10
383.3787869520699
 20
138.7353308646267
 30
0.0
 11
383.7711620603124
 21
138.7353308646267
 31
0.0
  0
LINE
  5
10A4
102
{ACAD_REACTORS
330
1099
102
}
330
18
100
AcDbEntity
  8
ROGO
 62
     4
100
AcDbLine
 10
383.2360068775008
 20
138.5373330466732
 30
0.0
 11
383.8591205365394
 21
138.5373330466732
 31
0.0
  0
LINE
  5
10A5
102
{ACAD_REACTORS
330
1099
102
}
330
18
100
AcDbEntity
  8
ROGO
 62
     4
100
AcDbLine
 10
383.621587069435
 20
139.0720297603394
 30
0.0
 11
383.3787869520699
 21
138.7353308646267
 31
0.0
  0
LINE
  5
10A6
102
{ACAD_REACTORS
330
1099
102
}
330
18
100
AcDbEntity
  8
ROGO
 62
     4
100
AcDbLine
 10
383.2655878700468
 20
139.3355850714756
 30
0.0
 11
382.5545816326506
 21
138.3496093743711
 31
0.0
  0
LINE
  5
10A7
102
{ACAD_REACTORS
330
109D
102
}
330
18
100
AcDbEntity
  8
ROGO
 62
     4
100
AcDbLine
 10
381.8896622729962
 20
138.7520557006382
 30
0.0
 11
381.8022822017751
 21
138.5754556326926
 31
0.0
  0
LINE
  5
10A8
102
{ACAD_REACTORS
330
109D
102
}
330
18
100
AcDbEntity
  8
ROGO
 62
     4
100
AcDbLine
 10
382.5031745503659
 20
138.5754556326926
 30
0.0
 11
382.3914279221414
 21
138.3496093743711
 31
0.0
  0
LINE
  5
10A9
102
{ACAD_REACTORS
330
109D
102
}
330
18
100
AcDbEntity
  8
ROGO
 62
     4
100
AcDbLine
 10
382.680150905783
 20
138.9331348604003
 30
0.0
 11
382.590554621587
 21
138.7520557006382
 31
0.0
  0
LINE
  5
10AA
102
{ACAD_REACTORS
330
109D
102
}
330
18
100
AcDbEntity
  8
ROGO
 62
     4
100
AcDbLine
 10
381.8896622729962
 20
138.7520557006382
 30
0.0
 11
382.590554621587
 21
138.7520557006382
 31
0.0
  0
LINE
  5
10AB
102
{ACAD_REACTORS
330
109D
102
}
330
18
100
AcDbEntity
  8
ROGO
 62
     4
100
AcDbLine
 10
381.8022822017752
 20
138.5754556326926
 30
0.0
 11
382.5031745503659
 21
138.5754556326926
 31
0.0
  0
LINE
  5
10AC
102
{ACAD_REACTORS
330
109D
102
}
330
18
100
AcDbEntity
  8
ROGO
 62
     4
100
AcDbLine
 10
381.9792585571922
 20
138.9331348604003
 30
0.0
 11
382.680150905783
 21
138.9331348604003
 31
0.0
  0
LINE
  5
10AD
102
{ACAD_REACTORS
330
109D
102
}
330
18
100
AcDbEntity
  8
ROGO
 62
     4
100
AcDbLine
 10
382.0666349293177
 20
139.1097274522645
 30
0.0
 11
382.7675272779085
 21
139.1097274522645
 31
0.0
  0
LINE
  5
10AE
102
{ACAD_REACTORS
330
109D
102
}
330
18
100
AcDbEntity
  8
ROGO
 62
     4
100
AcDbLine
 10
382.0666349293177
 20
139.1097274522645
 30
0.0
 11
381.9792585571922
 21
138.9331348604003
 31
0.0
  0
LINE
  5
10AF
102
{ACAD_REACTORS
330
109D
102
}
330
18
100
AcDbEntity
  8
ROGO
 62
     4
100
AcDbLine
 10
381.0578547729092
 20
138.3496093743711
 30
0.0
 11
382.3914279221414
 21
138.3496093743711
 31
0.0
  0
LINE
  5
10B0
102
{ACAD_REACTORS
330
109D
102
}
330
18
100
AcDbEntity
  8
ROGO
 62
     4
100
AcDbLine
 10
382.8792795273956
 20
139.3355850714756
 30
0.0
 11
382.7675272779085
 21
139.1097274522645
 31
0.0
  0
LINE
  5
10B1
102
{ACAD_REACTORS
330
109D
102
}
330
18
100
AcDbEntity
  8
ROGO
 62
     4
100
AcDbLine
 10
381.5457063781634
 20
139.3355850714756
 30
0.0
 11
381.0578547729092
 21
138.3496093743711
 31
0.0
  0
SPLINE
  5
10B2
102
{ACAD_REACTORS
330
108B
102
}
330
18
100
AcDbEntity
  8
ROGO
 62
     4
100
AcDbSpline
210
0.0
220
0.0
230
1.0
 70
     8
 71
     3
 72
    15
 73
    11
 74
     9
 42
0.0000000001
 43
0.0000000001
 44
0.0000000001
 40
0.0
 40
0.0
 40
0.0
 40
0.0
 40
0.1156088489662582
 40
0.1683201251490143
 40
0.2281509327120859
 40
0.2689104606378715
 40
0.3333720767885836
 40
0.3719828239672797
 40
0.4382262137648758
 40
0.4603073577904129
 40
0.4603073577904129
 40
0.4603073577904129
 40
0.4603073577904129
 10
380.4029128832958
 20
138.9543054412763
 30
0.0
 10
380.4463333250502
 20
138.9545043300767
 30
0.0
 10
380.5095510999479
 20
138.9547939012303
 30
0.0
 10
380.5441208308249
 20
138.8765933308628
 30
0.0
 10
380.5286250291553
 20
138.8262443626862
 30
0.0
 10
380.5091455435285
 20
138.774551665008
 30
0.0
 10
380.4747208806139
 20
138.739425697299
 30
0.0
 10
380.4285179407011
 20
138.7055934689749
 30
0.0
 10
380.3848539545409
 20
138.7014979262425
 30
0.0
 10
380.3564554329917
 20
138.6939732815788
 30
0.0
 10
380.3493557992059
 20
138.6920921195124
 30
0.0
 11
380.4029128832958
 21
138.9543054412763
 31
0.0
 11
380.5153828522738
 21
138.9275489086646
 31
0.0
 11
380.5368057475025
 21
138.8793873244212
 31
0.0
 11
380.52609445387
 21
138.8205231271331
 31
0.0
 11
380.5100273594395
 21
138.7830639814769
 31
0.0
 11
380.467181568982
 21
138.7349023972335
 31
0.0
 11
380.4350473801209
 21
138.7134971711442
 31
0.0
 11
380.3707786944347
 21
138.6974434260347
 31
0.0
 11
380.3493557992059
 21
138.6920921195124
 31
0.0
  0
SPLINE
  5
10B3
102
{ACAD_REACTORS
330
108B
102
}
330
18
100
AcDbEntity
  8
ROGO
 62
     4
100
AcDbSpline
210
0.0
220
0.0
230
1.0
 70
     8
 71
     3
 72
    18
 73
    14
 74
     0
 42
0.0000000001
 43
0.0000000001
 40
0.1087402787915014
 40
0.1087402787915014
 40
0.1087402787915014
 40
0.1087402787915014
 40
0.5992371417938475
 40
1.083176791562496
 40
1.448211145705696
 40
1.714037220764907
 40
2.164002567013297
 40
2.740236056362883
 40
3.395137510199602
 40
4.071816045172726
 40
4.784906178399433
 40
5.506895915094292
 40
6.060470601257719
 40
6.060470601257719
 40
6.060470601257719
 40
6.060470601257719
 10
380.8304280536447
 20
139.3355850714756
 30
0.0
 10
380.8692166499737
 20
139.3213697009293
 30
0.0
 10
380.9454940245182
 20
139.2913162352582
 30
0.0
 10
381.0385884166181
 20
139.2227242959888
 30
0.0
 10
381.0893580783584
 20
139.1435405068129
 30
0.0
 10
381.138192809004
 20
139.0655190605927
 30
0.0
 10
381.1450271404133
 20
138.9535841002985
 30
0.0
 10
381.1338320438471
 20
138.8120711804529
 30
0.0
 10
381.0615575118022
 20
138.6644170518491
 30
0.0
 10
380.9455526370605
 20
138.5352729730819
 30
0.0
 10
380.8015244896049
 20
138.4319077366786
 30
0.0
 10
380.6496418401243
 20
138.3507686879223
 30
0.0
 10
380.5410760795803
 20
138.3499602315761
 30
0.0
 10
380.4939602650089
 20
138.3496093743711
 30
0.0
  0
HATCH
  5
10B4
330
18
100
AcDbEntity
  8
ROGO
 62
     4
100
AcDbHatch
 10
0.0
 20
0.0
 30
0.0
210
0.0
220
0.0
230
1.0
  2
SOLID
 70
     1
 71
     1
 91
        2
 92
        5
 93
        6
 72
     4
 94
        3
 73
     0
 74
     0
 95
       38
 96
       34
 40
0.0
 40
0.0
 40
0.0
 40
0.0
 40
0.1357297776392472
 40
0.1783565260696803
 40
0.2331289995657126
 40
0.2787728168223356
 40
0.3172845133349857
 40
0.3684368351424421
 40
0.394573655541001
 40
0.4240105759070257
 40
0.4673950571103002
 40
0.516540260167967
 40
0.5484202720892082
 40
0.5830526600236579
 40
0.6215505047446177
 40
0.6799729348677249
 40
0.735480335983191
 40
0.7612854497446523
 40
0.7907127299341113
 40
0.8255743389678581
 40
0.8503913247602358
 40
0.8711951059485215
 40
0.9008982057109113
 40
0.9335368242385532
 40
0.9661752610396609
 40
0.9947339386723063
 40
1.060138386831908
 40
1.085943500593297
 40
1.137553758768808
 40
1.183174931093528
 40
1.270513245267282
 40
1.378279681714248
 40
1.533910098009842
 40
1.533910098009842
 40
1.533910098009842
 40
1.533910098009842
 10
386.6507263870984
 20
139.3396976449364
 10
386.6054835838892
 20
139.3365015598069
 10
386.5460320077474
 20
139.3323017250277
 10
386.4705424071676
 20
139.3116198251157
 10
386.4293922228224
 20
139.2869810225398
 10
386.3865672309517
 20
139.2688703216341
 10
386.3500549368548
 20
139.242051965026
 10
386.3131235222081
 20
139.2282327242407
 10
386.2872630151404
 20
139.2033141630438
 10
386.2573315876115
 20
139.1880928303605
 10
386.2334966604525
 20
139.1540230626481
 10
386.2068559721606
 20
139.1221690644193
 10
386.1759494222224
 20
139.0989170663467
 10
386.1505840018944
 20
139.0744956654339
 10
386.1273147557714
 20
139.0368061060289
 10
386.1135429744691
 20
138.9867278419934
 10
386.0747226345984
 20
138.955110232096
 10
386.0688775068661
 20
138.9170964309925
 10
386.047404793058
 20
138.8946689280198
 10
386.0380677061002
 20
138.8657182436731
 10
386.034511693947
 20
138.8391943030514
 10
386.030243631432
 20
138.8144227786387
 10
386.0190791882035
 20
138.7883642291897
 10
386.0227233009931
 20
138.7561750532852
 10
386.0216852026632
 20
138.725005205846
 10
386.0222961247489
 20
138.6829249411968
 10
386.0200912223339
 20
138.6419546287672
 10
386.0376744550383
 20
138.597369211395
 10
386.0480796286277
 20
138.5576274799986
 10
386.0765758891325
 20
138.5026002336504
 10
386.1257313413255
 20
138.4391106893805
 10
386.2192045454294
 20
138.3620464117822
 10
386.309081764094
 20
138.3542285995452
 10
386.3621865328511
 20
138.3496093743711
 72
     1
 10
386.3621865328511
 20
138.3496093743711
 11
386.9256652580402
 21
138.3496093743711
 72
     4
 94
        3
 73
     0
 74
     0
 95
       11
 96
        7
 40
0.1647869275458135
 40
0.1647869275458135
 40
0.1647869275458135
 40
0.1647869275458135
 40
0.2545010798212315
 40
0.5111620267764023
 40
0.7602998271033902
 40
0.8850764140209603
 40
0.8850764140209603
 40
0.8850764140209603
 40
0.8850764140209603
 10
386.9256652580408
 20
138.3496093743711
 10
386.9335280909831
 20
138.3494578409687
 10
386.9638855036269
 20
138.3488727894913
 10
387.0157666857231
 20
138.3563261312247
 10
387.0703526007578
 20
138.3634685185234
 10
387.1028952264556
 20
138.3686701036703
 10
387.1133910241103
 20
138.3715916129479
 72
     4
 94
        3
 73
     0
 74
     0
 95
        9
 96
        5
 40
0.0
 40
0.0
 40
0.0
 40
0.0
 40
0.0852811146443373
 40
0.1999468966809951
 40
0.1999468966809951
 40
0.1999468966809951
 40
0.1999468966809951
 10
387.1133910241103
 20
138.3715916129479
 10
387.1407857855217
 20
138.3799728627505
 10
387.2050145136798
 20
138.3996232260849
 10
387.2580821562571
 20
138.4411545146783
 10
387.2885154504867
 20
138.4649719270244
 72
     4
 94
        3
 73
     0
 74
     0
 95
       25
 96
       21
 40
0.0
 40
0.0
 40
0.0
 40
0.0
 40
0.165525918914855
 40
0.3412380755365305
 40
0.5940540902285263
 40
0.7697671103696209
 40
0.9377330196075423
 40
1.11479469302833
 40
1.274661249598185
 40
1.574522170874768
 40
1.815540668866877
 40
2.15849091873445
 40
2.536227739636605
 40
2.738070817316548
 40
2.925680654369045
 40
3.162706124480894
 40
3.395643218188267
 40
3.648478129958861
 40
3.928509979727306
 40
4.337226830236035
 40
4.337226830236035
 40
4.337226830236035
 40
4.337226830236035
 10
387.2885154504867
 20
138.4649719270244
 10
387.2996976116585
 20
138.4742124534572
 10
387.320907114109
 20
138.4961899438897
 10
387.3585256591547
 20
138.5318105592808
 10
387.3916758344169
 20
138.5733114028932
 10
387.4325689622533
 20
138.6069463821837
 10
387.4538577967545
 20
138.6480676376858
 10
387.4845439712049
 20
138.6804086292535
 10
387.5102846466731
 20
138.7303561005944
 10
387.532124337603
 20
138.7877299225175
 10
387.5529454672161
 20
138.8625156090375
 10
387.5609243388797
 20
138.9468849797967
 10
387.5491146165617
 20
139.0285123036653
 10
387.5205853128244
 20
139.089526047003
 10
387.4996109306397
 20
139.1403747138033
 10
387.4677796779411
 20
139.1885373543973
 10
387.4314645208212
 20
139.2409195522661
 10
387.3803028949037
 20
139.2842481103686
 10
387.3134399027139
 20
139.3365093334677
 10
387.2511620181105
 20
139.3385102576685
 10
387.2142051122881
 20
139.3396976449364
 72
     1
 10
387.2142051122882
 20
139.3396976449363
 11
386.6507263870984
 21
139.3396976449364
 97
        6
330
10BA
330
10B9
330
10BB
330
10B8
330
10B7
330
10B6
 92
       20
 93
        1
 72
     3
 10
386.7802168811867
 20
138.8308491828939
 11
0.1338651859479742
 21
0.1177176799836958
 40
0.678808341743879
 50
0.0
 51
360.0
 73
     1
 97
        1
330
10B5
 75
     0
 76
     1
 47
0.088756267210375
 98
        2
 10
386.819584937578
 20
139.0662312970067
 10
386.819584937578
 20
139.0662312970067
450
        0
451
        0
460
0.0
461
0.0
452
        0
462
0.0
453
        0
470

  0
ELLIPSE
  5
10B5
102
{ACAD_REACTORS
330
10B4
102
}
330
18
100
AcDbEntity
  8
ROGO
 62
     4
100
AcDbEllipse
 10
386.7802168811867
 20
138.8308491828939
 30
0.0
 11
0.1338651859479742
 21
0.1177176799836958
 31
0.0
210
0.0
220
0.0
230
1.0
 40
0.678808341743879
 41
0.0
 42
6.283185307179586
  0
SPLINE
  5
10B6
102
{ACAD_REACTORS
330
10B4
102
}
330
18
100
AcDbEntity
  8
ROGO
 62
     4
100
AcDbSpline
210
0.0
220
0.0
230
1.0
 70
     8
 71
     3
 72
     9
 73
     5
 74
     3
 42
0.0000000001
 43
0.0000000001
 44
0.0000000001
 40
0.0
 40
0.0
 40
0.0
 40
0.0
 40
0.0852811146443373
 40
0.1999468966809951
 40
0.1999468966809951
 40
0.1999468966809951
 40
0.1999468966809951
 10
387.1133910241103
 20
138.3715916129479
 30
0.0
 10
387.1407857855217
 20
138.3799728627505
 30
0.0
 10
387.2050145136798
 20
138.3996232260849
 30
0.0
 10
387.2580821562571
 20
138.4411545146783
 30
0.0
 10
387.2885154504867
 20
138.4649719270244
 30
0.0
 11
387.1133910241103
 21
138.3715916129479
 31
0.0
 11
387.1935449025768
 21
138.4007159031841
 31
0.0
 11
387.2885154504867
 21
138.4649719270244
 31
0.0
  0
SPLINE
  5
10B7
102
{ACAD_REACTORS
330
10B4
102
}
330
18
100
AcDbEntity
  8
ROGO
 62
     4
100
AcDbSpline
210
0.0
220
0.0
230
1.0
 70
     8
 71
     3
 72
    11
 73
     7
 74
     0
 42
0.0000000001
 43
0.0000000001
 40
0.1647869275458134
 40
0.1647869275458134
 40
0.1647869275458134
 40
0.1647869275458134
 40
0.2895635144633836
 40
0.5387013147903714
 40
0.7953622617455423
 40
0.8850764140209602
 40
0.8850764140209602
 40
0.8850764140209602
 40
0.8850764140209602
 10
387.1133910241103
 20
138.3715916129479
 30
0.0
 10
387.1028952264556
 20
138.3686701036703
 30
0.0
 10
387.0703526007578
 20
138.3634685185234
 30
0.0
 10
387.0157666857231
 20
138.3563261312247
 30
0.0
 10
386.9638855036269
 20
138.3488727894913
 30
0.0
 10
386.9335280909831
 20
138.3494578409687
 30
0.0
 10
386.9256652580408
 20
138.3496093743711
 30
0.0
  0
LINE
  5
10B8
102
{ACAD_REACTORS
330
10B4
102
}
330
18
100
AcDbEntity
  8
ROGO
 62
     4
100
AcDbLine
 10
386.3621865328511
 20
138.3496093743711
 30
0.0
 11
386.9256652580408
 21
138.3496093743711
 31
0.0
  0
LINE
  5
10B9
102
{ACAD_REACTORS
330
10B4
102
}
330
18
100
AcDbEntity
  8
ROGO
 62
     4
100
AcDbLine
 10
386.6507263870984
 20
139.3396976449364
 30
0.0
 11
387.2142051122881
 21
139.3396976449364
 31
0.0
  0
SPLINE
  5
10BA
102
{ACAD_REACTORS
330
10B4
102
}
330
18
100
AcDbEntity
  8
ROGO
 62
     4
100
AcDbSpline
210
0.0
220
0.0
230
1.0
 70
     8
 71
     3
 72
    25
 73
    21
 74
     0
 42
0.0000000001
 43
0.0000000001
 40
0.0
 40
0.0
 40
0.0
 40
0.0
 40
0.4087168505087288
 40
0.6887487002771746
 40
0.9415836120477687
 40
1.17452070575514
 40
1.41154617586699
 40
1.599156012919487
 40
1.80099909059943
 40
2.178735911501585
 40
2.521686161369157
 40
2.762704659361267
 40
3.06256558063785
 40
3.222432137207705
 40
3.399493810628493
 40
3.567459719866414
 40
3.743172740007509
 40
3.995988754699505
 40
4.17170091132118
 40
4.337226830236035
 40
4.337226830236035
 40
4.337226830236035
 40
4.337226830236035
 10
387.2142051122881
 20
139.3396976449364
 30
0.0
 10
387.2511620181105
 20
139.3385102576685
 30
0.0
 10
387.3134399027139
 20
139.3365093334677
 30
0.0
 10
387.3803028949037
 20
139.2842481103686
 30
0.0
 10
387.4314645208212
 20
139.2409195522661
 30
0.0
 10
387.4677796779411
 20
139.1885373543973
 30
0.0
 10
387.4996109306397
 20
139.1403747138033
 30
0.0
 10
387.5205853128244
 20
139.089526047003
 30
0.0
 10
387.5491146165617
 20
139.0285123036653
 30
0.0
 10
387.5609243388797
 20
138.9468849797967
 30
0.0
 10
387.5529454672161
 20
138.8625156090375
 30
0.0
 10
387.532124337603
 20
138.7877299225175
 30
0.0
 10
387.5102846466731
 20
138.7303561005944
 30
0.0
 10
387.4845439712049
 20
138.6804086292535
 30
0.0
 10
387.4538577967545
 20
138.6480676376858
 30
0.0
 10
387.4325689622533
 20
138.6069463821837
 30
0.0
 10
387.3916758344169
 20
138.5733114028932
 30
0.0
 10
387.3585256591547
 20
138.5318105592808
 30
0.0
 10
387.320907114109
 20
138.4961899438897
 30
0.0
 10
387.2996976116585
 20
138.4742124534572
 30
0.0
 10
387.2885154504867
 20
138.4649719270244
 30
0.0
  0
SPLINE
  5
10BB
102
{ACAD_REACTORS
330
10B4
102
}
330
18
100
AcDbEntity
  8
ROGO
 62
     4
100
AcDbSpline
210
0.0
220
0.0
230
1.0
 70
     8
 71
     3
 72
    38
 73
    34
 74
    32
 42
0.0000000001
 43
0.0000000001
 44
0.0000000001
 40
0.0
 40
0.0
 40
0.0
 40
0.0
 40
0.1357297776392472
 40
0.1783565260696803
 40
0.2331289995657126
 40
0.2787728168223356
 40
0.3172845133349857
 40
0.3684368351424421
 40
0.394573655541001
 40
0.4240105759070257
 40
0.4673950571103002
 40
0.516540260167967
 40
0.5484202720892082
 40
0.5830526600236579
 40
0.6215505047446177
 40
0.6799729348677249
 40
0.735480335983191
 40
0.7612854497446523
 40
0.7907127299341113
 40
0.8255743389678581
 40
0.8503913247602358
 40
0.8711951059485215
 40
0.9008982057109113
 40
0.9335368242385532
 40
0.9661752610396609
 40
0.9947339386723063
 40
1.060138386831908
 40
1.085943500593297
 40
1.137553758768808
 40
1.183174931093528
 40
1.270513245267282
 40
1.378279681714248
 40
1.533910098009842
 40
1.533910098009842
 40
1.533910098009842
 40
1.533910098009842
 10
386.6507263870984
 20
139.3396976449364
 30
0.0
 10
386.6054835838892
 20
139.3365015598069
 30
0.0
 10
386.5460320077474
 20
139.3323017250277
 30
0.0
 10
386.4705424071676
 20
139.3116198251157
 30
0.0
 10
386.4293922228224
 20
139.2869810225398
 30
0.0
 10
386.3865672309517
 20
139.2688703216341
 30
0.0
 10
386.3500549368548
 20
139.242051965026
 30
0.0
 10
386.3131235222081
 20
139.2282327242407
 30
0.0
 10
386.2872630151404
 20
139.2033141630438
 30
0.0
 10
386.2573315876115
 20
139.1880928303605
 30
0.0
 10
386.2334966604525
 20
139.1540230626481
 30
0.0
 10
386.2068559721606
 20
139.1221690644193
 30
0.0
 10
386.1759494222224
 20
139.0989170663467
 30
0.0
 10
386.1505840018944
 20
139.0744956654339
 30
0.0
 10
386.1273147557714
 20
139.0368061060289
 30
0.0
 10
386.1135429744691
 20
138.9867278419934
 30
0.0
 10
386.0747226345984
 20
138.955110232096
 30
0.0
 10
386.0688775068661
 20
138.9170964309925
 30
0.0
 10
386.047404793058
 20
138.8946689280198
 30
0.0
 10
386.0380677061002
 20
138.8657182436731
 30
0.0
 10
386.034511693947
 20
138.8391943030514
 30
0.0
 10
386.030243631432
 20
138.8144227786387
 30
0.0
 10
386.0190791882035
 20
138.7883642291897
 30
0.0
 10
386.0227233009931
 20
138.7561750532852
 30
0.0
 10
386.0216852026632
 20
138.725005205846
 30
0.0
 10
386.0222961247489
 20
138.6829249411968
 30
0.0
 10
386.0200912223339
 20
138.6419546287672
 30
0.0
 10
386.0376744550383
 20
138.597369211395
 30
0.0
 10
386.0480796286277
 20
138.5576274799986
 30
0.0
 10
386.0765758891325
 20
138.5026002336504
 30
0.0
 10
386.1257313413255
 20
138.4391106893805
 30
0.0
 10
386.2192045454294
 20
138.3620464117822
 30
0.0
 10
386.309081764094
 20
138.3542285995452
 30
0.0
 10
386.3621865328511
 20
138.3496093743711
 30
0.0
 11
386.6507263870984
 21
139.3396976449364
 31
0.0
 11
386.5159812583645
 21
139.3233782448093
 31
0.0
 11
386.4751494108936
 21
139.3111389673038
 31
0.0
 11
386.4261513864058
 21
139.2866600488396
 31
0.0
 11
386.3853195389349
 21
139.2662610712705
 31
0.0
 11
386.3526541892763
 21
139.2458619119749
 31
0.0
 11
386.307739253297
 21
139.2213831752373
 31
0.0
 11
386.2873231691636
 21
139.2050639568368
 31
0.0
 11
386.262823996522
 21
139.1887445567097
 31
0.0
 11
386.2342417353718
 21
139.1561061199085
 31
0.0
 11
386.2015763857133
 21
139.1193879239388
 31
0.0
 11
386.1770772130715
 21
139.0989887646433
 31
0.0
 11
386.1525783612255
 21
139.0745100279056
 31
0.0
 11
386.1321622770922
 21
139.0418715911045
 31
0.0
 11
386.1076634252463
 21
138.9888339950078
 31
0.0
 11
386.074997754792
 21
138.9439560989746
 31
0.0
 11
386.0668315777752
 21
138.9194771805105
 31
0.0
 11
386.050498902946
 21
138.8949984437728
 31
0.0
 11
386.0382493166251
 21
138.8623598252453
 31
0.0
 11
386.034165907321
 21
138.8378810885075
 31
0.0
 11
386.0300828188126
 21
138.8174819292121
 31
0.0
 11
386.0219166417959
 21
138.7889234333058
 31
0.0
 11
386.0219166417959
 21
138.7562848147782
 31
0.0
 11
386.0219166417959
 21
138.7236463779771
 31
0.0
 11
386.0219166417959
 21
138.6950877003444
 31
0.0
 11
386.0259997303043
 21
138.6298108267421
 31
0.0
 11
386.034165907321
 21
138.605331908278
 31
0.0
 11
386.050498902946
 21
138.5563742530763
 31
0.0
 11
386.0709146662836
 21
138.5155761162116
 31
0.0
 11
386.1239961000754
 21
138.4462194834407
 31
0.0
 11
386.2097428835259
 21
138.380942428112
 31
0.0
 11
386.3621865328511
 21
138.3496093743711
 31
0.0
  0
HATCH
  5
10BC
330
18
100
AcDbEntity
  8
ROGO
 62
     4
100
AcDbHatch
 10
0.0
 20
0.0
 30
0.0
210
0.0
220
0.0
230
1.0
  2
SOLID
 70
     1
 71
     1
 91
        1
 92
        5
 93
        8
 72
     4
 94
        3
 73
     0
 74
     0
 95
       26
 96
       22
 40
0.0
 40
0.0
 40
0.0
 40
0.0
 40
0.1788672874438463
 40
0.2986050863114024
 40
0.3849457903689966
 40
0.4494136003729807
 40
0.5330317334891114
 40
0.5940648189550428
 40
0.7042763457549482
 40
0.7939869441021241
 40
0.8550045255504958
 40
0.9148353882480085
 40
1.021861169779555
 40
1.097541171377434
 40
1.138300699303219
 40
1.196198404703369
 40
1.238007636874699
 40
1.298575410885704
 40
1.332851531981642
 40
1.407440216243285
 40
1.441498057423123
 40
1.441498057423123
 40
1.441498057423123
 40
1.441498057423123
 10
388.2926926311225
 20
139.3355850714756
 10
388.2319823101116
 20
139.3319629896168
 10
388.1306311301137
 20
139.325916204419
 10
388.0193481510244
 20
139.2583129897128
 10
387.9378157256804
 20
139.2190114514988
 10
387.8796668988044
 20
139.1655843585677
 10
387.8370435729859
 20
139.1103980743451
 10
387.7833088691081
 20
139.04464402133
 10
387.739489753566
 20
138.968076087404
 10
387.7171753419564
 20
138.8836848758884
 10
387.6974094479389
 20
138.8164245906571
 10
387.6827507300363
 20
138.7414717804131
 10
387.6864803228534
 20
138.6604963783297
 10
387.6918212704579
 20
138.5852905703843
 10
387.7156673027641
 20
138.531604883365
 10
387.7428237097008
 20
138.4933843736441
 10
387.7760763580896
 20
138.4512887194949
 10
387.8124620271843
 20
138.4234089040628
 10
387.8425559455302
 20
138.3729027449292
 10
387.8952343343962
 20
138.366457794771
 10
387.9287188140896
 20
138.3536304203958
 10
387.9392153217943
 20
138.3496093743711
 72
     1
 10
387.9392153217942
 20
138.3496093743711
 11
388.7884491691512
 21
138.3496093743711
 72
     1
 10
388.7884491691512
 20
138.3496093743711
 11
388.9713689371129
 21
138.7164523748437
 72
     1
 10
388.9713689371129
 20
138.7164523748437
 11
388.3408939144142
 21
138.7164523748437
 72
     4
 94
        3
 73
     0
 74
     0
 95
       16
 96
       12
 40
0.0
 40
0.0
 40
0.0
 40
0.0
 40
0.0540174455617137
 40
0.108592041834555
 40
0.1411433357130708
 40
0.1723533270753665
 40
0.2066293119869014
 40
0.2305651034442386
 40
0.2532780921710347
 40
0.2993367724206105
 40
0.3936366304390909
 40
0.3936366304390909
 40
0.3936366304390909
 40
0.3936366304390909
 10
388.3408939144142
 20
138.7164523748437
 10
388.3218765659009
 20
138.7220475576208
 10
388.2836457187389
 20
138.7332956334206
 10
388.2804461055527
 20
138.7878221726887
 10
388.2848051156155
 20
138.8266767938086
 10
388.3030606594941
 20
138.8549652269477
 10
388.3252078006011
 20
138.8755487840717
 10
388.3334541634882
 20
138.9023556488607
 10
388.3576935958724
 20
138.9225981856074
 10
388.4006766043132
 20
138.9566230621844
 10
388.4482083708487
 20
138.9638696006587
 10
388.480142579419
 20
138.9687381861947
 72
     1
 10
388.480142579419
 20
138.9687381861946
 11
389.0971667907256
 21
138.9687381861947
 72
     1
 10
389.0971667907256
 20
138.9687381861947
 11
389.2800884957781
 21
139.3355850714756
 72
     1
 10
389.2800884957781
 20
139.3355850714756
 11
388.2926926311224
 21
139.3355850714756
 97
        8
330
10C5
330
10C3
330
10C6
330
10C2
330
10C1
330
10C4
330
10C0
330
10BF
 75
     0
 76
     1
 47
0.0514683685270805
 98
        1
 10
388.4630737259371
 20
139.155049567741
450
        0
451
        0
460
0.0
461
0.0
452
        0
462
0.0
453
        0
470

  0
LINE
  5
10BD
102
{ACAD_REACTORS
330
1088
102
}
330
18
100
AcDbEntity
  8
ROGO
 62
     4
100
AcDbLine
 10
389.4865927886772
 20
138.1970588326527
 30
0.0
 11
389.2860786619277
 21
137.7949305951547
 31
0.0
  0
LINE
  5
10BE
102
{ACAD_REACTORS
330
1088
102
}
330
18
100
AcDbEntity
  8
ROGO
 62
     4
100
AcDbLine
 10
389.4865927886772
 20
139.3355850714756
 30
0.0
 11
388.718372708276
 21
137.7949305951547
 31
0.0
  0
LINE
  5
10BF
102
{ACAD_REACTORS
330
10BC
102
}
330
18
100
AcDbEntity
  8
ROGO
 62
     4
100
AcDbLine
 10
389.2800884957781
 20
139.3355850714756
 30
0.0
 11
389.0971667907256
 21
138.9687381861947
 31
0.0
  0
LINE
  5
10C0
102
{ACAD_REACTORS
330
10BC
102
}
330
18
100
AcDbEntity
  8
ROGO
 62
     4
100
AcDbLine
 10
388.480142579419
 20
138.9687381861947
 30
0.0
 11
389.0971667907256
 21
138.9687381861947
 31
0.0
  0
LINE
  5
10C1
102
{ACAD_REACTORS
330
10BC
102
}
330
18
100
AcDbEntity
  8
ROGO
 62
     4
100
AcDbLine
 10
388.3408939144142
 20
138.7164523748437
 30
0.0
 11
388.9713689371128
 21
138.7164523748437
 31
0.0
  0
LINE
  5
10C2
102
{ACAD_REACTORS
330
10BC
102
}
330
18
100
AcDbEntity
  8
ROGO
 62
     4
100
AcDbLine
 10
388.9713689371128
 20
138.7164523748437
 30
0.0
 11
388.7884491691512
 21
138.3496093743711
 31
0.0
  0
SPLINE
  5
10C3
102
{ACAD_REACTORS
330
10BC
102
}
330
18
100
AcDbEntity
  8
ROGO
 62
     4
100
AcDbSpline
210
0.0
220
0.0
230
1.0
 70
     8
 71
     3
 72
    26
 73
    22
 74
    20
 42
0.0000000001
 43
0.0000000001
 44
0.0000000001
 40
0.0
 40
0.0
 40
0.0
 40
0.0
 40
0.1788672874438463
 40
0.2986050863114024
 40
0.3849457903689966
 40
0.4494136003729807
 40
0.5330317334891114
 40
0.5940648189550428
 40
0.7042763457549482
 40
0.7939869441021241
 40
0.8550045255504958
 40
0.9148353882480085
 40
1.021861169779555
 40
1.097541171377434
 40
1.138300699303219
 40
1.196198404703369
 40
1.238007636874699
 40
1.298575410885704
 40
1.332851531981642
 40
1.407440216243285
 40
1.441498057423123
 40
1.441498057423123
 40
1.441498057423123
 40
1.441498057423123
 10
388.2926926311225
 20
139.3355850714756
 30
0.0
 10
388.2319823101116
 20
139.3319629896168
 30
0.0
 10
388.1306311301137
 20
139.325916204419
 30
0.0
 10
388.0193481510244
 20
139.2583129897128
 30
0.0
 10
387.9378157256804
 20
139.2190114514988
 30
0.0
 10
387.8796668988044
 20
139.1655843585677
 30
0.0
 10
387.8370435729859
 20
139.1103980743451
 30
0.0
 10
387.7833088691081
 20
139.04464402133
 30
0.0
 10
387.739489753566
 20
138.968076087404
 30
0.0
 10
387.7171753419564
 20
138.8836848758884
 30
0.0
 10
387.6974094479389
 20
138.8164245906571
 30
0.0
 10
387.6827507300363
 20
138.7414717804131
 30
0.0
 10
387.6864803228534
 20
138.6604963783297
 30
0.0
 10
387.6918212704579
 20
138.5852905703843
 30
0.0
 10
387.7156673027641
 20
138.531604883365
 30
0.0
 10
387.7428237097008
 20
138.4933843736441
 30
0.0
 10
387.7760763580896
 20
138.4512887194949
 30
0.0
 10
387.8124620271843
 20
138.4234089040628
 30
0.0
 10
387.8425559455302
 20
138.3729027449292
 30
0.0
 10
387.8952343343962
 20
138.366457794771
 30
0.0
 10
387.9287188140896
 20
138.3536304203958
 30
0.0
 10
387.9392153217943
 20
138.3496093743711
 30
0.0
 11
388.2926926311225
 21
139.3355850714756
 31
0.0
 11
388.1159539764583
 21
139.3080722660018
 31
0.0
 11
388.0088395003146
 21
139.254559375236
 31
0.0
 11
387.9338595209961
 21
139.211749097515
 31
0.0
 11
387.8856582377044
 21
139.1689386453363
 31
0.0
 11
387.8321011536145
 21
139.104723141526
 31
0.0
 11
387.7946111639552
 21
139.0565615572826
 31
0.0
 11
387.7410537719014
 21
138.9602382143383
 31
0.0
 11
387.7142753838384
 21
138.8746174844386
 31
0.0
 11
387.6982082894079
 21
138.8157532871505
 31
0.0
 11
387.6874966878115
 21
138.7568890898624
 31
0.0
 11
387.6874966878115
 21
138.6498633083309
 31
0.0
 11
387.6982082894079
 21
138.5749451914759
 31
0.0
 11
387.7142753838384
 21
138.5374860458197
 31
0.0
 11
387.7464095726995
 21
138.4893244615762
 31
0.0
 11
387.7731882687265
 21
138.4572166224423
 31
0.0
 11
387.8160337512199
 21
138.4144063447212
 31
0.0
 11
387.8374566464487
 21
138.3876498121096
 31
0.0
 11
387.9070811329331
 21
138.3608934539555
 31
0.0
 11
387.9392153217943
 21
138.3496093743711
 31
0.0
  0
SPLINE
  5
10C4
102
{ACAD_REACTORS
330
10BC
102
}
330
18
100
AcDbEntity
  8
ROGO
 62
     4
100
AcDbSpline
210
0.0
220
0.0
230
1.0
 70
     8
 71
     3
 72
    16
 73
    12
 74
    10
 42
0.0000000001
 43
0.0000000001
 44
0.0000000001
 40
0.0
 40
0.0
 40
0.0
 40
0.0
 40
0.0942998580184804
 40
0.1403585382680561
 40
0.1630715269948523
 40
0.1870073184521895
 40
0.2212833033637244
 40
0.2524932947260201
 40
0.2850445886045359
 40
0.3396191848773772
 40
0.3936366304390909
 40
0.3936366304390909
 40
0.3936366304390909
 40
0.3936366304390909
 10
388.480142579419
 20
138.9687381861947
 30
0.0
 10
388.4482083708487
 20
138.9638696006587
 30
0.0
 10
388.4006766043132
 20
138.9566230621844
 30
0.0
 10
388.3576935958724
 20
138.9225981856074
 30
0.0
 10
388.3334541634882
 20
138.9023556488607
 30
0.0
 10
388.3252078006011
 20
138.8755487840717
 30
0.0
 10
388.3030606594941
 20
138.8549652269477
 30
0.0
 10
388.2848051156155
 20
138.8266767938086
 30
0.0
 10
388.2804461055527
 20
138.7878221726887
 30
0.0
 10
388.2836457187389
 20
138.7332956334206
 30
0.0
 10
388.3218765659009
 20
138.7220475576208
 30
0.0
 10
388.3408939144142
 20
138.7164523748437
 30
0.0
 11
388.480142579419
 21
138.9687381861947
 31
0.0
 11
388.3890955056699
 21
138.9441842947713
 31
0.0
 11
388.3516055160105
 21
138.9174279366171
 31
0.0
 11
388.33553842158
 21
138.9013740170501
 31
0.0
 11
388.3248268199836
 21
138.8799687909609
 31
0.0
 11
388.3034039247549
 21
138.8532124328067
 31
0.0
 11
388.2873368303243
 21
138.8264559001951
 31
0.0
 11
388.2819810295261
 21
138.7943482355187
 31
0.0
 11
388.2926926311225
 21
138.7408351702955
 31
0.0
 11
388.3408939144142
 21
138.7164523748437
 31
0.0
  0
LINE
  5
10C5
102
{ACAD_REACTORS
330
10BC
102
}
330
18
100
AcDbEntity
  8
ROGO
 62
     4
100
AcDbLine
 10
388.2926926311227
 20
139.3355850714756
 30
0.0
 11
389.2800884957781
 21
139.3355850714756
 31
0.0
  0
LINE
  5
10C6
102
{ACAD_REACTORS
330
10BC
102
}
330
18
100
AcDbEntity
  8
ROGO
 62
     4
100
AcDbLine
 10
387.9392153217942
 20
138.3496093743711
 30
0.0
 11
388.7884491691512
 21
138.3496093743711
 31
0.0
  0
LINE
  5
10C7
102
{ACAD_REACTORS
330
1096
102
}
330
18
100
AcDbEntity
  8
ROGO
 62
     4
100
AcDbLine
 10
385.1157912321911
 20
139.3355850714756
 30
0.0
 11
386.1031870968465
 21
139.3355850714756
 31
0.0
  0
LINE
  5
10C8
102
{ACAD_REACTORS
330
1096
102
}
330
18
100
AcDbEntity
  8
ROGO
 62
     4
100
AcDbLine
 10
385.7944675381812
 20
138.7164523748437
 30
0.0
 11
385.6115477702195
 21
138.3496093743711
 31
0.0
  0
SPLINE
  5
10C9
102
{ACAD_REACTORS
330
1096
102
}
330
18
100
AcDbEntity
  8
ROGO
 62
     4
100
AcDbSpline
210
0.0
220
0.0
230
1.0
 70
     8
 71
     3
 72
    16
 73
    12
 74
    10
 42
0.0000000001
 43
0.0000000001
 44
0.0000000001
 40
0.0
 40
0.0
 40
0.0
 40
0.0
 40
0.0942998580185353
 40
0.140358538268078
 40
0.1630715269948742
 40
0.1870073184522114
 40
0.2212833033637818
 40
0.2524932947260774
 40
0.2850445886045932
 40
0.33961918487739
 40
0.3936366304390786
 40
0.3936366304390786
 40
0.3936366304390786
 40
0.3936366304390786
 10
385.3032411804873
 20
138.9687381861947
 30
0.0
 10
385.271306971917
 20
138.9638696006587
 30
0.0
 10
385.2237752053816
 20
138.9566230621844
 30
0.0
 10
385.1807921969407
 20
138.9225981856075
 30
0.0
 10
385.1565527645566
 20
138.9023556488606
 30
0.0
 10
385.1483064016694
 20
138.8755487840717
 30
0.0
 10
385.1261592605626
 20
138.8549652269478
 30
0.0
 10
385.1079037166838
 20
138.8266767938086
 30
0.0
 10
385.1035447066211
 20
138.7878221726887
 30
0.0
 10
385.1067443198074
 20
138.7332956334207
 30
0.0
 10
385.1449751669693
 20
138.7220475576208
 30
0.0
 10
385.1639925154826
 20
138.7164523748437
 30
0.0
 11
385.3032411804873
 21
138.9687381861947
 31
0.0
 11
385.2121941067382
 21
138.9441842947713
 31
0.0
 11
385.1747041170789
 21
138.9174279366171
 31
0.0
 11
385.1586370226483
 21
138.9013740170501
 31
0.0
 11
385.147925421052
 21
138.8799687909609
 31
0.0
 11
385.1265025258232
 21
138.8532124328067
 31
0.0
 11
385.1104354313926
 21
138.8264559001951
 31
0.0
 11
385.1050796305945
 21
138.7943482355187
 31
0.0
 11
385.1157912321909
 21
138.7408351702955
 31
0.0
 11
385.1639925154826
 21
138.7164523748437
 31
0.0
  0
LINE
  5
10CA
102
{ACAD_REACTORS
330
1096
102
}
330
18
100
AcDbEntity
  8
ROGO
 62
     4
100
AcDbLine
 10
385.1639925154826
 20
138.7164523748437
 30
0.0
 11
385.7944675381812
 21
138.7164523748437
 31
0.0
  0
LINE
  5
10CB
102
{ACAD_REACTORS
330
1096
102
}
330
18
100
AcDbEntity
  8
ROGO
 62
     4
100
AcDbLine
 10
385.3032411804873
 20
138.9687381861947
 30
0.0
 11
385.9202653917939
 21
138.9687381861947
 31
0.0
  0
LINE
  5
10CC
102
{ACAD_REACTORS
330
1096
102
}
330
18
100
AcDbEntity
  8
ROGO
 62
     4
100
AcDbLine
 10
386.1031870968465
 20
139.3355850714756
 30
0.0
 11
385.9202653917939
 21
138.9687381861947
 31
0.0
  0
LINE
  5
10CD
102
{ACAD_REACTORS
330
1088
102
}
330
18
100
AcDbEntity
  8
ROGO
 62
     4
100
AcDbLine
 10
389.6871069154268
 20
137.7949305951547
 30
0.0
 11
390.2548004481287
 21
137.7949305951547
 31
0.0
  0
LINE
  5
10CE
102
{ACAD_REACTORS
330
1088
102
}
330
18
100
AcDbEntity
  8
ROGO
 62
     4
100
AcDbLine
 10
390.2362356884735
 20
139.3355850714756
 30
0.0
 11
390.8039292211754
 21
139.3355850714756
 31
0.0
  0
LINE
  5
10CF
102
{ACAD_REACTORS
330
1088
102
}
330
18
100
AcDbEntity
  8
ROGO
 62
     4
100
AcDbLine
 10
389.8706904079281
 20
138.5652578333151
 30
0.0
 11
390.8039292211754
 21
139.3355850714756
 31
0.0
  0
LINE
  5
10D0
102
{ACAD_REACTORS
330
1088
102
}
330
18
100
AcDbEntity
  8
ROGO
 62
     4
100
AcDbLine
 10
389.8706904079281
 20
138.5652578333151
 30
0.0
 11
390.2548004481287
 21
137.7949305951547
 31
0.0
  0
LINE
  5
10D1
102
{ACAD_REACTORS
330
1088
102
}
330
18
100
AcDbEntity
  8
ROGO
 62
     4
100
AcDbLine
 10
389.9704247423622
 20
139.1673769540464
 30
0.0
 11
390.2362356884735
 21
139.3355850714756
 31
0.0
  0
LINE
  5
10D2
102
{ACAD_REACTORS
330
1088
102
}
330
18
100
AcDbEntity
  8
ROGO
 62
     4
100
AcDbLine
 10
390.0542987423288
 20
139.3355850714756
 30
0.0
 11
389.9704247423622
 21
139.1673769540464
 31
0.0
  0
TEXT
  5
10D3
330
18
100
AcDbEntity
  8
文字
100
AcDbText
 10
375.5865378742137
 20
143.5559777194067
 30
0.0
 40
1.0
  1
0.005mm
  7
STYLE3
100
AcDbText
  0
HATCH
  5
10D4
330
18
100
AcDbEntity
  8
外形線
100
AcDbHatch
 10
0.0
 20
0.0
 30
0.0
210
0.0
220
0.0
230
1.0
  2
SOLID
 70
     1
 71
     0
 91
        2
 92
        1
 93
        7
 72
     1
 10
377.8759385517019
 20
146.0422679538193
 11
376.7092718850352
 21
145.617636013842
 72
     1
 10
376.7092718850352
 20
145.6176360138421
 11
376.7092718850352
 21
145.9526846204859
 72
     1
 10
376.7092718850353
 20
145.9526846204859
 11
375.7092718850352
 21
145.9526846204859
 72
     1
 10
375.7092718850352
 20
145.9526846204859
 11
375.7092718850352
 21
146.1318512871526
 72
     1
 10
375.7092718850352
 20
146.1318512871526
 11
376.7092718850352
 21
146.1318512871526
 72
     1
 10
376.7092718850352
 20
146.1318512871526
 11
376.7092718850352
 21
146.4668998937965
 72
     1
 10
376.7092718850352
 20
146.4668998937965
 11
377.8759385517019
 21
146.0422679538193
 97
        0
 92
        1
 93
        4
 72
     1
 10
377.8759385517019
 20
146.7922679538192
 11
377.8759385517019
 21
145.2922679538192
 72
     1
 10
377.8759385517019
 20
145.2922679538193
 11
378.0426052183685
 21
145.2922679538193
 72
     1
 10
378.0426052183685
 20
145.2922679538193
 11
378.0426052183685
 21
146.7922679538192
 72
     1
 10
378.0426052183685
 20
146.7922679538192
 11
377.8759385517019
 21
146.7922679538192
 97
        0
 75
     0
 76
     1
 98
        1
 10
470.2054952581821
 20
77.38011714663826
450
        0
451
        0
460
0.0
461
0.0
452
        0
462
0.0
453
        0
470

  0
LINE
  5
10D5
330
18
100
AcDbEntity
  8
外形線
100
AcDbLine
 10
378.0426052183685
 20
146.7922679538192
 30
0.0
 11
378.0426052183685
 21
145.2922679538193
 31
0.0
  0
LINE
  5
10D6
330
18
100
AcDbEntity
  8
外形線
100
AcDbLine
 10
377.8759385517019
 20
146.7922679538192
 30
0.0
 11
377.8759385517019
 21
145.2922679538193
 31
0.0
  0
LINE
  5
10D7
330
18
100
AcDbEntity
  8
外形線
100
AcDbLine
 10
377.8759385517019
 20
146.0422679538193
 30
0.0
 11
376.7092718850352
 21
146.4668998937965
 31
0.0
  0
LINE
  5
10D8
330
18
100
AcDbEntity
  8
外形線
100
AcDbLine
 10
375.7092718850352
 20
146.1318512871526
 30
0.0
 11
375.7092718850352
 21
145.9526846204859
 31
0.0
  0
LINE
  5
10D9
330
18
100
AcDbEntity
  8
外形線
100
AcDbLine
 10
377.8759385517019
 20
146.0422679538193
 30
0.0
 11
376.7092718850352
 21
145.617636013842
 31
0.0
  0
POINT
  5
10DA
330
18
100
AcDbEntity
  8
DEFPOINTS
  6
ByBlock
 62
     0
100
AcDbPoint
 10
376.7092718850352
 20
145.617636013842
 30
0.0
  0
POINT
  5
10DB
330
18
100
AcDbEntity
  8
DEFPOINTS
  6
ByBlock
 62
     0
100
AcDbPoint
 10
376.7092718850352
 20
145.617636013842
 30
0.0
  0
LINE
  5
10DC
330
18
100
AcDbEntity
  8
外形線
100
AcDbLine
 10
376.7092718850353
 20
145.9526846204859
 30
0.0
 11
376.7092718850352
 21
145.6176360138421
 31
0.0
  0
LINE
  5
10DD
330
18
100
AcDbEntity
  8
外形線
100
AcDbLine
 10
375.7092718850352
 20
145.9526846204859
 30
0.0
 11
376.7092718850353
 21
145.9526846204859
 31
0.0
  0
LINE
  5
10DE
330
18
100
AcDbEntity
  8
外形線
100
AcDbLine
 10
378.0426052183685
 20
145.2922679538193
 30
0.0
 11
377.8759385517019
 21
145.2922679538193
 31
0.0
  0
POINT
  5
10DF
330
18
100
AcDbEntity
  8
DEFPOINTS
  6
ByBlock
 62
     0
100
AcDbPoint
 10
377.8759385517019
 20
145.2922679538193
 30
0.0
  0
POINT
  5
10E0
330
18
100
AcDbEntity
  8
DEFPOINTS
  6
ByBlock
 62
     0
100
AcDbPoint
 10
378.0426052183685
 20
145.2922679538193
 30
0.0
  0
POINT
  5
10E1
330
18
100
AcDbEntity
  8
DEFPOINTS
  6
ByBlock
 62
     0
100
AcDbPoint
 10
377.8759385517019
 20
145.2922679538193
 30
0.0
  0
POINT
  5
10E2
330
18
100
AcDbEntity
  8
DEFPOINTS
  6
ByBlock
 62
     0
100
AcDbPoint
 10
378.0426052183685
 20
145.2922679538193
 30
0.0
  0
LINE
  5
10E3
330
18
100
AcDbEntity
  8
外形線
100
AcDbLine
 10
376.7092718850352
 20
146.4668998937965
 30
0.0
 11
376.7092718850352
 21
146.1318512871526
 31
0.0
  0
LINE
  5
10E4
330
18
100
AcDbEntity
  8
外形線
100
AcDbLine
 10
375.7092718850352
 20
146.1318512871526
 30
0.0
 11
376.7092718850352
 21
146.1318512871526
 31
0.0
  0
HATCH
  5
10E5
330
18
100
AcDbEntity
  8
外形線
100
AcDbHatch
 10
0.0
 20
0.0
 30
0.0
210
0.0
220
0.0
230
1.0
  2
SOLID
 70
     1
 71
     0
 91
        2
 92
        1
 93
        7
 72
     1
 10
379.0426052183685
 20
146.0422679538193
 11
380.2092718850352
 21
145.617636013842
 72
     1
 10
380.2092718850352
 20
145.6176360138421
 11
380.2092718850352
 21
145.9526846204859
 72
     1
 10
380.2092718850352
 20
145.9526846204859
 11
381.2092718850351
 21
145.9526846204859
 72
     1
 10
381.2092718850351
 20
145.9526846204859
 11
381.2092718850351
 21
146.1318512871526
 72
     1
 10
381.2092718850351
 20
146.1318512871526
 11
380.2092718850351
 21
146.1318512871526
 72
     1
 10
380.2092718850352
 20
146.1318512871526
 11
380.2092718850352
 21
146.4668998937965
 72
     1
 10
380.2092718850352
 20
146.4668998937965
 11
379.0426052183685
 21
146.0422679538193
 97
        0
 92
        1
 93
        4
 72
     1
 10
379.0426052183685
 20
146.7922679538192
 11
379.0426052183685
 21
145.2922679538192
 72
     1
 10
379.0426052183685
 20
145.2922679538193
 11
378.8759385517018
 21
145.2922679538193
 72
     1
 10
378.8759385517018
 20
145.2922679538193
 11
378.8759385517018
 21
146.7922679538192
 72
     1
 10
378.8759385517018
 20
146.7922679538192
 11
379.0426052183685
 21
146.7922679538192
 97
        0
 75
     0
 76
     1
 98
        1
 10
286.7130485118881
 20
77.38011714663826
450
        0
451
        0
460
0.0
461
0.0
452
        0
462
0.0
453
        0
470

  0
LINE
  5
10E6
330
18
100
AcDbEntity
  8
外形線
100
AcDbLine
 10
381.0010543839587
 20
143.6935121957008
 30
0.0
 11
381.1063659083277
 21
143.548563317542
 31
0.0
  0
LINE
  5
10E7
330
18
100
AcDbEntity
  8
外形線
100
AcDbLine
 10
379.0426052183685
 20
146.0422679538193
 30
0.0
 11
380.2092718850352
 21
146.4668998937965
 31
0.0
  0
LINE
  5
10E8
330
18
100
AcDbEntity
  8
外形線
100
AcDbLine
 10
379.0426052183685
 20
146.7922679538192
 30
0.0
 11
379.0426052183685
 21
145.2922679538193
 31
0.0
  0
LINE
  5
10E9
330
18
100
AcDbEntity
  8
外形線
100
AcDbLine
 10
378.8759385517018
 20
146.7922679538192
 30
0.0
 11
378.8759385517018
 21
145.2922679538193
 31
0.0
  0
LINE
  5
10EA
330
18
100
AcDbEntity
  8
外形線
100
AcDbLine
 10
381.2092718850351
 20
145.9526846204859
 30
0.0
 11
380.2092718850352
 21
145.9526846204859
 31
0.0
  0
LINE
  5
10EB
330
18
100
AcDbEntity
  8
外形線
100
AcDbLine
 10
380.2092718850352
 20
145.9526846204859
 30
0.0
 11
380.2092718850352
 21
145.6176360138421
 31
0.0
  0
POINT
  5
10EC
330
18
100
AcDbEntity
  8
DEFPOINTS
  6
ByBlock
 62
     0
100
AcDbPoint
 10
378.8759385517018
 20
145.2922679538193
 30
0.0
  0
POINT
  5
10ED
330
18
100
AcDbEntity
  8
DEFPOINTS
  6
ByBlock
 62
     0
100
AcDbPoint
 10
379.0426052183685
 20
145.2922679538193
 30
0.0
  0
POINT
  5
10EE
330
18
100
AcDbEntity
  8
DEFPOINTS
  6
ByBlock
 62
     0
100
AcDbPoint
 10
378.8759385517018
 20
145.2922679538193
 30
0.0
  0
POINT
  5
10EF
330
18
100
AcDbEntity
  8
DEFPOINTS
  6
ByBlock
 62
     0
100
AcDbPoint
 10
380.2092718850352
 20
145.617636013842
 30
0.0
  0
POINT
  5
10F0
330
18
100
AcDbEntity
  8
DEFPOINTS
  6
ByBlock
 62
     0
100
AcDbPoint
 10
379.0426052183685
 20
145.2922679538193
 30
0.0
  0
POINT
  5
10F1
330
18
100
AcDbEntity
  8
DEFPOINTS
  6
ByBlock
 62
     0
100
AcDbPoint
 10
380.2092718850352
 20
145.617636013842
 30
0.0
  0
LINE
  5
10F2
330
18
100
AcDbEntity
  8
外形線
100
AcDbLine
 10
379.0426052183685
 20
146.0422679538193
 30
0.0
 11
380.2092718850352
 21
145.617636013842
 31
0.0
  0
LINE
  5
10F3
330
18
100
AcDbEntity
  8
外形線
100
AcDbLine
 10
378.8759385517018
 20
145.2922679538193
 30
0.0
 11
379.0426052183685
 21
145.2922679538193
 31
0.0
  0
LINE
  5
10F4
330
18
100
AcDbEntity
  8
外形線
100
AcDbLine
 10
381.2092718850351
 20
146.1318512871526
 30
0.0
 11
380.2092718850352
 21
146.1318512871526
 31
0.0
  0
LINE
  5
10F5
330
18
100
AcDbEntity
  8
外形線
100
AcDbLine
 10
380.2092718850352
 20
146.4668998937965
 30
0.0
 11
380.2092718850352
 21
146.1318512871526
 31
0.0
  0
POINT
  5
10F6
330
18
100
AcDbEntity
  8
中心線
  6
ByBlock
100
AcDbPoint
 10
435.751640660419
 20
65.67567033140057
 30
0.0
  0
POINT
  5
10F7
330
18
100
AcDbEntity
  8
中心線
  6
ByBlock
100
AcDbPoint
 10
435.751640660419
 20
65.67567033140057
 30
0.0
  0
LINE
  5
1109
330
18
100
AcDbEntity
  8
外形線
100
AcDbLine
 10
377.8759385517019
 20
146.7922679538192
 30
0.0
 11
378.0426052183685
 21
146.7922679538193
 31
0.0
  0
LINE
  5
110A
330
18
100
AcDbEntity
  8
外形線
100
AcDbLine
 10
378.8759385517018
 20
146.7922679538193
 30
0.0
 11
379.0426052183685
 21
146.7922679538192
 31
0.0
  0
ARC
  5
110B
330
18
100
AcDbEntity
  8
外形線
100
AcDbCircle
 10
384.8573811744029
 20
167.0922679538193
 30
0.0
 40
8.0
100
AcDbArc
 50
59.99999999999988
 51
120.0000000000001
  0
LINE
  5
110C
330
18
100
AcDbEntity
  8
外形線
100
AcDbLine
 10
465.5251696584743
 20
174.0204711840948
 30
0.0
 11
465.5251696584742
 21
163.0922679538193
 31
0.0
  0
LINE
  5
110D
330
18
100
AcDbEntity
  8
外形線
100
AcDbLine
 10
457.5251696584743
 20
174.0204711840948
 30
0.0
 11
457.5251696584743
 21
163.0922679538193
 31
0.0
  0
LINE
  5
110E
330
18
100
AcDbEntity
  8
外形線
100
AcDbLine
 10
457.5251696584743
 20
174.0204711840948
 30
0.0
 11
465.5251696584743
 21
174.0204711840948
 31
0.0
  0
ARC
  5
110F
330
18
100
AcDbEntity
  8
外形線
100
AcDbCircle
 10
461.5251696584743
 20
167.0922679538193
 30
0.0
 40
8.0
100
AcDbArc
 50
59.99999999999988
 51
120.0000000000001
  0
LINE
  5
1110
330
18
100
AcDbEntity
  8
針
100
AcDbLine
 10
369.2600543071625
 20
149.6601466615685
 30
0.0
 11
369.2801404117968
 21
149.7219653351276
 31
0.0
  0
LINE
  5
1111
330
18
100
AcDbEntity
  8
針
100
AcDbLine
 10
382.8854587673276
 20
145.4931381471759
 30
0.0
 11
369.2801404117968
 21
149.7219653351276
 31
0.0
  0
CIRCLE
  5
1112
330
18
100
AcDbEntity
  8
針
100
AcDbCircle
 10
384.8573811744029
 20
144.5922679538193
 30
0.0
 40
0.375
  0
CIRCLE
  5
1113
330
18
100
AcDbEntity
  8
針
100
AcDbCircle
 10
384.8573811744029
 20
144.5922679538193
 30
0.0
 40
1.5
  0
ARC
  5
1114
330
18
100
AcDbEntity
  8
針
100
AcDbCircle
 10
383.1822732664112
 20
146.4480733036833
 30
0.0
 40
1.0
100
AcDbArc
 50
252.7336253748568
 51
312.0703962457775
  0
CIRCLE
  5
1115
330
18
100
AcDbEntity
  8
針
100
AcDbCircle
 10
384.8573811744029
 20
144.5922679538193
 30
0.0
 40
1.299999999999999
  0
ARC
  5
1116
330
18
100
AcDbEntity
  8
針
100
AcDbCircle
 10
382.4113753936503
 20
144.0754936118435
 30
0.0
 40
1.0
100
AcDbArc
 50
11.92960375422259
 51
71.26637462514324
  0
LINE
  5
1117
330
18
100
AcDbEntity
  8
針
100
AcDbLine
 10
382.7325442216054
 20
145.0225155672119
 30
0.0
 11
369.239968202528
 21
149.5983279880092
 31
0.0
  0
LINE
  5
1118
330
18
100
AcDbEntity
  8
針
100
AcDbLine
 10
369.2600543071625
 20
149.6601466615685
 30
0.0
 11
369.239968202528
 21
149.5983279880093
 31
0.0
  0
HATCH
  5
1119
330
18
100
AcDbEntity
  8
針
100
AcDbHatch
 10
0.0
 20
0.0
 30
0.0
210
0.0
220
0.0
230
1.0
  2
SOLID
 70
     1
 71
     0
 91
        1
 92
        7
 72
     1
 73
     1
 93
        8
 10
369.2801404117968
 20
149.7219653351277
 42
0.0
 10
369.2600543071625
 20
149.6601466615685
 42
0.0
 10
369.2399682025281
 20
149.5983279880092
 42
0.0
 10
382.7325442216054
 20
145.0225155672119
 42
-0.264849932537075
 10
383.3897777059513
 20
144.2822033486338
 42
-0.0520997790215862
 10
383.3573811744029
 20
144.5922679538193
 42
-0.2122355434022088
 10
383.8523164296079
 20
145.7057511637377
 42
-0.2648499325370577
 10
382.8854587673277
 20
145.4931381471759
 42
0.0
 97
        0
 75
     0
 76
     1
 47
0.0335067966205447
 98
        1
 10
379.0613205214936
 20
146.5922424893639
450
        0
451
        0
460
0.0
461
0.0
452
        0
462
0.0
453
        0
470

  0
LINE
  5
111A
330
18
100
AcDbEntity
  8
外形線
100
AcDbLine
 10
468.6251696584743
 20
162.4922679538193
 30
0.0
 11
468.6251696584743
 21
126.6922679538193
 31
0.0
  0
LINE
  5
111B
330
18
100
AcDbEntity
  8
外形線
100
AcDbLine
 10
466.6251696584744
 20
162.4922679538193
 30
0.0
 11
468.6251696584743
 21
162.4922679538193
 31
0.0
  0
LINE
  5
111C
330
18
100
AcDbEntity
  8
外形線
100
AcDbLine
 10
466.6251696584744
 20
126.6922679538193
 30
0.0
 11
468.6251696584743
 21
126.6922679538193
 31
0.0
  0
LINE
  5
111D
330
18
100
AcDbEntity
  8
外形線
100
AcDbLine
 10
468.6251696584743
 20
154.0922679538193
 30
0.0
 11
469.1251696584743
 21
154.0922679538193
 31
0.0
  0
CIRCLE
  5
111E
330
18
100
AcDbEntity
  8
外形線
100
AcDbCircle
 10
480.5251696584743
 20
144.5922679538193
 30
0.0
 40
3.25
  0
CIRCLE
  5
111F
330
18
100
AcDbEntity
  8
外形線
 62
     4
100
AcDbCircle
 10
480.5251696584743
 20
144.5922679538193
 30
0.0
 40
2.95
  0
ARC
  5
1120
330
18
100
AcDbEntity
  8
外形線
100
AcDbCircle
 10
480.5251696584743
 20
144.5922679538193
 30
0.0
 40
8.0
100
AcDbArc
 50
270.0
 51
90.0
  0
LINE
  5
1121
330
18
100
AcDbEntity
  8
外形線
100
AcDbLine
 10
480.5251696584743
 20
152.5922679538193
 30
0.0
 11
470.5251696584743
 21
152.5922679538193
 31
0.0
  0
LINE
  5
1122
330
18
100
AcDbEntity
  8
外形線
100
AcDbLine
 10
469.1251696584743
 20
154.0922679538193
 30
0.0
 11
469.1251696584743
 21
144.5922679538193
 31
0.0
  0
LINE
  5
1123
330
18
100
AcDbEntity
  8
外形線
100
AcDbLine
 10
470.5251696584743
 20
153.0922679538193
 30
0.0
 11
470.5251696584743
 21
144.5922679538193
 31
0.0
  0
ARC
  5
1124
330
18
100
AcDbEntity
  8
外形線
100
AcDbCircle
 10
470.5251696584743
 20
154.5922679538193
 30
0.0
 40
1.5
100
AcDbArc
 50
201.0394697813182
 51
270.0
  0
LINE
  5
1125
330
18
100
AcDbEntity
  8
外形線
100
AcDbLine
 10
469.1251696584743
 20
135.0922679538193
 30
0.0
 11
469.1251696584743
 21
144.5922679538193
 31
0.0
  0
LINE
  5
1126
330
18
100
AcDbEntity
  8
外形線
100
AcDbLine
 10
470.5251696584743
 20
136.0922679538193
 30
0.0
 11
470.5251696584743
 21
144.5922679538193
 31
0.0
  0
LINE
  5
1127
330
18
100
AcDbEntity
  8
外形線
100
AcDbLine
 10
468.6251696584743
 20
135.0922679538193
 30
0.0
 11
469.1251696584743
 21
135.0922679538193
 31
0.0
  0
ARC
  5
1128
330
18
100
AcDbEntity
  8
外形線
100
AcDbCircle
 10
470.5251696584743
 20
134.5922679538193
 30
0.0
 40
1.5
100
AcDbArc
 50
90.00000000000003
 51
158.9605302186818
  0
LINE
  5
1129
330
18
100
AcDbEntity
  8
外形線
100
AcDbLine
 10
480.5251696584743
 20
136.5922679538193
 30
0.0
 11
470.5251696584743
 21
136.5922679538193
 31
0.0
  0
LINE
  5
112A
330
18
100
AcDbEntity
  8
中心線
 48
0.5
100
AcDbLine
 10
480.5251696584743
 20
154.7308349512748
 30
0.0
 11
480.5251696584743
 21
134.4540403004216
 31
0.0
  0
LINE
  5
112B
330
18
100
AcDbEntity
  8
想像線
 48
0.5
100
AcDbLine
 10
471.4465257795684
 20
152.5922679538193
 30
0.0
 11
471.4465257795684
 21
136.5922679538193
 31
0.0
  0
LINE
  5
112C
330
18
100
AcDbEntity
  8
想像線
 48
0.5
100
AcDbLine
 10
476.4465257795683
 20
152.5922679538193
 30
0.0
 11
476.4465257795683
 21
136.5922679538193
 31
0.0
  0
POINT
  5
1133
330
18
100
AcDbEntity
  8
DEFPOINTS
  6
ByBlock
 62
     0
100
AcDbPoint
 10
482.181853167987
 20
147.3883186953668
 30
0.0
  0
POINT
  5
1134
330
18
100
AcDbEntity
  8
DEFPOINTS
  6
ByBlock
 62
     0
100
AcDbPoint
 10
478.8684861489616
 20
141.7962172122717
 30
0.0
  0
POINT
  5
113B
330
18
100
AcDbEntity
  8
DEFPOINTS
  6
ByBlock
 62
     0
100
AcDbPoint
 10
384.8573811744029
 20
175.0922679538193
 30
0.0
  0
POINT
  5
114D
330
18
100
AcDbEntity
  8
DEFPOINTS
  6
ByBlock
 62
     0
100
AcDbPoint
 10
384.8573811744029
 20
98.39226795381932
 30
0.0
  0
POINT
  5
115E
330
18
100
AcDbEntity
  8
DEFPOINTS
  6
ByBlock
 62
     0
100
AcDbPoint
 10
466.6251696584743
 20
163.0922679538193
 30
0.0
  0
POINT
  5
115F
330
18
100
AcDbEntity
  8
DEFPOINTS
  6
ByBlock
 62
     0
100
AcDbPoint
 10
466.6251696584743
 20
126.0922679538193
 30
0.0
  0
POINT
  5
1167
330
18
100
AcDbEntity
  8
DEFPOINTS
  6
ByBlock
 62
     0
100
AcDbPoint
 10
466.6251696584743
 20
163.0922679538193
 30
0.0
  0
POINT
  5
116F
330
18
100
AcDbEntity
  8
DEFPOINTS
  6
ByBlock
 62
     0
100
AcDbPoint
 10
449.0251696584743
 20
144.5922679538193
 30
0.0
  0
POINT
  5
1179
330
18
100
AcDbEntity
  8
DEFPOINTS
  6
ByBlock
 62
     0
100
AcDbPoint
 10
480.5251696584743
 20
134.4540403004216
 30
0.0
  0
POINT
  5
1181
330
18
100
AcDbEntity
  8
DEFPOINTS
  6
ByBlock
 62
     0
100
AcDbPoint
 10
452.7251696584743
 20
164.9922679538193
 30
0.0
  0
POINT
  5
1182
330
18
100
AcDbEntity
  8
DEFPOINTS
  6
ByBlock
 62
     0
100
AcDbPoint
 10
452.7251696584743
 20
124.1922679538193
 30
0.0
  0
POINT
  5
118D
330
18
100
AcDbEntity
  8
DEFPOINTS
  6
ByBlock
 62
     0
100
AcDbPoint
 10
459.2251696584743
 20
105.8922679538193
 30
0.0
  0
POINT
  5
1194
330
18
100
AcDbEntity
  8
DEFPOINTS
  6
ByBlock
 62
     0
100
AcDbPoint
 10
459.2251696584743
 20
105.8922679538193
 30
0.0
  0
POINT
  5
1195
330
18
100
AcDbEntity
  8
DEFPOINTS
  6
ByBlock
 62
     0
100
AcDbPoint
 10
461.4751696584743
 20
98.39226795381932
 30
0.0
  0
POINT
  5
119C
330
18
100
AcDbEntity
  8
DEFPOINTS
  6
ByBlock
 62
     0
100
AcDbPoint
 10
452.7251696584743
 20
124.1922679538193
 30
0.0
  0
POINT
  5
11AF
330
18
100
AcDbEntity
  8
DEFPOINTS
  6
ByBlock
 62
     0
100
AcDbPoint
 10
470.5251696584743
 20
153.0922679538193
 30
0.0
  0
POINT
  5
11B0
330
18
100
AcDbEntity
  8
DEFPOINTS
  6
ByBlock
 62
     0
100
AcDbPoint
 10
480.5251696584743
 20
153.5168358132765
 30
0.0
  0
POINT
  5
11B8
330
18
100
AcDbEntity
  8
DEFPOINTS
  6
ByBlock
 62
     0
100
AcDbPoint
 10
471.4465257795684
 20
152.5922679538193
 30
0.0
  0
POINT
  5
11B9
330
18
100
AcDbEntity
  8
DEFPOINTS
  6
ByBlock
 62
     0
100
AcDbPoint
 10
476.4465257795683
 20
152.5922679538193
 30
0.0
  0
ARC
  5
1220
330
18
100
AcDbEntity
  8
外形線
100
AcDbCircle
 10
381.8573811744029
 20
112.2922679538193
 30
0.0
 40
1.0
100
AcDbArc
 50
180.0
 51
270.0000000000002
  0
ARC
  5
1221
330
18
100
AcDbEntity
  8
外形線
100
AcDbCircle
 10
387.8573811744029
 20
112.2922679538193
 30
0.0
 40
1.0
100
AcDbArc
 50
270.0000000000002
 51
0.0
  0
ARC
  5
1223
330
18
100
AcDbEntity
  8
外形線
100
AcDbCircle
 10
458.5251696584744
 20
112.2922679538193
 30
0.0
 40
1.0
100
AcDbArc
 50
180.0
 51
270.0000000000002
  0
ARC
  5
1224
330
18
100
AcDbEntity
  8
外形線
100
AcDbCircle
 10
464.5251696584743
 20
112.2922679538193
 30
0.0
 40
1.0
100
AcDbArc
 50
270.0000000000002
 51
0.0000000000002926
  0
LINE
  5
1235
330
18
100
AcDbEntity
  8
目盛
100
AcDbLine
 10
384.8573811744029
 20
161.7422679538193
 30
0.0
 11
384.8573811744029
 21
159.0922679538193
 31
0.0
  0
TEXT
  5
126C
330
18
100
AcDbEntity
  8
文字
100
AcDbText
 10
383.9644512073194
 20
156.8684876607145
 30
0.0
 40
1.8
  1
0
  7
STYLE3
100
AcDbText
  0
TEXT
  5
126D
330
18
100
AcDbEntity
  8
文字
100
AcDbText
 10
384.3781436646111
 20
155.45613456705
 30
0.0
 40
1.0
  1
0
  7
STYLE3
100
AcDbText
  0
TEXT
  5
126E
330
18
100
AcDbEntity
  8
文字
100
AcDbText
 10
391.8900244101036
 20
154.2567668679982
 30
0.0
 40
1.8
  1
5
  7
STYLE3
100
AcDbText
  0
TEXT
  5
126F
330
18
100
AcDbEntity
  8
文字
100
AcDbText
 10
395.2204520264469
 20
147.3483434948687
 30
0.0
 40
1.8
  1
10
  7
STYLE3
100
AcDbText
  0
TEXT
  5
1270
330
18
100
AcDbEntity
  8
文字
100
AcDbText
 10
395.0497280335858
 20
139.3107012853777
 30
0.0
 40
1.8
  1
15
  7
STYLE3
100
AcDbText
  0
TEXT
  5
1271
330
18
100
AcDbEntity
  8
文字
100
AcDbText
 10
391.3820412999406
 20
133.2447681236218
 30
0.0
 40
1.8
  1
20
  7
STYLE3
100
AcDbText
  0
TEXT
  5
1272
330
18
100
AcDbEntity
  8
文字
100
AcDbText
 10
383.1192105460798
 20
130.590922706591
 30
0.0
 40
1.8
  1
25
  7
STYLE3
100
AcDbText
  0
TEXT
  5
1273
330
18
100
AcDbEntity
  8
文字
100
AcDbText
 10
375.1326775219308
 20
133.2932343044918
 30
0.0
 40
1.8
  1
30
  7
STYLE3
100
AcDbText
  0
TEXT
  5
1274
330
18
100
AcDbEntity
  8
文字
100
AcDbText
 10
370.9169475614528
 20
139.274918672602
 30
0.0
 40
1.8
  1
35
  7
STYLE3
100
AcDbText
  0
TEXT
  5
1275
330
18
100
AcDbEntity
  8
文字
100
AcDbText
 10
370.790475686132
 20
147.5734514632271
 30
0.0
 40
1.8
  1
40
  7
STYLE3
100
AcDbText
  0
TEXT
  5
1276
330
18
100
AcDbEntity
  8
文字
100
AcDbText
 10
375.1449222679819
 20
154.128043006562
 30
0.0
 40
1.8
  1
45
  7
STYLE3
100
AcDbText
  0
TEXT
  5
1277
330
18
100
AcDbEntity
  8
文字
100
AcDbText
 10
391.7978293661114
 20
152.5495414041323
 30
0.0
 40
1.0
  1
45
  7
STYLE3
100
AcDbText
  0
TEXT
  5
1278
330
18
100
AcDbEntity
  8
文字
100
AcDbText
 10
395.2125707828898
 20
145.7674919039462
 30
0.0
 40
1.0
  1
40
  7
STYLE3
100
AcDbText
  0
TEXT
  5
1279
330
18
100
AcDbEntity
  8
文字
100
AcDbText
 10
395.0836407176319
 20
141.4859803043248
 30
0.0
 40
1.0
  1
35
  7
STYLE3
100
AcDbText
  0
TEXT
  5
127A
330
18
100
AcDbEntity
  8
文字
100
AcDbText
 10
391.6689000839658
 20
135.4200471425689
 30
0.0
 40
1.0
  1
30
  7
STYLE3
100
AcDbText
  0
TEXT
  5
127B
330
18
100
AcDbEntity
  8
文字
100
AcDbText
 10
383.8276406816166
 20
132.7662017255381
 30
0.0
 40
1.0
  1
25
  7
STYLE3
100
AcDbText
  0
TEXT
  5
127C
330
18
100
AcDbEntity
  8
文字
100
AcDbText
 10
376.1128539377008
 20
135.5885456398268
 30
0.0
 40
1.0
  1
20
  7
STYLE3
100
AcDbText
  0
TEXT
  5
127D
330
18
100
AcDbEntity
  8
文字
100
AcDbText
 10
372.6137979373752
 20
141.612353722285
 30
0.0
 40
1.0
  1
15
  7
STYLE3
100
AcDbText
  0
TEXT
  5
127E
330
18
100
AcDbEntity
  8
文字
100
AcDbText
 10
372.529528774349
 20
145.9723203588311
 30
0.0
 40
1.0
  1
10
  7
STYLE3
100
AcDbText
  0
TEXT
  5
127F
330
18
100
AcDbEntity
  8
文字
100
AcDbText
 10
376.8717306101479
 20
152.5016230230967
 30
0.0
 40
1.0
  1
5
  7
STYLE3
100
AcDbText
  0
LINE
  5
1280
330
18
100
AcDbEntity
  8
中心線
 48
0.5
100
AcDbLine
 10
388.0573811744028
 20
153.0656600600994
 30
0.0
 11
388.0573811744028
 21
146.0028833556251
 31
0.0
  0
LINE
  5
1287
330
18
100
AcDbEntity
  8
中心線
 48
0.5
100
AcDbLine
 10
384.2833231917036
 20
151.0862679538193
 30
0.0
 11
392.166224713131
 21
151.0862679538193
 31
0.0
  0
TEXT
  5
128C
330
18
100
AcDbEntity
  8
文字
100
AcDbText
 10
382.4131086038152
 20
140.6050208040771
 30
0.0
 40
1.0
  1
NO.36A
  7
STYLE3
100
AcDbText
  0
ARC
  5
12A1
330
18
100
AcDbEntity
  8
外形線
100
AcDbCircle
 10
388.0573811744029
 20
151.0862679538192
 30
0.0
 40
4.75
100
AcDbArc
 50
215.8999999999994
 51
324.0000000000001
  0
LINE
  5
12A2
330
18
100
AcDbEntity
  8
目盛
100
AcDbLine
 10
391.4957034004964
 20
148.5881806315762
 30
0.0
 11
391.9002118976839
 21
148.29428800543
 31
0.0
  0
LINE
  5
12A4
330
18
100
AcDbEntity
  8
目盛
100
AcDbLine
 10
390.5544682235778
 20
147.6472192090581
 30
0.0
 11
390.8482431705396
 21
147.2426252390862
 31
0.0
  0
LINE
  5
12A5
330
18
100
AcDbEntity
  8
目盛
100
AcDbLine
 10
389.368351643799
 20
147.0435143837421
 30
0.0
 11
389.5225834637279
 21
146.5678963166742
 31
0.0
  0
LINE
  5
12A6
330
18
100
AcDbEntity
  8
目盛
100
AcDbLine
 10
388.0536723502132
 20
146.8362695720991
 30
0.0
 11
388.0532360179556
 21
146.336269762485
 31
0.0
  0
LINE
  5
12A7
330
18
100
AcDbEntity
  8
目盛
100
AcDbLine
 10
386.7393567692463
 20
147.0458086151534
 30
0.0
 11
386.584295074522
 21
146.5704604576633
 31
0.0
  0
LINE
  5
12A8
330
18
100
AcDbEntity
  8
目盛
100
AcDbLine
 10
385.5542956591821
 20
147.6515826838866
 30
0.0
 11
385.2598150103327
 21
147.2475020638945
 31
0.0
  0
LINE
  5
12A9
330
18
100
AcDbEntity
  8
目盛
100
AcDbLine
 10
384.6147042025083
 20
148.5941854376921
 30
0.0
 11
384.2096833822854
 21
148.3009992593242
 31
0.0
  0
TEXT
  5
12B1
330
18
100
AcDbEntity
  8
文字
100
AcDbText
 10
390.3791687195469
 20
148.8072504747984
 30
0.0
 40
1.0
  1
0
  7
STYLE3
100
AcDbText
  0
TEXT
  5
12B2
330
18
100
AcDbEntity
  8
文字
100
AcDbText
 10
388.5573437792815
 20
147.4769513355758
 30
0.0
 40
1.0
  1
1
  7
STYLE3
100
AcDbText
  0
TEXT
  5
12B3
330
18
100
AcDbEntity
  8
文字
100
AcDbText
 10
386.420201749062
 20
147.5469668881735
 30
0.0
 40
1.0
  1
2
  7
STYLE3
100
AcDbText
  0
TEXT
  5
12B4
330
18
100
AcDbEntity
  8
文字
100
AcDbText
 10
384.8786558821338
 20
148.7022271459018
 30
0.0
 40
1.0
  1
3
  7
STYLE3
100
AcDbText
  0
LINE
  5
1458
330
18
100
AcDbEntity
  8
寸法線
100
AcDbLine
 10
488.9366069131705
 20
159.0164162714808
 30
0.0
 11
498.8648943585579
 21
159.0164162714808
 31
0.0
  0
LINE
  5
1459
330
18
100
AcDbEntity
  8
0
  6
ByBlock
 62
     2
100
AcDbLine
 10
488.9366069131705
 20
159.0164162714808
 30
0.0
 11
483.42174734428
 21
149.5593936528623
 31
0.0
  0
LINE
  5
145A
330
18
100
AcDbEntity
  8
0
  6
ByBlock
 62
     2
100
AcDbLine
 10
477.6285919726688
 20
139.6251422547764
 30
0.0
 11
476.3692103701446
 21
137.4655223856272
 31
0.0
  0
LINE
  5
145C
330
18
100
AcDbEntity
  8
0
  6
ByBlock
 62
     2
100
AcDbLine
 10
478.887973575193
 20
141.7847621239254
 30
0.0
 11
482.1623657417558
 21
147.3997737837132
 31
0.0
  0
INSERT
  5
145D
330
18
100
AcDbEntity
  8
0
  6
ByBlock
 62
     2
100
AcDbBlockReference
  2
_OPEN
 10
478.887973575193
 20
141.7847621239254
 30
0.0
 41
2.5
 42
2.5
 43
2.5
 50
59.7514151490588
  0
INSERT
  5
145E
330
18
100
AcDbEntity
  8
0
  6
ByBlock
 62
     2
100
AcDbBlockReference
  2
_OPEN
 10
482.1623657417558
 20
147.3997737837132
 30
0.0
 41
2.5
 42
2.5
 43
2.5
 50
239.7514151490588
  0
POINT
  5
145F
330
18
100
AcDbEntity
  8
DEFPOINTS
  6
ByBlock
 62
     0
100
AcDbPoint
 10
482.1623657417558
 20
147.3997737837132
 30
0.0
  0
POINT
  5
1460
330
18
100
AcDbEntity
  8
DEFPOINTS
  6
ByBlock
 62
     0
100
AcDbPoint
 10
478.887973575193
 20
141.7847621239254
 30
0.0
  0
TEXT
  5
1461
330
18
100
AcDbEntity
  8
文字
100
AcDbText
 10
489.5400033863812
 20
159.7618280714906
 30
0.0
 40
2.5
  1
φ6.5
  7
STYLE3
100
AcDbText
  0
LINE
  5
1499
330
18
100
AcDbEntity
  8
目盛
100
AcDbLine
 10
385.9342385843307
 20
161.7084263463642
 30
0.0
 11
385.8306342271072
 21
160.0616822444575
 31
0.0
  0
LINE
  5
149A
330
18
100
AcDbEntity
  8
目盛
100
AcDbLine
 10
387.0068461300308
 20
161.6070350813626
 30
0.0
 11
386.7373796778674
 21
159.4739884735365
 31
0.0
  0
LINE
  5
149B
330
18
100
AcDbEntity
  8
目盛
100
AcDbLine
 10
388.0709707195481
 20
161.4384943038163
 30
0.0
 11
387.7617915504816
 21
159.817720340114
 31
0.0
  0
LINE
  5
149C
330
18
100
AcDbEntity
  8
目盛
100
AcDbLine
 10
389.1224127392801
 20
161.2034691671753
 30
0.0
 11
388.5877294818757
 21
159.1210153707488
 31
0.0
  0
LINE
  5
149D
330
18
100
AcDbEntity
  8
目盛
100
AcDbLine
 10
390.1570226279333
 20
160.9028872082812
 30
0.0
 11
389.6471445872146
 21
159.3336439563941
 31
0.0
  0
LINE
  5
149E
330
18
100
AcDbEntity
  8
目盛
100
AcDbLine
 10
391.1707172529452
 20
160.5379346868028
 30
0.0
 11
390.3792494646731
 21
158.5389152421431
 31
0.0
  0
LINE
  5
149F
330
18
100
AcDbEntity
  8
目盛
100
AcDbLine
 10
392.1594960247439
 20
160.1100519036116
 30
0.0
 11
391.4569601936615
 21
158.6170872670426
 31
0.0
  0
LINE
  5
14A0
330
18
100
AcDbEntity
  8
目盛
100
AcDbLine
 10
393.1194566852474
 20
159.6209275165716
 30
0.0
 11
392.0836862859287
 21
157.7368681544772
 31
0.0
  0
LINE
  5
14A1
330
18
100
AcDbEntity
  8
目盛
100
AcDbLine
 10
394.0468107082927
 20
159.0724918761788
 30
0.0
 11
393.1626964965774
 21
157.6793507991005
 31
0.0
  0
LINE
  5
14A3
330
18
100
AcDbEntity
  8
目盛
100
AcDbLine
 10
376.5953056635585
 20
159.6209275165716
 30
0.0
 11
377.6310760628771
 21
157.7368681544772
 31
0.0
  0
LINE
  5
14A4
330
18
100
AcDbEntity
  8
目盛
100
AcDbLine
 10
377.5552663240619
 20
160.1100519036116
 30
0.0
 11
378.2578021551443
 21
158.6170872670427
 31
0.0
  0
LINE
  5
14A5
330
18
100
AcDbEntity
  8
目盛
100
AcDbLine
 10
375.6679516405132
 20
159.0724918761789
 30
0.0
 11
376.5520658522285
 21
157.6793507991005
 31
0.0
  0
LINE
  5
14A6
330
18
100
AcDbEntity
  8
目盛
100
AcDbLine
 10
374.776864097587
 20
158.4669094073497
 30
0.0
 11
376.334495016162
 21
156.323014372256
 31
0.0
  0
LINE
  5
14A7
330
18
100
AcDbEntity
  8
目盛
100
AcDbLine
 10
380.5923496095257
 20
161.2034691671753
 30
0.0
 11
381.1270328669301
 21
159.1210153707488
 31
0.0
  0
LINE
  5
14A8
330
18
100
AcDbEntity
  8
目盛
100
AcDbLine
 10
378.5440450958607
 20
160.5379346868028
 30
0.0
 11
379.3355128841327
 21
158.5389152421431
 31
0.0
  0
LINE
  5
14A9
330
18
100
AcDbEntity
  8
目盛
100
AcDbLine
 10
379.5577397208726
 20
160.9028872082812
 30
0.0
 11
380.0676177615912
 21
159.3336439563942
 31
0.0
  0
LINE
  5
14AA
330
18
100
AcDbEntity
  8
目盛
100
AcDbLine
 10
383.7805237644752
 20
161.7084263463642
 30
0.0
 11
383.8841281216986
 21
160.0616822444576
 31
0.0
  0
LINE
  5
14AB
330
18
100
AcDbEntity
  8
目盛
100
AcDbLine
 10
382.7079162187752
 20
161.6070350813626
 30
0.0
 11
382.9773826709385
 21
159.4739884735365
 31
0.0
  0
LINE
  5
14AC
330
18
100
AcDbEntity
  8
目盛
100
AcDbLine
 10
381.6437916292577
 20
161.4384943038164
 30
0.0
 11
381.9529707983242
 21
159.817720340114
 31
0.0
  0
LINE
  5
14AD
330
18
100
AcDbEntity
  8
目盛
100
AcDbLine
 10
369.3395972246106
 20
151.8943828041602
 30
0.0
 11
371.2849753874126
 21
150.9789573272953
 31
0.0
  0
LINE
  5
14AE
330
18
100
AcDbEntity
  8
目盛
100
AcDbLine
 10
369.8287216116506
 20
152.8543434646637
 30
0.0
 11
371.274627633723
 21
152.0594499023959
 31
0.0
  0
LINE
  5
14AF
330
18
100
AcDbEntity
  8
目盛
100
AcDbLine
 10
368.9117144414194
 20
150.9056040323615
 30
0.0
 11
370.445845643135
 21
150.2981985204317
 31
0.0
  0
LINE
  5
14B0
330
18
100
AcDbEntity
  8
目盛
100
AcDbLine
 10
368.546761919941
 20
149.8919094073496
 30
0.0
 11
371.0670616881232
 21
149.073014372256
 31
0.0
  0
LINE
  5
14B1
330
18
100
AcDbEntity
  8
目盛
100
AcDbLine
 10
371.6430790607981
 20
155.5240893780093
 30
0.0
 11
373.2996825327661
 21
154.1536278000496
 31
0.0
  0
LINE
  5
14B2
330
18
100
AcDbEntity
  8
目盛
100
AcDbLine
 10
370.3771572520433
 20
153.781697487709
 30
0.0
 11
372.1924622918727
 21
152.6296698785042
 31
0.0
  0
LINE
  5
14B3
330
18
100
AcDbEntity
  8
目盛
100
AcDbLine
 10
370.9827397208726
 20
154.6727850306353
 30
0.0
 11
372.3176177615912
 21
153.7029393643526
 31
0.0
  0
LINE
  5
14B4
330
18
100
AcDbEntity
  8
目盛
100
AcDbLine
 10
373.9255597502129
 20
157.806570067424
 30
0.0
 11
374.9773093332982
 21
156.535223216844
 31
0.0
  0
LINE
  5
14B5
330
18
100
AcDbEntity
  8
目盛
100
AcDbLine
 10
373.1173983077259
 20
157.0940799140965
 30
0.0
 11
374.5891745854726
 21
155.5267973651405
 31
0.0
  0
LINE
  5
14B6
330
18
100
AcDbEntity
  8
目盛
100
AcDbLine
 10
372.3555692141257
 20
156.3322508204963
 30
0.0
 11
373.558367449371
 21
155.2027480957139
 31
0.0
  0
LINE
  5
14B7
330
18
100
AcDbEntity
  8
目盛
100
AcDbLine
 10
368.011154824406
 20
141.3786784086741
 30
0.0
 11
370.1230724134726
 21
141.7815482350333
 31
0.0
  0
LINE
  5
14B8
330
18
100
AcDbEntity
  8
目盛
100
AcDbLine
 10
367.8426140468596
 20
142.4428029981914
 30
0.0
 11
369.4796033040285
 21
142.6496028335725
 31
0.0
  0
LINE
  5
14B9
330
18
100
AcDbEntity
  8
目盛
100
AcDbLine
 10
368.2461799610469
 20
140.3272363889421
 30
0.0
 11
369.8443421769092
 21
140.737574702764
 31
0.0
  0
LINE
  5
14BA
330
18
100
AcDbEntity
  8
目盛
100
AcDbLine
 10
368.546761919941
 20
139.2926265002889
 30
0.0
 11
371.0670616881232
 21
140.1115215353826
 31
0.0
  0
LINE
  5
14BB
330
18
100
AcDbEntity
  8
目盛
100
AcDbLine
 10
367.741222781858
 20
145.669125363747
 30
0.0
 11
369.8869802479789
 21
145.534125746759
 31
0.0
  0
LINE
  5
14BC
330
18
100
AcDbEntity
  8
目盛
100
AcDbLine
 10
367.741222781858
 20
143.5154105438915
 30
0.0
 11
369.8869802479789
 21
143.6504101608796
 31
0.0
  0
LINE
  5
14BD
330
18
100
AcDbEntity
  8
目盛
100
AcDbLine
 10
367.7073811744029
 20
144.5922679538194
 30
0.0
 11
369.3573811744029
 21
144.5922679538193
 31
0.0
  0
LINE
  5
14BE
330
18
100
AcDbEntity
  8
目盛
100
AcDbLine
 10
368.2461799610469
 20
148.8572995186965
 30
0.0
 11
369.8443421769091
 21
148.4469612048746
 31
0.0
  0
LINE
  5
14BF
330
18
100
AcDbEntity
  8
目盛
100
AcDbLine
 10
368.0111548244059
 20
147.8058574989645
 30
0.0
 11
370.1230724134726
 21
147.4029876726052
 31
0.0
  0
LINE
  5
14C0
330
18
100
AcDbEntity
  8
目盛
100
AcDbLine
 10
367.8426140468596
 20
146.7417329094471
 30
0.0
 11
369.4796033040285
 21
146.5349330740659
 31
0.0
  0
LINE
  5
14C1
330
18
100
AcDbEntity
  8
目盛
100
AcDbLine
 10
373.1173983077259
 20
132.0904559935421
 30
0.0
 11
374.5891745854726
 21
133.6577385424981
 31
0.0
  0
LINE
  5
14C2
330
18
100
AcDbEntity
  8
目盛
100
AcDbLine
 10
372.3555692141257
 20
132.8522850871423
 30
0.0
 11
373.558367449371
 21
133.9817878119246
 31
0.0
  0
LINE
  5
14C3
330
18
100
AcDbEntity
  8
目盛
100
AcDbLine
 10
373.9255597502128
 20
131.3779658402145
 30
0.0
 11
374.9773093332982
 21
132.6493126907945
 31
0.0
  0
LINE
  5
14C4
330
18
100
AcDbEntity
  8
目盛
100
AcDbLine
 10
374.776864097587
 20
130.717626500289
 30
0.0
 11
376.334495016162
 21
132.8615215353825
 31
0.0
  0
LINE
  5
14C5
330
18
100
AcDbEntity
  8
目盛
100
AcDbLine
 10
370.3771572520433
 20
135.4028384199295
 30
0.0
 11
372.1924622918726
 21
136.5548660291344
 31
0.0
  0
LINE
  5
14C6
330
18
100
AcDbEntity
  8
目盛
100
AcDbLine
 10
371.6430790607981
 20
133.6604465296292
 30
0.0
 11
373.299682532766
 21
135.0309081075889
 31
0.0
  0
LINE
  5
14C7
330
18
100
AcDbEntity
  8
目盛
100
AcDbLine
 10
370.9827397208725
 20
134.5117508770034
 30
0.0
 11
372.3176177615912
 21
135.481596543286
 31
0.0
  0
LINE
  5
14C8
330
18
100
AcDbEntity
  8
目盛
100
AcDbLine
 10
368.9117144414193
 20
138.278931875277
 30
0.0
 11
370.445845643135
 21
138.8863373872068
 31
0.0
  0
LINE
  5
14C9
330
18
100
AcDbEntity
  8
目盛
100
AcDbLine
 10
369.3395972246106
 20
137.2901531034783
 30
0.0
 11
371.2849753874126
 21
138.2055785803433
 31
0.0
  0
LINE
  5
14CA
330
18
100
AcDbEntity
  8
目盛
100
AcDbLine
 10
369.8287216116506
 20
136.3301924429749
 30
0.0
 11
371.274627633723
 21
137.1250860052427
 31
0.0
  0
LINE
  5
14CB
330
18
100
AcDbEntity
  8
目盛
100
AcDbLine
 10
382.7079162187751
 20
127.577500826276
 30
0.0
 11
382.9773826709384
 21
129.7105474341021
 31
0.0
  0
LINE
  5
14CC
330
18
100
AcDbEntity
  8
目盛
100
AcDbLine
 10
381.6437916292577
 20
127.7460416038223
 30
0.0
 11
381.9529707983242
 21
129.3668155675246
 31
0.0
  0
LINE
  5
14CD
330
18
100
AcDbEntity
  8
目盛
100
AcDbLine
 10
383.7805237644752
 20
127.4761095612744
 30
0.0
 11
383.8841281216986
 21
129.1228536631811
 31
0.0
  0
LINE
  5
14CE
330
18
100
AcDbEntity
  8
目盛
100
AcDbLine
 10
384.8573811744029
 20
127.4422679538193
 30
0.0
 11
384.8573811744029
 21
130.0922679538193
 31
0.0
  0
LINE
  5
14CF
330
18
100
AcDbEntity
  8
目盛
100
AcDbLine
 10
378.5440450958607
 20
128.6466012208358
 30
0.0
 11
379.3355128841327
 21
130.6456206654955
 31
0.0
  0
LINE
  5
14D0
330
18
100
AcDbEntity
  8
目盛
100
AcDbLine
 10
380.5923496095257
 20
127.9810667404633
 30
0.0
 11
381.1270328669301
 21
130.0635205368898
 31
0.0
  0
LINE
  5
14D1
330
18
100
AcDbEntity
  8
目盛
100
AcDbLine
 10
379.5577397208725
 20
128.2816486993574
 30
0.0
 11
380.0676177615912
 21
129.8508919512444
 31
0.0
  0
LINE
  5
14D2
330
18
100
AcDbEntity
  8
目盛
100
AcDbLine
 10
375.6679516405132
 20
130.1120440314597
 30
0.0
 11
376.5520658522285
 21
131.5051851085381
 31
0.0
  0
LINE
  5
14D3
330
18
100
AcDbEntity
  8
目盛
100
AcDbLine
 10
376.5953056635585
 20
129.563608391067
 30
0.0
 11
377.6310760628771
 21
131.4476677531614
 31
0.0
  0
LINE
  5
14D4
330
18
100
AcDbEntity
  8
目盛
100
AcDbLine
 10
377.5552663240619
 20
129.074484004027
 30
0.0
 11
378.2578021551443
 21
130.567448640596
 31
0.0
  0
LINE
  5
14D5
330
18
100
AcDbEntity
  8
目盛
100
AcDbLine
 10
393.1194566852473
 20
129.563608391067
 30
0.0
 11
392.0836862859287
 21
131.4476677531614
 31
0.0
  0
LINE
  5
14D6
330
18
100
AcDbEntity
  8
目盛
100
AcDbLine
 10
392.1594960247439
 20
129.074484004027
 30
0.0
 11
391.4569601936615
 21
130.567448640596
 31
0.0
  0
LINE
  5
14D7
330
18
100
AcDbEntity
  8
目盛
100
AcDbLine
 10
394.0468107082927
 20
130.1120440314598
 30
0.0
 11
393.1626964965774
 21
131.5051851085381
 31
0.0
  0
LINE
  5
14D8
330
18
100
AcDbEntity
  8
目盛
100
AcDbLine
 10
394.9378982512188
 20
130.717626500289
 30
0.0
 11
393.3802673326438
 21
132.8615215353825
 31
0.0
  0
LINE
  5
14D9
330
18
100
AcDbEntity
  8
目盛
100
AcDbLine
 10
389.1224127392801
 20
127.9810667404633
 30
0.0
 11
388.5877294818757
 21
130.0635205368898
 31
0.0
  0
LINE
  5
14DA
330
18
100
AcDbEntity
  8
目盛
100
AcDbLine
 10
391.1707172529451
 20
128.6466012208358
 30
0.0
 11
390.3792494646731
 21
130.6456206654955
 31
0.0
  0
LINE
  5
14DB
330
18
100
AcDbEntity
  8
目盛
100
AcDbLine
 10
390.1570226279332
 20
128.2816486993574
 30
0.0
 11
389.6471445872146
 21
129.8508919512445
 31
0.0
  0
LINE
  5
14DC
330
18
100
AcDbEntity
  8
目盛
100
AcDbLine
 10
385.9342385843306
 20
127.4761095612744
 30
0.0
 11
385.8306342271072
 21
129.1228536631811
 31
0.0
  0
LINE
  5
14DD
330
18
100
AcDbEntity
  8
目盛
100
AcDbLine
 10
387.0068461300307
 20
127.577500826276
 30
0.0
 11
386.7373796778674
 21
129.7105474341021
 31
0.0
  0
LINE
  5
14DE
330
18
100
AcDbEntity
  8
目盛
100
AcDbLine
 10
388.0709707195481
 20
127.7460416038223
 30
0.0
 11
387.7617915504817
 21
129.3668155675246
 31
0.0
  0
LINE
  5
14DF
330
18
100
AcDbEntity
  8
目盛
100
AcDbLine
 10
400.3751651241951
 20
137.2901531034783
 30
0.0
 11
398.4297869613932
 21
138.2055785803433
 31
0.0
  0
LINE
  5
14E0
330
18
100
AcDbEntity
  8
目盛
100
AcDbLine
 10
399.8860407371552
 20
136.3301924429748
 30
0.0
 11
398.4401347150828
 21
137.1250860052427
 31
0.0
  0
LINE
  5
14E1
330
18
100
AcDbEntity
  8
目盛
100
AcDbLine
 10
400.8030479073863
 20
138.278931875277
 30
0.0
 11
399.2689167056708
 21
138.8863373872069
 31
0.0
  0
LINE
  5
14E2
330
18
100
AcDbEntity
  8
目盛
100
AcDbLine
 10
401.1680004288647
 20
139.2926265002889
 30
0.0
 11
398.6477006606826
 21
140.1115215353826
 31
0.0
  0
LINE
  5
14E3
330
18
100
AcDbEntity
  8
目盛
100
AcDbLine
 10
398.0716832880077
 20
133.6604465296292
 30
0.0
 11
396.4150798160397
 21
135.0309081075889
 31
0.0
  0
LINE
  5
14E4
330
18
100
AcDbEntity
  8
目盛
100
AcDbLine
 10
399.3376050967624
 20
135.4028384199296
 30
0.0
 11
397.5223000569331
 21
136.5548660291344
 31
0.0
  0
LINE
  5
14E5
330
18
100
AcDbEntity
  8
目盛
100
AcDbLine
 10
398.7320226279333
 20
134.5117508770033
 30
0.0
 11
397.3971445872146
 21
135.481596543286
 31
0.0
  0
LINE
  5
14E6
330
18
100
AcDbEntity
  8
目盛
100
AcDbLine
 10
395.789202598593
 20
131.3779658402145
 30
0.0
 11
394.7374530155076
 21
132.6493126907945
 31
0.0
  0
LINE
  5
14E7
330
18
100
AcDbEntity
  8
目盛
100
AcDbLine
 10
396.5973640410799
 20
132.090455993542
 30
0.0
 11
395.1255877633331
 21
133.6577385424981
 31
0.0
  0
LINE
  5
14E8
330
18
100
AcDbEntity
  8
目盛
100
AcDbLine
 10
397.3591931346801
 20
132.8522850871422
 30
0.0
 11
396.1563948994347
 21
133.9817878119246
 31
0.0
  0
LINE
  5
14E9
330
18
100
AcDbEntity
  8
目盛
100
AcDbLine
 10
401.7036075243998
 20
147.8058574989645
 30
0.0
 11
399.5916899353332
 21
147.4029876726052
 31
0.0
  0
LINE
  5
14EA
330
18
100
AcDbEntity
  8
目盛
100
AcDbLine
 10
401.8721483019461
 20
146.7417329094472
 30
0.0
 11
400.2351590447772
 21
146.5349330740661
 31
0.0
  0
LINE
  5
14EB
330
18
100
AcDbEntity
  8
目盛
100
AcDbLine
 10
401.4685823877589
 20
148.8572995186965
 30
0.0
 11
399.8704201718966
 21
148.4469612048746
 31
0.0
  0
LINE
  5
14EC
330
18
100
AcDbEntity
  8
目盛
100
AcDbLine
 10
401.1680004288647
 20
149.8919094073496
 30
0.0
 11
398.6477006606826
 21
149.073014372256
 31
0.0
  0
LINE
  5
14ED
330
18
100
AcDbEntity
  8
目盛
100
AcDbLine
 10
401.9735395669477
 20
143.5154105438916
 30
0.0
 11
399.827782100827
 21
143.6504101608796
 31
0.0
  0
LINE
  5
14EE
330
18
100
AcDbEntity
  8
目盛
100
AcDbLine
 10
401.9735395669477
 20
145.6691253637471
 30
0.0
 11
399.827782100827
 21
145.534125746759
 31
0.0
  0
LINE
  5
14EF
330
18
100
AcDbEntity
  8
目盛
100
AcDbLine
 10
402.0073811744029
 20
144.5922679538192
 30
0.0
 11
400.3573811744028
 21
144.5922679538193
 31
0.0
  0
LINE
  5
14F0
330
18
100
AcDbEntity
  8
目盛
100
AcDbLine
 10
401.4685823877589
 20
140.3272363889421
 30
0.0
 11
399.8704201718967
 21
140.737574702764
 31
0.0
  0
LINE
  5
14F1
330
18
100
AcDbEntity
  8
目盛
100
AcDbLine
 10
401.7036075243998
 20
141.3786784086741
 30
0.0
 11
399.5916899353332
 21
141.7815482350333
 31
0.0
  0
LINE
  5
14F2
330
18
100
AcDbEntity
  8
目盛
100
AcDbLine
 10
401.8721483019462
 20
142.4428029981915
 30
0.0
 11
400.2351590447772
 21
142.6496028335726
 31
0.0
  0
LINE
  5
14F3
330
18
100
AcDbEntity
  8
目盛
100
AcDbLine
 10
396.59736404108
 20
157.0940799140965
 30
0.0
 11
395.1255877633333
 21
155.5267973651405
 31
0.0
  0
LINE
  5
14F4
330
18
100
AcDbEntity
  8
目盛
100
AcDbLine
 10
397.3591931346801
 20
156.3322508204963
 30
0.0
 11
396.1563948994348
 21
155.202748095714
 31
0.0
  0
LINE
  5
14F5
330
18
100
AcDbEntity
  8
目盛
100
AcDbLine
 10
395.7892025985931
 20
157.8065700674241
 30
0.0
 11
394.7374530155077
 21
156.5352232168441
 31
0.0
  0
LINE
  5
14F6
330
18
100
AcDbEntity
  8
目盛
100
AcDbLine
 10
394.9378982512189
 20
158.4669094073496
 30
0.0
 11
393.3802673326438
 21
156.323014372256
 31
0.0
  0
LINE
  5
14F7
330
18
100
AcDbEntity
  8
目盛
100
AcDbLine
 10
399.3376050967626
 20
153.7816974877091
 30
0.0
 11
397.5223000569333
 21
152.6296698785042
 31
0.0
  0
LINE
  5
14F8
330
18
100
AcDbEntity
  8
目盛
100
AcDbLine
 10
398.0716832880077
 20
155.5240893780093
 30
0.0
 11
396.4150798160398
 21
154.1536278000496
 31
0.0
  0
LINE
  5
14F9
330
18
100
AcDbEntity
  8
目盛
100
AcDbLine
 10
398.7320226279334
 20
154.6727850306352
 30
0.0
 11
397.3971445872146
 21
153.7029393643526
 31
0.0
  0
LINE
  5
14FA
330
18
100
AcDbEntity
  8
目盛
100
AcDbLine
 10
400.8030479073864
 20
150.9056040323615
 30
0.0
 11
399.2689167056708
 21
150.2981985204318
 31
0.0
  0
LINE
  5
14FB
330
18
100
AcDbEntity
  8
目盛
100
AcDbLine
 10
400.3751651241952
 20
151.8943828041603
 30
0.0
 11
398.4297869613933
 21
150.9789573272953
 31
0.0
  0
LINE
  5
14FC
330
18
100
AcDbEntity
  8
目盛
100
AcDbLine
 10
399.8860407371553
 20
152.8543434646637
 30
0.0
 11
398.4401347150829
 21
152.0594499023959
 31
0.0
  0
LINE
  5
153C
330
18
100
AcDbEntity
  8
0
  6
ByBlock
 62
     2
100
AcDbLine
 10
352.9837849289065
 20
175.0922679538193
 30
0.0
 11
345.7962749776224
 21
175.0922679538193
 31
0.0
  0
LINE
  5
153D
330
18
100
AcDbEntity
  8
0
  6
ByBlock
 62
     2
100
AcDbLine
 10
352.9837849289065
 20
98.39226795381932
 30
0.0
 11
345.7962749776224
 21
98.39226795381932
 31
0.0
  0
LINE
  5
153E
330
18
100
AcDbEntity
  8
0
  6
ByBlock
 62
     2
100
AcDbLine
 10
347.0462749776225
 20
172.5922679538193
 30
0.0
 11
347.0462749776225
 21
100.8922679538193
 31
0.0
  0
INSERT
  5
153F
330
18
100
AcDbEntity
  8
0
  6
ByBlock
 62
     2
100
AcDbBlockReference
  2
_OPEN
 10
347.0462749776225
 20
175.0922679538193
 30
0.0
 41
2.5
 42
2.5
 43
2.5
 50
90.0
  0
INSERT
  5
1540
330
18
100
AcDbEntity
  8
0
  6
ByBlock
 62
     2
100
AcDbBlockReference
  2
_OPEN
 10
347.0462749776225
 20
98.39226795381932
 30
0.0
 41
2.5
 42
2.5
 43
2.5
 50
270.0
  0
MTEXT
  5
1541
330
18
100
AcDbEntity
  8
0
  6
ByBlock
 62
     6
100
AcDbMText
 10
345.1712749776224
 20
136.7422679538193
 30
0.0
 40
2.5
 41
0.0
 71
     5
 72
     1
  1
\A1;76.7
  7
STYLE3
 11
0.0000000000000001
 21
1.0
 31
0.0
 73
     1
 44
1.0
  0
POINT
  5
1542
330
18
100
AcDbEntity
  8
DEFPOINTS
  6
ByBlock
 62
     0
100
AcDbPoint
 10
352.9837849289065
 20
175.0922679538193
 30
0.0
  0
POINT
  5
1543
330
18
100
AcDbEntity
  8
DEFPOINTS
  6
ByBlock
 62
     0
100
AcDbPoint
 10
352.9837849289065
 20
98.39226795381932
 30
0.0
  0
POINT
  5
1544
330
18
100
AcDbEntity
  8
DEFPOINTS
  6
ByBlock
 62
     0
100
AcDbPoint
 10
347.0462749776225
 20
98.39226795381932
 30
0.0
  0
LINE
  5
1545
330
18
100
AcDbEntity
  8
0
  6
ByBlock
 62
     2
100
AcDbLine
 10
466.6251696584743
 20
163.0922679538193
 30
0.0
 11
506.6947279954915
 21
163.0922679538193
 31
0.0
  0
LINE
  5
1546
330
18
100
AcDbEntity
  8
0
  6
ByBlock
 62
     2
100
AcDbLine
 10
466.6251696584743
 20
126.0922679538193
 30
0.0
 11
506.6947279954915
 21
126.0922679538193
 31
0.0
  0
LINE
  5
1547
330
18
100
AcDbEntity
  8
0
  6
ByBlock
 62
     2
100
AcDbLine
 10
505.4447279954914
 20
160.5922679538193
 30
0.0
 11
505.4447279954914
 21
128.5922679538193
 31
0.0
  0
INSERT
  5
1548
330
18
100
AcDbEntity
  8
0
  6
ByBlock
 62
     2
100
AcDbBlockReference
  2
_OPEN
 10
505.4447279954914
 20
163.0922679538193
 30
0.0
 41
2.5
 42
2.5
 43
2.5
 50
90.0
  0
INSERT
  5
1549
330
18
100
AcDbEntity
  8
0
  6
ByBlock
 62
     2
100
AcDbBlockReference
  2
_OPEN
 10
505.4447279954914
 20
126.0922679538193
 30
0.0
 41
2.5
 42
2.5
 43
2.5
 50
270.0
  0
MTEXT
  5
154A
330
18
100
AcDbEntity
  8
0
  6
ByBlock
 62
     6
100
AcDbMText
 10
503.5697279954915
 20
144.5922679538193
 30
0.0
 40
2.5
 41
0.0
 71
     5
 72
     1
  1
\A1;φ37
  7
STYLE3
 11
0.0000000000000001
 21
1.0
 31
0.0
 73
     1
 44
1.0
  0
POINT
  5
154B
330
18
100
AcDbEntity
  8
DEFPOINTS
  6
ByBlock
 62
     0
100
AcDbPoint
 10
466.6251696584743
 20
163.0922679538193
 30
0.0
  0
POINT
  5
154C
330
18
100
AcDbEntity
  8
DEFPOINTS
  6
ByBlock
 62
     0
100
AcDbPoint
 10
466.6251696584743
 20
126.0922679538193
 30
0.0
  0
POINT
  5
154D
330
18
100
AcDbEntity
  8
DEFPOINTS
  6
ByBlock
 62
     0
100
AcDbPoint
 10
505.4447279954914
 20
126.0922679538193
 30
0.0
  0
LINE
  5
154E
330
18
100
AcDbEntity
  8
0
  6
ByBlock
 62
     2
100
AcDbLine
 10
384.8573811744029
 20
98.39226795381932
 30
0.0
 11
352.9837849289065
 21
98.39226795381932
 31
0.0
  0
LINE
  5
154F
330
18
100
AcDbEntity
  8
0
  6
ByBlock
 62
     2
100
AcDbLine
 10
354.2337849289065
 20
142.0922679538193
 30
0.0
 11
354.2337849289065
 21
100.8922679538193
 31
0.0
  0
INSERT
  5
1550
330
18
100
AcDbEntity
  8
0
  6
ByBlock
 62
     2
100
AcDbBlockReference
  2
_OPEN
 10
354.2337849289065
 20
144.5922679538193
 30
0.0
 41
2.5
 42
2.5
 43
2.5
 50
90.0
  0
INSERT
  5
1551
330
18
100
AcDbEntity
  8
0
  6
ByBlock
 62
     2
100
AcDbBlockReference
  2
_OPEN
 10
354.2337849289065
 20
98.39226795381932
 30
0.0
 41
2.5
 42
2.5
 43
2.5
 50
270.0
  0
MTEXT
  5
1552
330
18
100
AcDbEntity
  8
0
  6
ByBlock
 62
     6
100
AcDbMText
 10
352.3587849289065
 20
121.4922679538193
 30
0.0
 40
2.5
 41
0.0
 71
     5
 72
     1
  1
\A1;46.2
  7
STYLE3
 11
0.0000000000000001
 21
1.0
 31
0.0
 73
     1
 44
1.0
  0
POINT
  5
1553
330
18
100
AcDbEntity
  8
DEFPOINTS
  6
ByBlock
 62
     0
100
AcDbPoint
 10
362.0524018129657
 20
144.5922679538193
 30
0.0
  0
POINT
  5
1554
330
18
100
AcDbEntity
  8
DEFPOINTS
  6
ByBlock
 62
     0
100
AcDbPoint
 10
384.8573811744029
 20
98.39226795381932
 30
0.0
  0
POINT
  5
1555
330
18
100
AcDbEntity
  8
DEFPOINTS
  6
ByBlock
 62
     0
100
AcDbPoint
 10
354.2337849289065
 20
98.39226795381932
 30
0.0
  0
LINE
  5
1556
330
18
100
AcDbEntity
  8
0
  6
ByBlock
 62
     2
100
AcDbLine
 10
452.7251696584743
 20
164.9922679538193
 30
0.0
 11
437.3356414811696
 21
164.9922679538193
 31
0.0
  0
LINE
  5
1557
330
18
100
AcDbEntity
  8
0
  6
ByBlock
 62
     2
100
AcDbLine
 10
452.7251696584743
 20
124.1922679538193
 30
0.0
 11
437.3356414811696
 21
124.1922679538193
 31
0.0
  0
LINE
  5
1558
330
18
100
AcDbEntity
  8
0
  6
ByBlock
 62
     2
100
AcDbLine
 10
438.5856414811696
 20
162.4922679538193
 30
0.0
 11
438.5856414811696
 21
126.6922679538193
 31
0.0
  0
INSERT
  5
1559
330
18
100
AcDbEntity
  8
0
  6
ByBlock
 62
     2
100
AcDbBlockReference
  2
_OPEN
 10
438.5856414811696
 20
164.9922679538193
 30
0.0
 41
2.5
 42
2.5
 43
2.5
 50
90.0
  0
INSERT
  5
155A
330
18
100
AcDbEntity
  8
0
  6
ByBlock
 62
     2
100
AcDbBlockReference
  2
_OPEN
 10
438.5856414811696
 20
124.1922679538193
 30
0.0
 41
2.5
 42
2.5
 43
2.5
 50
270.0
  0
MTEXT
  5
155B
330
18
100
AcDbEntity
  8
0
  6
ByBlock
 62
     6
100
AcDbMText
 10
436.7106414811696
 20
144.5922679538193
 30
0.0
 40
2.5
 41
0.0
 71
     5
 72
     1
  1
\A1;φ40.8
  7
STYLE3
 11
0.0000000000000001
 21
1.0
 31
0.0
 73
     1
 44
1.0
  0
POINT
  5
155C
330
18
100
AcDbEntity
  8
DEFPOINTS
  6
ByBlock
 62
     0
100
AcDbPoint
 10
452.7251696584743
 20
164.9922679538193
 30
0.0
  0
POINT
  5
155D
330
18
100
AcDbEntity
  8
DEFPOINTS
  6
ByBlock
 62
     0
100
AcDbPoint
 10
452.7251696584743
 20
124.1922679538193
 30
0.0
  0
POINT
  5
155E
330
18
100
AcDbEntity
  8
DEFPOINTS
  6
ByBlock
 62
     0
100
AcDbPoint
 10
438.5856414811696
 20
124.1922679538193
 30
0.0
  0
LINE
  5
1561
330
18
100
AcDbEntity
  8
0
  6
ByBlock
 62
     2
100
AcDbLine
 10
461.4751696584743
 20
98.39226795381932
 30
0.0
 11
437.3356414811696
 21
98.39226795381932
 31
0.0
  0
LINE
  5
1562
330
18
100
AcDbEntity
  8
0
  6
ByBlock
 62
     2
100
AcDbLine
 10
438.5856414811696
 20
103.3922679538193
 30
0.0
 11
438.5856414811696
 21
100.8922679538193
 31
0.0
  0
INSERT
  5
1563
330
18
100
AcDbEntity
  8
0
  6
ByBlock
 62
     2
100
AcDbBlockReference
  2
_OPEN
 10
438.5856414811696
 20
105.8922679538193
 30
0.0
 41
2.5
 42
2.5
 43
2.5
 50
90.0
  0
INSERT
  5
1564
330
18
100
AcDbEntity
  8
0
  6
ByBlock
 62
     2
100
AcDbBlockReference
  2
_OPEN
 10
438.5856414811696
 20
98.39226795381932
 30
0.0
 41
2.5
 42
2.5
 43
2.5
 50
270.0
  0
MTEXT
  5
1565
330
18
100
AcDbEntity
  8
0
  6
ByBlock
 62
     6
100
AcDbMText
 10
436.7106414811696
 20
102.1422679538193
 30
0.0
 40
2.5
 41
0.0
 71
     5
 72
     1
  1
\A1;7.5
  7
STYLE3
 11
0.0000000000000001
 21
1.0
 31
0.0
 73
     1
 44
1.0
  0
POINT
  5
1566
330
18
100
AcDbEntity
  8
DEFPOINTS
  6
ByBlock
 62
     0
100
AcDbPoint
 10
459.2251696584743
 20
105.8922679538193
 30
0.0
  0
POINT
  5
1567
330
18
100
AcDbEntity
  8
DEFPOINTS
  6
ByBlock
 62
     0
100
AcDbPoint
 10
461.4751696584743
 20
98.39226795381932
 30
0.0
  0
POINT
  5
1568
330
18
100
AcDbEntity
  8
DEFPOINTS
  6
ByBlock
 62
     0
100
AcDbPoint
 10
438.5856414811696
 20
98.39226795381932
 30
0.0
  0
LINE
  5
1569
330
18
100
AcDbEntity
  8
0
  6
ByBlock
 62
     2
100
AcDbLine
 10
459.2251696584743
 20
105.8922679538193
 30
0.0
 11
437.3356414811696
 21
105.8922679538193
 31
0.0
  0
LINE
  5
156A
330
18
100
AcDbEntity
  8
0
  6
ByBlock
 62
     2
100
AcDbLine
 10
438.5856414811696
 20
113.7922679538193
 30
0.0
 11
438.5856414811696
 21
116.2922679538193
 31
0.0
  0
LINE
  5
156B
330
18
100
AcDbEntity
  8
0
  6
ByBlock
 62
     2
100
AcDbLine
 10
438.5856414811696
 20
103.3922679538193
 30
0.0
 11
438.5856414811696
 21
100.8922679538193
 31
0.0
  0
MTEXT
  5
156C
330
18
100
AcDbEntity
  8
0
  6
ByBlock
 62
     6
100
AcDbMText
 10
435.3481401359438
 20
108.8948725684145
 30
0.0
 40
2.5
 41
0.0
 71
     5
 72
     1
  1
\A1;5.4
  7
STYLE3
 11
0.0000000000000001
 21
1.0
 31
0.0
 73
     1
 44
1.0
  0
LINE
  5
156D
330
18
100
AcDbEntity
  8
0
  6
ByBlock
 62
     2
100
AcDbLine
 10
438.5856414811696
 20
111.2922679538193
 30
0.0
 11
438.5856414811696
 21
105.8922679538193
 31
0.0
  0
LINE
  5
156E
330
18
100
AcDbEntity
  8
0
  6
ByBlock
 62
     2
100
AcDbLine
 10
438.5856414811696
 20
111.2922679538193
 30
0.0
 11
438.5856414811696
 21
105.8922679538193
 31
0.0
  0
INSERT
  5
156F
330
18
100
AcDbEntity
  8
0
  6
ByBlock
 62
     2
100
AcDbBlockReference
  2
_OPEN
 10
438.5856414811696
 20
111.2922679538193
 30
0.0
 41
2.5
 42
2.5
 43
2.5
 50
270.0
  0
INSERT
  5
1570
330
18
100
AcDbEntity
  8
0
  6
ByBlock
 62
     2
100
AcDbBlockReference
  2
_OPEN
 10
438.5856414811696
 20
105.8922679538193
 30
0.0
 41
2.5
 42
2.5
 43
2.5
 50
90.0
  0
POINT
  5
1571
330
18
100
AcDbEntity
  8
DEFPOINTS
  6
ByBlock
 62
     0
100
AcDbPoint
 10
458.5251696584744
 20
111.2922679538193
 30
0.0
  0
POINT
  5
1572
330
18
100
AcDbEntity
  8
DEFPOINTS
  6
ByBlock
 62
     0
100
AcDbPoint
 10
459.2251696584743
 20
105.8922679538193
 30
0.0
  0
POINT
  5
1573
330
18
100
AcDbEntity
  8
DEFPOINTS
  6
ByBlock
 62
     0
100
AcDbPoint
 10
438.5856414811696
 20
105.8922679538193
 30
0.0
  0
LINE
  5
1574
330
18
100
AcDbEntity
  8
0
  6
ByBlock
 62
     2
100
AcDbLine
 10
458.5251696584744
 20
111.2922679538193
 30
0.0
 11
437.3356414811696
 21
111.2922679538193
 31
0.0
  0
LINE
  5
1575
330
18
100
AcDbEntity
  8
0
  6
ByBlock
 62
     2
100
AcDbLine
 10
438.5856414811696
 20
121.6922679538193
 30
0.0
 11
438.5856414811696
 21
113.7922679538193
 31
0.0
  0
INSERT
  5
1576
330
18
100
AcDbEntity
  8
0
  6
ByBlock
 62
     2
100
AcDbBlockReference
  2
_OPEN
 10
438.5856414811696
 20
124.1922679538193
 30
0.0
 41
2.5
 42
2.5
 43
2.5
 50
90.0
  0
INSERT
  5
1577
330
18
100
AcDbEntity
  8
0
  6
ByBlock
 62
     2
100
AcDbBlockReference
  2
_OPEN
 10
438.5856414811696
 20
111.2922679538193
 30
0.0
 41
2.5
 42
2.5
 43
2.5
 50
270.0
  0
MTEXT
  5
1578
330
18
100
AcDbEntity
  8
0
  6
ByBlock
 62
     6
100
AcDbMText
 10
436.7106414811696
 20
117.7422679538193
 30
0.0
 40
2.5
 41
0.0
 71
     5
 72
     1
  1
\A1;12.9
  7
STYLE3
 11
0.0000000000000001
 21
1.0
 31
0.0
 73
     1
 44
1.0
  0
POINT
  5
1579
330
18
100
AcDbEntity
  8
DEFPOINTS
  6
ByBlock
 62
     0
100
AcDbPoint
 10
452.7251696584743
 20
124.1922679538193
 30
0.0
  0
POINT
  5
157A
330
18
100
AcDbEntity
  8
DEFPOINTS
  6
ByBlock
 62
     0
100
AcDbPoint
 10
458.5251696584744
 20
111.2922679538193
 30
0.0
  0
POINT
  5
157B
330
18
100
AcDbEntity
  8
DEFPOINTS
  6
ByBlock
 62
     0
100
AcDbPoint
 10
438.5856414811696
 20
111.2922679538193
 30
0.0
  0
LINE
  5
157C
330
18
100
AcDbEntity
  8
0
  6
ByBlock
 62
     2
100
AcDbLine
 10
380.8573811744029
 20
118.9893200692671
 30
0.0
 11
380.8573811744029
 21
115.938362560136
 31
0.0
  0
LINE
  5
157D
330
18
100
AcDbEntity
  8
0
  6
ByBlock
 62
     2
100
AcDbLine
 10
388.8573811744029
 20
117.4134823625151
 30
0.0
 11
388.8573811744029
 21
115.938362560136
 31
0.0
  0
LINE
  5
157E
330
18
100
AcDbEntity
  8
0
  6
ByBlock
 62
     2
100
AcDbLine
 10
383.3573811744029
 20
117.188362560136
 30
0.0
 11
386.3573811744029
 21
117.188362560136
 31
0.0
  0
LINE
  5
157F
330
18
100
AcDbEntity
  8
0
  6
ByBlock
 62
     2
100
AcDbLine
 10
388.8573811744029
 20
117.188362560136
 30
0.0
 11
400.7026192696409
 21
117.188362560136
 31
0.0
  0
INSERT
  5
1580
330
18
100
AcDbEntity
  8
0
  6
ByBlock
 62
     2
100
AcDbBlockReference
  2
_OPEN
 10
380.8573811744029
 20
117.188362560136
 30
0.0
 41
2.5
 42
2.5
 43
2.5
 50
180.0
  0
INSERT
  5
1581
330
18
100
AcDbEntity
  8
0
  6
ByBlock
 62
     2
100
AcDbBlockReference
  2
_OPEN
 10
388.8573811744029
 20
117.188362560136
 30
0.0
 41
2.5
 42
2.5
 43
2.5
  0
MTEXT
  5
1582
330
18
100
AcDbEntity
  8
0
  6
ByBlock
 62
     6
100
AcDbMText
 10
396.030000222022
 20
119.063362560136
 30
0.0
 40
2.5
 41
0.0
 71
     5
 72
     1
  1
\A1;φ8.0
  7
STYLE3
 73
     1
 44
1.0
  0
POINT
  5
1583
330
18
100
AcDbEntity
  8
DEFPOINTS
  6
ByBlock
 62
     0
100
AcDbPoint
 10
380.8573811744029
 20
118.9893200692671
 30
0.0
  0
POINT
  5
1584
330
18
100
AcDbEntity
  8
DEFPOINTS
  6
ByBlock
 62
     0
100
AcDbPoint
 10
388.8573811744029
 20
117.4134823625151
 30
0.0
  0
POINT
  5
1585
330
18
100
AcDbEntity
  8
DEFPOINTS
  6
ByBlock
 62
     0
100
AcDbPoint
 10
388.8573811744029
 20
117.188362560136
 30
0.0
  0
LINE
  5
1586
330
18
100
AcDbEntity
  8
0
  6
ByBlock
 62
     2
100
AcDbLine
 10
382.8573811744029
 20
108.3275385125781
 30
0.0
 11
382.8573811744029
 21
106.2255903432006
 31
0.0
  0
LINE
  5
1587
330
18
100
AcDbEntity
  8
0
  6
ByBlock
 62
     2
100
AcDbLine
 10
386.8573811744029
 20
107.7418242611431
 30
0.0
 11
386.8573811744029
 21
106.2255903432006
 31
0.0
  0
LINE
  5
1588
330
18
100
AcDbEntity
  8
0
  6
ByBlock
 62
     2
100
AcDbLine
 10
380.3573811744029
 20
107.4755903432007
 30
0.0
 11
377.8573811744029
 21
107.4755903432007
 31
0.0
  0
LINE
  5
1589
330
18
100
AcDbEntity
  8
0
  6
ByBlock
 62
     2
100
AcDbLine
 10
389.3573811744029
 20
107.4755903432007
 30
0.0
 11
397.7502383172601
 21
107.4755903432007
 31
0.0
  0
LINE
  5
158A
330
18
100
AcDbEntity
  8
0
  6
ByBlock
 62
     2
100
AcDbLine
 10
382.8573811744029
 20
107.4755903432007
 30
0.0
 11
386.8573811744029
 21
107.4755903432007
 31
0.0
  0
INSERT
  5
158B
330
18
100
AcDbEntity
  8
0
  6
ByBlock
 62
     2
100
AcDbBlockReference
  2
_OPEN
 10
382.8573811744029
 20
107.4755903432007
 30
0.0
 41
2.5
 42
2.5
 43
2.5
  0
INSERT
  5
158C
330
18
100
AcDbEntity
  8
0
  6
ByBlock
 62
     2
100
AcDbBlockReference
  2
_OPEN
 10
386.8573811744029
 20
107.4755903432007
 30
0.0
 41
2.5
 42
2.5
 43
2.5
 50
180.0
  0
MTEXT
  5
158D
330
18
100
AcDbEntity
  8
0
  6
ByBlock
 62
     6
100
AcDbMText
 10
394.8038097458315
 20
109.3505903432006
 30
0.0
 40
2.5
 41
0.0
 71
     5
 72
     1
  1
\A1;φ4
  7
STYLE3
 73
     1
 44
1.0
  0
POINT
  5
158E
330
18
100
AcDbEntity
  8
DEFPOINTS
  6
ByBlock
 62
     0
100
AcDbPoint
 10
382.8573811744029
 20
108.3275385125781
 30
0.0
  0
POINT
  5
158F
330
18
100
AcDbEntity
  8
DEFPOINTS
  6
ByBlock
 62
     0
100
AcDbPoint
 10
386.8573811744029
 20
107.7418242611431
 30
0.0
  0
POINT
  5
1590
330
18
100
AcDbEntity
  8
DEFPOINTS
  6
ByBlock
 62
     0
100
AcDbPoint
 10
386.8573811744029
 20
107.4755903432007
 30
0.0
  0
TEXT
  5
1591
330
18
100
AcDbEntity
  8
文字
100
AcDbText
 10
402.6498099249851
 20
120.7803090684542
 30
0.0
 40
1.0
  1
0
  7
STYLE3
100
AcDbText
  0
TEXT
  5
1592
330
18
100
AcDbEntity
  8
文字
100
AcDbText
 10
401.4592677213677
 20
119.368530866643
 30
0.0
 40
1.0
  1
-0.03
  7
STYLE3
100
AcDbText
  0
LINE
  5
159B
330
18
100
AcDbEntity
  8
0
  6
ByBlock
 62
     2
100
AcDbLine
 10
461.5251696584742
 20
117.3111245405782
 30
0.0
 11
461.5251696584742
 21
114.9756532537884
 31
0.0
  0
LINE
  5
159C
330
18
100
AcDbEntity
  8
0
  6
ByBlock
 62
     2
100
AcDbLine
 10
480.5251696584743
 20
134.4540403004216
 30
0.0
 11
480.5251696584743
 21
114.9756532537884
 31
0.0
  0
LINE
  5
159D
330
18
100
AcDbEntity
  8
0
  6
ByBlock
 62
     2
100
AcDbLine
 10
464.0251696584742
 20
116.2256532537884
 30
0.0
 11
478.0251696584743
 21
116.2256532537884
 31
0.0
  0
INSERT
  5
159E
330
18
100
AcDbEntity
  8
0
  6
ByBlock
 62
     2
100
AcDbBlockReference
  2
_OPEN
 10
461.5251696584742
 20
116.2256532537884
 30
0.0
 41
2.5
 42
2.5
 43
2.5
 50
180.0
  0
INSERT
  5
159F
330
18
100
AcDbEntity
  8
0
  6
ByBlock
 62
     2
100
AcDbBlockReference
  2
_OPEN
 10
480.5251696584743
 20
116.2256532537884
 30
0.0
 41
2.5
 42
2.5
 43
2.5
  0
MTEXT
  5
15A0
330
18
100
AcDbEntity
  8
0
  6
ByBlock
 62
     6
100
AcDbMText
 10
471.0251696584743
 20
118.1006532537884
 30
0.0
 40
2.5
 41
0.0
 71
     5
 72
     1
  1
\A1;19
  7
STYLE3
 73
     1
 44
1.0
  0
POINT
  5
15A1
330
18
100
AcDbEntity
  8
DEFPOINTS
  6
ByBlock
 62
     0
100
AcDbPoint
 10
461.5251696584742
 20
117.3111245405782
 30
0.0
  0
POINT
  5
15A2
330
18
100
AcDbEntity
  8
DEFPOINTS
  6
ByBlock
 62
     0
100
AcDbPoint
 10
480.5251696584743
 20
134.4540403004216
 30
0.0
  0
POINT
  5
15A3
330
18
100
AcDbEntity
  8
DEFPOINTS
  6
ByBlock
 62
     0
100
AcDbPoint
 10
480.5251696584743
 20
116.2256532537884
 30
0.0
  0
LINE
  5
15A4
330
18
100
AcDbEntity
  8
0
  6
ByBlock
 62
     2
100
AcDbLine
 10
466.6251696584743
 20
163.0922679538193
 30
0.0
 11
466.6251696584743
 21
194.7539359859278
 31
0.0
  0
LINE
  5
15A5
330
18
100
AcDbEntity
  8
0
  6
ByBlock
 62
     2
100
AcDbLine
 10
459.0251696584743
 20
193.5039359859278
 30
0.0
 11
456.5251696584742
 21
193.5039359859278
 31
0.0
  0
LINE
  5
15A6
330
18
100
AcDbEntity
  8
0
  6
ByBlock
 62
     2
100
AcDbLine
 10
469.1251696584743
 20
193.5039359859278
 30
0.0
 11
471.6251696584743
 21
193.5039359859278
 31
0.0
  0
MTEXT
  5
15A7
330
18
100
AcDbEntity
  8
0
  6
ByBlock
 62
     6
100
AcDbMText
 10
463.9164869484005
 20
196.3008291181301
 30
0.0
 40
2.5
 41
0.0
 71
     5
 72
     1
  1
\A1;5.1
  7
STYLE3
 73
     1
 44
1.0
  0
LINE
  5
15A8
330
18
100
AcDbEntity
  8
0
  6
ByBlock
 62
     2
100
AcDbLine
 10
461.5251696584742
 20
193.5039359859278
 30
0.0
 11
466.6251696584743
 21
193.5039359859278
 31
0.0
  0
LINE
  5
15A9
330
18
100
AcDbEntity
  8
0
  6
ByBlock
 62
     2
100
AcDbLine
 10
461.5251696584742
 20
193.5039359859278
 30
0.0
 11
466.6251696584743
 21
193.5039359859278
 31
0.0
  0
INSERT
  5
15AA
330
18
100
AcDbEntity
  8
0
  6
ByBlock
 62
     2
100
AcDbBlockReference
  2
_OPEN
 10
461.5251696584742
 20
193.5039359859278
 30
0.0
 41
2.5
 42
2.5
 43
2.5
  0
INSERT
  5
15AB
330
18
100
AcDbEntity
  8
0
  6
ByBlock
 62
     2
100
AcDbBlockReference
  2
_OPEN
 10
466.6251696584743
 20
193.5039359859278
 30
0.0
 41
2.5
 42
2.5
 43
2.5
 50
180.0
  0
POINT
  5
15AC
330
18
100
AcDbEntity
  8
DEFPOINTS
  6
ByBlock
 62
     0
100
AcDbPoint
 10
461.5251696584742
 20
178.4808403466595
 30
0.0
  0
POINT
  5
15AD
330
18
100
AcDbEntity
  8
DEFPOINTS
  6
ByBlock
 62
     0
100
AcDbPoint
 10
466.6251696584743
 20
163.0922679538193
 30
0.0
  0
POINT
  5
15AE
330
18
100
AcDbEntity
  8
DEFPOINTS
  6
ByBlock
 62
     0
100
AcDbPoint
 10
466.6251696584743
 20
193.5039359859278
 30
0.0
  0
LINE
  5
15AF
330
18
100
AcDbEntity
  8
0
  6
ByBlock
 62
     2
100
AcDbLine
 10
449.0251696584742
 20
144.5922679538193
 30
0.0
 11
449.0251696584742
 21
194.7539359859278
 31
0.0
  0
LINE
  5
15B0
330
18
100
AcDbEntity
  8
0
  6
ByBlock
 62
     2
100
AcDbLine
 10
461.5251696584742
 20
178.4808403466595
 30
0.0
 11
461.5251696584742
 21
194.7539359859278
 31
0.0
  0
LINE
  5
15B1
330
18
100
AcDbEntity
  8
0
  6
ByBlock
 62
     2
100
AcDbLine
 10
451.5251696584742
 20
193.5039359859278
 30
0.0
 11
459.0251696584743
 21
193.5039359859278
 31
0.0
  0
INSERT
  5
15B2
330
18
100
AcDbEntity
  8
0
  6
ByBlock
 62
     2
100
AcDbBlockReference
  2
_OPEN
 10
449.0251696584742
 20
193.5039359859278
 30
0.0
 41
2.5
 42
2.5
 43
2.5
 50
180.0
  0
INSERT
  5
15B3
330
18
100
AcDbEntity
  8
0
  6
ByBlock
 62
     2
100
AcDbBlockReference
  2
_OPEN
 10
461.5251696584742
 20
193.5039359859278
 30
0.0
 41
2.5
 42
2.5
 43
2.5
  0
MTEXT
  5
15B4
330
18
100
AcDbEntity
  8
0
  6
ByBlock
 62
     6
100
AcDbMText
 10
455.2751696584742
 20
195.3789359859278
 30
0.0
 40
2.5
 41
0.0
 71
     5
 72
     1
  1
\A1;12.5
  7
STYLE3
 73
     1
 44
1.0
  0
POINT
  5
15B5
330
18
100
AcDbEntity
  8
DEFPOINTS
  6
ByBlock
 62
     0
100
AcDbPoint
 10
449.0251696584742
 20
144.5922679538193
 30
0.0
  0
POINT
  5
15B6
330
18
100
AcDbEntity
  8
DEFPOINTS
  6
ByBlock
 62
     0
100
AcDbPoint
 10
461.5251696584742
 20
178.4808403466595
 30
0.0
  0
POINT
  5
15B7
330
18
100
AcDbEntity
  8
DEFPOINTS
  6
ByBlock
 62
     0
100
AcDbPoint
 10
461.5251696584742
 20
193.5039359859278
 30
0.0
  0
LINE
  5
15B8
330
18
100
AcDbEntity
  8
0
  6
ByBlock
 62
     2
100
AcDbLine
 10
384.8573811744029
 20
175.0922679538193
 30
0.0
 11
352.9837849289065
 21
175.0922679538193
 31
0.0
  0
LINE
  5
15B9
330
18
100
AcDbEntity
  8
0
  6
ByBlock
 62
     2
100
AcDbLine
 10
362.0524018129657
 20
144.5922679538193
 30
0.0
 11
352.9837849289065
 21
144.5922679538193
 31
0.0
  0
LINE
  5
15BA
330
18
100
AcDbEntity
  8
0
  6
ByBlock
 62
     2
100
AcDbLine
 10
354.2337849289065
 20
172.5922679538193
 30
0.0
 11
354.2337849289065
 21
147.0922679538193
 31
0.0
  0
INSERT
  5
15BB
330
18
100
AcDbEntity
  8
0
  6
ByBlock
 62
     2
100
AcDbBlockReference
  2
_OPEN
 10
354.2337849289065
 20
175.0922679538193
 30
0.0
 41
2.5
 42
2.5
 43
2.5
 50
90.0
  0
INSERT
  5
15BC
330
18
100
AcDbEntity
  8
0
  6
ByBlock
 62
     2
100
AcDbBlockReference
  2
_OPEN
 10
354.2337849289065
 20
144.5922679538193
 30
0.0
 41
2.5
 42
2.5
 43
2.5
 50
270.0
  0
MTEXT
  5
15BD
330
18
100
AcDbEntity
  8
0
  6
ByBlock
 62
     6
100
AcDbMText
 10
352.3587849289065
 20
159.8422679538193
 30
0.0
 40
2.5
 41
0.0
 71
     5
 72
     1
  1
\A1;30.5
  7
STYLE3
 11
0.0000000000000001
 21
1.0
 31
0.0
 73
     1
 44
1.0
  0
POINT
  5
15BE
330
18
100
AcDbEntity
  8
DEFPOINTS
  6
ByBlock
 62
     0
100
AcDbPoint
 10
384.8573811744029
 20
175.0922679538193
 30
0.0
  0
POINT
  5
15BF
330
18
100
AcDbEntity
  8
DEFPOINTS
  6
ByBlock
 62
     0
100
AcDbPoint
 10
362.0524018129657
 20
144.5922679538193
 30
0.0
  0
POINT
  5
15C0
330
18
100
AcDbEntity
  8
DEFPOINTS
  6
ByBlock
 62
     0
100
AcDbPoint
 10
354.2337849289065
 20
144.5922679538193
 30
0.0
  0
LINE
  5
15C1
330
18
100
AcDbEntity
  8
0
  6
ByBlock
 62
     2
100
AcDbLine
 10
367.7073811744029
 20
144.5922679538193
 30
0.0
 11
367.7073811744029
 21
194.7539359859278
 31
0.0
  0
LINE
  5
15C2
330
18
100
AcDbEntity
  8
0
  6
ByBlock
 62
     2
100
AcDbLine
 10
402.0073811744029
 20
144.5922679538193
 30
0.0
 11
402.0073811744029
 21
194.7539359859278
 31
0.0
  0
LINE
  5
15C3
330
18
100
AcDbEntity
  8
0
  6
ByBlock
 62
     2
100
AcDbLine
 10
370.2073811744029
 20
193.5039359859278
 30
0.0
 11
399.5073811744029
 21
193.5039359859278
 31
0.0
  0
INSERT
  5
15C4
330
18
100
AcDbEntity
  8
0
  6
ByBlock
 62
     2
100
AcDbBlockReference
  2
_OPEN
 10
367.7073811744029
 20
193.5039359859278
 30
0.0
 41
2.5
 42
2.5
 43
2.5
 50
180.0
  0
INSERT
  5
15C5
330
18
100
AcDbEntity
  8
0
  6
ByBlock
 62
     2
100
AcDbBlockReference
  2
_OPEN
 10
402.0073811744029
 20
193.5039359859278
 30
0.0
 41
2.5
 42
2.5
 43
2.5
  0
MTEXT
  5
15C6
330
18
100
AcDbEntity
  8
0
  6
ByBlock
 62
     6
100
AcDbMText
 10
384.8573811744029
 20
195.3789359859278
 30
0.0
 40
2.5
 41
0.0
 71
     5
 72
     1
  1
\A1;φ34.3
  7
STYLE3
 73
     1
 44
1.0
  0
POINT
  5
15C7
330
18
100
AcDbEntity
  8
DEFPOINTS
  6
ByBlock
 62
     0
100
AcDbPoint
 10
367.7073811744029
 20
144.5922679538193
 30
0.0
  0
POINT
  5
15C8
330
18
100
AcDbEntity
  8
DEFPOINTS
  6
ByBlock
 62
     0
100
AcDbPoint
 10
402.0073811744029
 20
144.5922679538193
 30
0.0
  0
POINT
  5
15C9
330
18
100
AcDbEntity
  8
DEFPOINTS
  6
ByBlock
 62
     0
100
AcDbPoint
 10
402.0073811744029
 20
193.5039359859278
 30
0.0
  0
HATCH
  5
15CA
330
18
100
AcDbEntity
  8
針
100
AcDbHatch
 10
0.0
 20
0.0
 30
0.0
210
0.0
220
0.0
230
1.0
  2
SOLID
 70
     1
 71
     0
 91
        2
 92
        7
 72
     1
 73
     1
 93
        5
 10
386.9990590084367
 20
151.386191599144
 42
0.31735696877887
 10
387.4202705907592
 20
150.1895572400384
 42
0.0
 10
387.8447891768042
 20
150.3361076151039
 42
0.0
 10
387.8528877798632
 20
150.3646846588424
 42
-0.4142135623731173
 10
387.335797879426
 20
151.2907613483589
 42
0.0
 97
        0
 92
        7
 72
     1
 73
     1
 93
        4
 10
386.9990590084367
 20
151.386191599144
 42
0.0
 10
387.335797879426
 20
151.2907613483589
 42
-0.4142135623730728
 10
388.2618745689423
 20
151.8078512487961
 42
0.0
 10
388.3573048197275
 20
152.1445901197853
 42
0.4142135623730844
 97
        0
 75
     0
 76
     1
 47
0.0161501285364394
 98
        2
 10
387.1087540875712
 20
150.9358475672323
 10
387.3181951607396
 20
151.6156582279375
450
        0
451
        0
460
0.0
461
0.0
452
        0
462
0.0
453
        0
470

  0
HATCH
  5
15CB
330
18
100
AcDbEntity
  8
針
100
AcDbHatch
 10
0.0
 20
0.0
 30
0.0
210
0.0
220
0.0
230
1.0
  2
SOLID
 70
     1
 71
     0
 91
        4
 92
        7
 72
     1
 73
     1
 93
        4
 10
388.8078950435152
 20
151.8904625398928
 42
0.0
 10
388.5690951760704
 20
151.6345824443239
 42
-0.4142135623730951
 10
388.6056956649075
 20
150.5745539521518
 42
0.0
 10
388.8615757604764
 20
150.3357540847069
 42
0.4142135623730996
 97
        0
 92
        7
 72
     1
 73
     1
 93
        5
 10
388.5690951760704
 20
151.6345824443239
 42
0.0
 10
388.8078950435152
 20
151.8904625398928
 42
0.3173569687788799
 10
387.5510539105511
 20
152.0628091469497
 42
0.0
 10
387.4873516479672
 20
151.6182474931026
 42
0.0
 10
387.5090666838982
 20
151.5979819554869
 42
-0.4142135623730839
 97
        0
 92
        7
 72
     1
 73
     1
 93
        4
 10
388.8615757604764
 20
150.3357540847069
 42
0.0
 10
388.6056956649075
 20
150.5745539521518
 42
-0.4142135623730951
 10
387.5456671727352
 20
150.5379534633146
 42
0.0
 10
387.3068673052904
 20
150.2820733677457
 42
0.4142135623730996
 97
        0
 92
        7
 72
     1
 73
     1
 93
        4
 10
387.5456671727352
 20
150.5379534633146
 42
-0.1036385141593389
 10
387.368597203141
 20
150.7894908641833
 42
0.0
 10
387.2971971165733
 20
150.2912080829782
 42
0.003023315109616
 10
387.3068673052904
 20
150.2820733677457
 42
0.0
 97
        0
 75
     0
 76
     1
 47
0.0223982890607777
 98
        4
 10
389.0448087263662
 20
151.0188463095736
 10
388.2996164302014
 20
151.9287553457366
 10
388.5329603837527
 20
150.2404111300203
 10
387.4451275397484
 20
150.5203414329674
450
        0
451
        0
460
0.0
461
0.0
452
        0
462
0.0
453
        0
470

  0
CIRCLE
  5
15CC
330
18
100
AcDbEntity
  8
針
100
AcDbCircle
 10
388.0573811744028
 20
151.0862679538192
 30
0.0
 40
1.1
  0
CIRCLE
  5
15CD
330
18
100
AcDbEntity
  8
針
100
AcDbCircle
 10
388.0573811744028
 20
151.0862679538192
 30
0.0
 40
0.75
  0
HATCH
  5
15CE
330
18
100
AcDbEntity
  8
針
100
AcDbHatch
 10
0.0
 20
0.0
 30
0.0
210
0.0
220
0.0
230
1.0
  2
SOLID
 70
     1
 71
     0
 91
        1
 92
        7
 72
     1
 73
     1
 93
        7
 10
391.8730562246775
 20
148.3402483051801
 42
0.0
 10
391.9297291877706
 20
148.4226386884434
 42
0.0
 10
391.9864021508637
 20
148.5050290717066
 42
0.0
 10
389.3402372236226
 20
150.379724113849
 42
-0.2935495917910092
 10
389.1380613356412
 20
150.881011068173
 42
-0.2104432563350663
 10
388.6355523993132
 20
150.1504698801487
 42
-0.2935491884945053
 10
389.1759895035361
 20
150.1409430113718
 42
0.0
 97
        0
 75
     0
 76
     1
 47
0.0140573597042523
 98
        1
 10
390.4090089606851
 20
149.3975528293119
450
        0
451
        0
460
0.0
461
0.0
452
        0
462
0.0
453
        0
470

  0
LINE
  5
15CF
330
18
100
AcDbEntity
  8
針
100
AcDbLine
 10
389.1759895035362
 20
150.1409430113718
 30
0.0
 11
391.8730562246775
 21
148.3402483051803
 31
0.0
  0
LINE
  5
15D0
330
18
100
AcDbEntity
  8
針
100
AcDbLine
 10
389.3402372236226
 20
150.379724113849
 30
0.0
 11
391.9864021508637
 21
148.5050290717066
 31
0.0
  0
CIRCLE
  5
15D1
330
18
100
AcDbEntity
  8
針
 62
     4
100
AcDbCircle
 10
388.0573811744028
 20
151.0862679538192
 30
0.0
 40
0.4
  0
ARC
  5
15D2
330
18
100
AcDbEntity
  8
針
100
AcDbCircle
 10
388.8983565826345
 20
149.7251065516529
 30
0.0
 40
0.5
100
AcDbArc
 50
56.27097274463936
 51
121.709292326385
  0
ARC
  5
15D3
330
18
100
AcDbEntity
  8
針
100
AcDbCircle
 10
389.6292795907492
 20
150.7877124837883
 30
0.0
 40
0.5
100
AcDbArc
 50
169.2457349214242
 51
234.6840545031699
  0
LINE
  5
15D4
330
18
100
AcDbEntity
  8
文字
100
AcDbLine
 10
391.8730562246775
 20
148.3402483051803
 30
0.0
 11
391.9864021508637
 21
148.5050290717066
 31
0.0
  0
LINE
  5
15D5
330
18
100
AcDbEntity
  8
0
  6
ByBlock
 62
     2
100
AcDbLine
 10
470.5251696584743
 20
153.0922679538193
 30
0.0
 11
470.5251696584743
 21
175.2704711840948
 31
0.0
  0
LINE
  5
15D6
330
18
100
AcDbEntity
  8
0
  6
ByBlock
 62
     2
100
AcDbLine
 10
480.5251696584743
 20
144.5922679538193
 30
0.0
 11
480.5251696584743
 21
175.2704711840948
 31
0.0
  0
LINE
  5
15D7
330
18
100
AcDbEntity
  8
0
  6
ByBlock
 62
     2
100
AcDbLine
 10
473.0251696584743
 20
174.0204711840948
 30
0.0
 11
478.0251696584743
 21
174.0204711840948
 31
0.0
  0
INSERT
  5
15D8
330
18
100
AcDbEntity
  8
0
  6
ByBlock
 62
     2
100
AcDbBlockReference
  2
_OPEN
 10
470.5251696584743
 20
174.0204711840948
 30
0.0
 41
2.5
 42
2.5
 43
2.5
 50
180.0
  0
INSERT
  5
15D9
330
18
100
AcDbEntity
  8
0
  6
ByBlock
 62
     2
100
AcDbBlockReference
  2
_OPEN
 10
480.5251696584743
 20
174.0204711840948
 30
0.0
 41
2.5
 42
2.5
 43
2.5
  0
MTEXT
  5
15DA
330
18
100
AcDbEntity
  8
0
  6
ByBlock
 62
     6
100
AcDbMText
 10
475.5251696584743
 20
175.8954711840948
 30
0.0
 40
2.5
 41
0.0
 71
     5
 72
     1
  1
\A1;10
  7
STYLE3
 73
     1
 44
1.0
  0
POINT
  5
15DB
330
18
100
AcDbEntity
  8
DEFPOINTS
  6
ByBlock
 62
     0
100
AcDbPoint
 10
470.5251696584743
 20
153.0922679538193
 30
0.0
  0
POINT
  5
15DC
330
18
100
AcDbEntity
  8
DEFPOINTS
  6
ByBlock
 62
     0
100
AcDbPoint
 10
480.5251696584743
 20
144.5922679538193
 30
0.0
  0
POINT
  5
15DD
330
18
100
AcDbEntity
  8
DEFPOINTS
  6
ByBlock
 62
     0
100
AcDbPoint
 10
480.5251696584743
 20
174.0204711840948
 30
0.0
  0
LINE
  5
15DE
330
18
100
AcDbEntity
  8
0
  6
ByBlock
 62
     2
100
AcDbLine
 10
471.4465257795684
 20
152.5922679538193
 30
0.0
 11
471.4465257795684
 21
160.2664162714808
 31
0.0
  0
LINE
  5
15DF
330
18
100
AcDbEntity
  8
0
  6
ByBlock
 62
     2
100
AcDbLine
 10
476.4465257795683
 20
152.5922679538193
 30
0.0
 11
476.4465257795683
 21
160.2664162714808
 31
0.0
  0
LINE
  5
15E0
330
18
100
AcDbEntity
  8
0
  6
ByBlock
 62
     2
100
AcDbLine
 10
468.9465257795683
 20
159.0164162714808
 30
0.0
 11
466.4465257795684
 21
159.0164162714808
 31
0.0
  0
LINE
  5
15E1
330
18
100
AcDbEntity
  8
0
  6
ByBlock
 62
     2
100
AcDbLine
 10
478.9465257795684
 20
159.0164162714808
 30
0.0
 11
481.4465257795683
 21
159.0164162714808
 31
0.0
  0
LINE
  5
15E2
330
18
100
AcDbEntity
  8
0
  6
ByBlock
 62
     2
100
AcDbLine
 10
471.4465257795684
 20
159.0164162714808
 30
0.0
 11
476.4465257795683
 21
159.0164162714808
 31
0.0
  0
INSERT
  5
15E3
330
18
100
AcDbEntity
  8
0
  6
ByBlock
 62
     2
100
AcDbBlockReference
  2
_OPEN
 10
471.4465257795684
 20
159.0164162714808
 30
0.0
 41
2.5
 42
2.5
 43
2.5
  0
INSERT
  5
15E4
330
18
100
AcDbEntity
  8
0
  6
ByBlock
 62
     2
100
AcDbBlockReference
  2
_OPEN
 10
476.4465257795683
 20
159.0164162714808
 30
0.0
 41
2.5
 42
2.5
 43
2.5
 50
180.0
  0
MTEXT
  5
15E5
330
18
100
AcDbEntity
  8
0
  6
ByBlock
 62
     6
100
AcDbMText
 10
473.9465257795684
 20
160.8914162714808
 30
0.0
 40
2.5
 41
0.0
 71
     5
 72
     1
  1
\A1;5
  7
STYLE3
 73
     1
 44
1.0
  0
POINT
  5
15E6
330
18
100
AcDbEntity
  8
DEFPOINTS
  6
ByBlock
 62
     0
100
AcDbPoint
 10
471.4465257795684
 20
152.5922679538193
 30
0.0
  0
POINT
  5
15E7
330
18
100
AcDbEntity
  8
DEFPOINTS
  6
ByBlock
 62
     0
100
AcDbPoint
 10
476.4465257795683
 20
152.5922679538193
 30
0.0
  0
POINT
  5
15E8
330
18
100
AcDbEntity
  8
DEFPOINTS
  6
ByBlock
 62
     0
100
AcDbPoint
 10
476.4465257795683
 20
159.0164162714808
 30
0.0
  0
ARC
  5
1636
330
18
100
AcDbEntity
  8
外形線
100
AcDbCircle
 10
384.8573811744029
 20
99.59226795381932
 30
0.0
 40
1.199999999999999
100
AcDbArc
 50
189.59406822686
 51
350.40593177314
  0
ARC
  5
1637
330
18
100
AcDbEntity
  8
外形線
100
AcDbCircle
 10
461.4751696584743
 20
99.59226795381932
 30
0.0
 40
1.199999999999999
100
AcDbArc
 50
189.59406822686
 51
350.40593177314
  0
TEXT
  5
16A5
330
18
100
AcDbEntity
  8
文字
100
AcDbText
 10
372.9249850450761
 20
221.1804283648845
 30
0.0
 40
4.0
  1
Model No.36A Miniature Dial Gauge
  7
STYLE3
100
AcDbText
  0
LINE
  5
16A6
330
18
100
AcDbEntity
  8
外形線
100
AcDbLine
 10
371.2688340450761
 20
217.7696873648845
 30
0.0
 11
477.2688340450761
 21
217.7696873648845
 31
0.0
  0
LINE
  5
16A7
330
18
100
AcDbEntity
  8
外形線
100
AcDbLine
 10
371.2688340450761
 20
218.7696873648845
 30
0.0
 11
477.2688340450761
 21
218.7696873648845
 31
0.0
  0
LINE
  5
16A9
330
18
100
AcDbEntity
  8
外形線
100
AcDbLine
 10
410.5569760450761
 20
58.3123683648845
 30
0.0
 11
551.3483940450761
 21
58.3123683648845
 31
0.0
  0
LINE
  5
16AA
330
18
100
AcDbEntity
  8
外形線
100
AcDbLine
 10
410.5569760450761
 20
47.5321623648845
 30
0.0
 11
551.3483940450761
 21
47.5321623648845
 31
0.0
  0
TEXT
  5
16AB
330
18
100
AcDbEntity
  8
0
  6
Continuous
100
AcDbText
 10
412.0144430450761
 20
49.4301523648845
 30
0.0
 40
2.1
  1
Design and specifications are subject to change without notice for future improvement.
  7
STYLE3
100
AcDbText
  0
TEXT
  5
16AC
330
18
100
AcDbEntity
  8
0
  6
Continuous
100
AcDbText
 10
412.3059370450761
 20
53.35930036488449
 30
0.0
 40
3.5
  1
仕様及び外観は予告なく変更される場合がございますのでご了承下さい。
  7
STYLE3
100
AcDbText
  0
TEXT
  5
16AD
330
18
100
AcDbEntity
  8
0
  6
Continuous
100
AcDbText
 10
411.7229520450761
 20
39.6655243648845
 30
0.0
 40
2.1
  1
3RD Angle Projection
  7
STYLE3
100
AcDbText
  0
TEXT
  5
16AE
330
18
100
AcDbEntity
  8
0
  6
Continuous
100
AcDbText
 10
414.3463950450761
 20
43.16180736488449
 30
0.0
 40
3.0
  1
三　　角　　法
  7
STYLE3
100
AcDbText
  0
LINE
  5
16AF
330
18
100
AcDbEntity
  8
外形線
100
AcDbLine
 10
410.5569760450761
 20
37.9173843648845
 30
0.0
 11
410.5569760450761
 21
58.3123683648845
 31
0.0
  0
LINE
  5
16B0
330
18
100
AcDbEntity
  8
外形線
100
AcDbLine
 10
512.5797430450761
 20
47.5321623648845
 30
0.0
 11
512.5797430450761
 21
37.9173843648845
 31
0.0
  0
LINE
  5
16B1
330
18
100
AcDbEntity
  8
外形線
100
AcDbLine
 10
482.8473930450761
 20
47.5321623648845
 30
0.0
 11
482.8473930450761
 21
37.9173843648845
 31
0.0
  0
LINE
  5
16B2
330
18
100
AcDbEntity
  8
外形線
100
AcDbLine
 10
463.3173210450761
 20
47.5321623648845
 30
0.0
 11
463.3173210450761
 21
37.9173843648845
 31
0.0
  0
LINE
  5
16B3
330
18
100
AcDbEntity
  8
外形線
100
AcDbLine
 10
445.8277040450761
 20
47.5321623648845
 30
0.0
 11
445.8277040450761
 21
37.9173843648845
 31
0.0
  0
TEXT
  5
16B4
330
18
100
AcDbEntity
  8
0
  6
Continuous
100
AcDbText
 10
447.2851730450761
 20
43.1677623648845
 30
0.0
 40
3.0
  1
単位
  7
STYLE3
100
AcDbText
  0
TEXT
  5
16B5
330
18
100
AcDbEntity
  8
0
  6
Continuous
100
AcDbText
 10
447.4568940450761
 20
39.6655253648845
 30
0.0
 40
2.1
  1
Unit
  7
STYLE3
100
AcDbText
  0
TEXT
  5
16B6
330
18
100
AcDbEntity
  8
0
  6
Continuous
100
AcDbText
 10
464.6030690450761
 20
42.8764043648845
 30
0.0
 40
3.0
  1
尺 度
  7
STYLE3
100
AcDbText
  0
TEXT
  5
16B7
330
18
100
AcDbEntity
  8
0
  6
Continuous
100
AcDbText
 10
455.3272210450761
 20
41.4136683648845
 30
0.0
 40
2.399999999999999
  1
mm
  7
STYLE3
100
AcDbText
  0
TEXT
  5
16B8
330
18
100
AcDbEntity
  8
0
  6
Continuous
100
AcDbText
 10
465.0662840450761
 20
39.9568823648845
 30
0.0
 40
2.1
  1
Scale
  7
STYLE3
100
AcDbText
  0
TEXT
  5
16B9
330
18
100
AcDbEntity
  8
0
  6
Continuous
100
AcDbText
 10
474.6855730450761
 20
41.7050253648845
 30
0.0
 40
2.399999999999999
  1
1/1
  7
STYLE3
100
AcDbText
  0
TEXT
  5
16BA
330
18
100
AcDbEntity
  8
0
  6
Continuous
100
AcDbText
 10
484.7793440450761
 20
39.6655263648845
 30
0.0
 40
2.1
  1
Date
  7
STYLE3
100
AcDbText
  0
TEXT
  5
16BB
330
18
100
AcDbEntity
  8
0
  6
Continuous
100
AcDbText
 10
484.3959830450761
 20
42.9986093648845
 30
0.0
 40
3.0
  1
日 付
  7
STYLE3
100
AcDbText
  0
TEXT
  5
16BC
330
18
100
AcDbEntity
  8
0
  6
Continuous
100
AcDbText
 10
493.5241520450761
 20
41.41366736488449
 30
0.0
 40
2.1
  1
2010.06.08
  7
STYLE3
100
AcDbText
  0
TEXT
  5
16BD
330
18
100
AcDbEntity
  8
0
  6
Continuous
100
AcDbText
 10
513.9287060450761
 20
43.4531643648845
 30
0.0
 40
3.0
  1
株式会社　尾崎製作所
  7
STYLE3
100
AcDbText
  0
TEXT
  5
16BE
330
18
100
AcDbEntity
  8
0
  6
Continuous
100
AcDbText
 10
514.8031850450761
 20
39.6655253648845
 30
0.0
 40
2.1
  1
OZAKI MFG. CO., LTD.
  7
STYLE3
100
AcDbText
  0
VIEWPORT
  5
177
330
15
100
AcDbEntity
 67
     1
  8
0
100
AcDbViewport
 10
127.5041203589828
 20
97.49391214526822
 30
0.0
 40
418.3086347473814
 41
243.0346063651093
 68
     1
 69
     1
 12
127.5041203589828
 22
97.49391214526822
 13
0.0
 23
0.0
 14
10.0
 24
10.0
 15
10.0
 25
10.0
 16
0.0
 26
0.0
 36
1.0
 17
0.0
 27
0.0
 37
0.0
 42
50.0
 43
0.0
 44
0.0
 45
243.0346063651093
 50
0.0
 51
0.0
 72
   100
 90
    32800
  1

281
     0
 71
     1
 74
     0
110
0.0
120
0.0
130
0.0
111
1.0
121
0.0
131
0.0
112
0.0
122
1.0
132
0.0
 79
     0
146
0.0
170
     0
  0
ENDSEC
  0
SECTION
  2
OBJECTS
  0
DICTIONARY
  5
C
330
0
100
AcDbDictionary
281
     1
  3
ACAD_COLOR
350
1610
  3
ACAD_GROUP
350
D
  3
ACAD_LAYOUT
350
1613
  3
ACAD_MATERIAL
350
160F
  3
ACAD_MLINESTYLE
350
1B
  3
ACAD_PLOTSETTINGS
350
1614
  3
ACAD_PLOTSTYLENAME
350
160D
  3
ACAD_TABLESTYLE
350
1611
  3
AcDbVariableDictionary
350
161C
  0
DICTIONARY
  5
1610
102
{ACAD_REACTORS
330
C
102
}
330
C
100
AcDbDictionary
281
     1
  0
DICTIONARY
  5
D
102
{ACAD_REACTORS
330
C
102
}
330
C
100
AcDbDictionary
281
     1
  0
DICTIONARY
  5
1613
102
{ACAD_REACTORS
330
C
102
}
330
C
100
AcDbDictionary
281
     1
  3
Model
350
1615
  3
レイアウト1
350
1616
  0
DICTIONARY
  5
160F
102
{ACAD_REACTORS
330
C
102
}
330
C
100
AcDbDictionary
281
     1
  0
DICTIONARY
  5
1B
102
{ACAD_REACTORS
330
C
102
}
330
C
100
AcDbDictionary
281
     1
  3
STANDARD
350
1C
  0
DICTIONARY
  5
1614
102
{ACAD_REACTORS
330
C
102
}
330
C
100
AcDbDictionary
281
     1
  0
ACDBDICTIONARYWDFLT
  5
160D
102
{ACAD_REACTORS
330
C
102
}
330
C
100
AcDbDictionary
281
     1
  3
Normal
350
160E
100
AcDbDictionaryWithDefault
340
160E
  0
DICTIONARY
  5
1611
102
{ACAD_REACTORS
330
C
102
}
330
C
100
AcDbDictionary
281
     1
  3
Standard
350
1612
  0
DICTIONARY
  5
161C
102
{ACAD_REACTORS
330
C
102
}
330
C
100
AcDbDictionary
281
     1
  3
CTABLESTYLE
350
161D
  0
LAYOUT
  5
1615
102
{ACAD_REACTORS
330
1613
102
}
330
1613
100
AcDbPlotSettings
  1

  2
Mytalk FAX
  4

  6

 40
0.0
 41
0.0
 42
0.0
 43
0.0
 44
0.0
 45
0.0
 46
0.0
 47
0.0
 48
0.0
 49
0.0
140
0.0
141
0.0
142
1.0
143
1.0
 70
  1712
 72
     0
 73
     0
 74
     0
  7
AutoCAD LT 98.ctb
 75
     0
147
1.0
 76
     0
 77
     2
 78
   300
148
0.0
149
0.0
100
AcDbLayout
  1
Model
 70
     1
 71
     0
 10
0.0
 20
0.0
 11
12.0
 21
9.0
 12
0.0
 22
0.0
 32
0.0
 14
0.0
 24
0.0
 34
0.0
 15
0.0
 25
0.0
 35
0.0
146
0.0
 13
0.0
 23
0.0
 33
0.0
 16
1.0
 26
0.0
 36
0.0
 17
0.0
 27
1.0
 37
0.0
 76
     0
330
18
  0
LAYOUT
  5
1616
102
{ACAD_REACTORS
330
1613
102
}
330
1613
100
AcDbPlotSettings
  1

  2
Mytalk FAX
  4

  6

 40
0.0
 41
0.0
 42
0.0
 43
0.0
 44
0.0
 45
0.0
 46
0.0
 47
0.0
 48
0.0
 49
0.0
140
0.0
141
0.0
142
1.0
143
1.0
 70
   688
 72
     0
 73
     0
 74
     5
  7
AutoCAD LT 98.ctb
 75
    16
147
1.0
 76
     0
 77
     2
 78
   300
148
0.0
149
0.0
100
AcDbLayout
  1
レイアウト1
 70
     1
 71
     1
 10
0.0
 20
0.0
 11
420.0
 21
297.0
 12
0.0
 22
0.0
 32
0.0
 14
-0.2
 24
-0.2
 34
0.0
 15
255.2
 25
195.2
 35
0.0
146
0.0
 13
0.0
 23
0.0
 33
0.0
 16
1.0
 26
0.0
 36
0.0
 17
0.0
 27
1.0
 37
0.0
 76
     0
330
15
331
177
  0
MLINESTYLE
  5
1C
102
{ACAD_REACTORS
330
1B
102
}
330
1B
100
AcDbMlineStyle
  2
STANDARD
 70
     0
  3

 62
   256
 51
90.0
 52
90.0
 71
     2
 49
0.5
 62
   256
  6
BYLAYER
 49
-0.5
 62
   256
  6
BYLAYER
  0
ACDBPLACEHOLDER
  5
160E
102
{ACAD_REACTORS
330
160D
102
}
330
160D
  0
ACAD_PROXY_OBJECT
  5
1612
102
{ACAD_REACTORS
330
1611
102
}
330
1611
100
AcDbProxyObject
 90
      499
 91
      503
 95
  2555929
 70
     0
 93
     1849
310
4214DD185B99185C992420000000000000F83F0000000000003E0FC00000000000004901028000000C1008070000C3001FDFF8000000C1003FBFF000000182007F7FE00000030400FEFFC00000060801FDFF8000000C1003FBFF000000182000000000000000C2020B0000001820100E000186003FBFF000000182007F7FE0
310
0000030400FEFFC00000060801FDFF8000000C1003FBFF000000182007F7FE0000003040000000000000012404160000003040201C00030C007F7FE00000030400FEFFC00000060801FDFF8000000C1003FBFF000000182007F7FE00000030400FEFFC000000608000
340
F
340
F
340
F
 94
        0
  0
DICTIONARYVAR
  5
161D
102
{ACAD_REACTORS
330
161C
102
}
330
161C
100
DictionaryVariables
280
     0
  1
STANDARD
  0
ENDSEC
  0
EOF
