  0
SECTION
  2
HEADER
  9
$ACADVER
  1
AC1018
  9
$ACADMAINTVER
 70
     0
  9
$DWGCODEPAGE
  3
ANSI_932
  9
$INSBASE
 10
0.0
 20
0.0
 30
0.0
  9
$EXTMIN
 10
236.4633882929238
 20
171.6287515666504
 30
-0.0000000349181948
  9
$EXTMAX
 10
491.8945868007408
 20
367.0725802714662
 30
0.0000000814935746
  9
$LIMMIN
 10
0.0
 20
0.0
  9
$LIMMAX
 10
420.0
 20
297.0
  9
$ORTHOMODE
 70
     0
  9
$REGENMODE
 70
     1
  9
$FILLMODE
 70
     1
  9
$QTEXTMODE
 70
     0
  9
$MIRRTEXT
 70
     1
  9
$LTSCALE
 40
1.0
  9
$ATTMODE
 70
     1
  9
$TEXTSIZE
 40
2.5
  9
$TRACEWID
 40
1.0
  9
$TEXTSTYLE
  7
STYLE3
  9
$CLAYER
  8
針
  9
$CELTYPE
  6
BYLAYER
  9
$CECOLOR
 62
   256
  9
$CELTSCALE
 40
1.0
  9
$DISPSILH
 70
     0
  9
$DIMSCALE
 40
1.0
  9
$DIMASZ
 40
2.5
  9
$DIMEXO
 40
0.0
  9
$DIMDLI
 40
3.75
  9
$DIMRND
 40
0.0
  9
$DIMDLE
 40
0.0
  9
$DIMEXE
 40
1.25
  9
$DIMTP
 40
0.0
  9
$DIMTM
 40
0.0
  9
$DIMTXT
 40
2.5
  9
$DIMCEN
 40
2.5
  9
$DIMTSZ
 40
0.0
  9
$DIMTOL
 70
     0
  9
$DIMLIM
 70
     0
  9
$DIMTIH
 70
     0
  9
$DIMTOH
 70
     0
  9
$DIMSE1
 70
     0
  9
$DIMSE2
 70
     0
  9
$DIMTAD
 70
     1
  9
$DIMZIN
 70
     8
  9
$DIMBLK
  1

  9
$DIMASO
 70
     1
  9
$DIMSHO
 70
     1
  9
$DIMPOST
  1

  9
$DIMAPOST
  1

  9
$DIMALT
 70
     0
  9
$DIMALTD
 70
     4
  9
$DIMALTF
 40
0.0394
  9
$DIMLFAC
 40
1.0
  9
$DIMTOFL
 70
     1
  9
$DIMTVP
 40
0.0
  9
$DIMTIX
 70
     0
  9
$DIMSOXD
 70
     0
  9
$DIMSAH
 70
     1
  9
$DIMBLK1
  1
OPEN
  9
$DIMBLK2
  1
OPEN
  9
$DIMSTYLE
  2
STYLE2
  9
$DIMCLRD
 70
     2
  9
$DIMCLRE
 70
     2
  9
$DIMCLRT
 70
     6
  9
$DIMTFAC
 40
1.0
  9
$DIMGAP
 40
0.625
  9
$DIMJUST
 70
     0
  9
$DIMSD1
 70
     0
  9
$DIMSD2
 70
     0
  9
$DIMTOLJ
 70
     1
  9
$DIMTZIN
 70
     0
  9
$DIMALTZ
 70
     0
  9
$DIMALTTZ
 70
     0
  9
$DIMUPT
 70
     0
  9
$DIMDEC
 70
     1
  9
$DIMTDEC
 70
     4
  9
$DIMALTU
 70
     8
  9
$DIMALTTD
 70
     4
  9
$DIMTXSTY
  7
STYLE3
  9
$DIMAUNIT
 70
     0
  9
$DIMADEC
 70
     0
  9
$DIMALTRND
 40
0.0
  9
$DIMAZIN
 70
     0
  9
$DIMDSEP
 70
    46
  9
$DIMATFIT
 70
     3
  9
$DIMFRAC
 70
     0
  9
$DIMLDRBLK
  1

  9
$DIMLUNIT
 70
     2
  9
$DIMLWD
 70
    -2
  9
$DIMLWE
 70
    -2
  9
$DIMTMOVE
 70
     0
  9
$LUNITS
 70
     2
  9
$LUPREC
 70
     4
  9
$SKETCHINC
 40
1.0
  9
$FILLETRAD
 40
0.0
  9
$AUNITS
 70
     0
  9
$AUPREC
 70
     0
  9
$MENU
  1
.
  9
$ELEVATION
 40
0.0
  9
$PELEVATION
 40
0.0
  9
$THICKNESS
 40
0.0
  9
$LIMCHECK
 70
     0
  9
$CHAMFERA
 40
0.2
  9
$CHAMFERB
 40
0.2
  9
$CHAMFERC
 40
20.0
  9
$CHAMFERD
 40
0.0
  9
$SKPOLY
 70
     0
  9
$TDCREATE
 40
2450717.578556713
  9
$TDUCREATE
 40
2450717.203556713
  9
$TDUPDATE
 40
2455355.703082130
  9
$TDUUPDATE
 40
2455355.328082130
  9
$TDINDWG
 40
0.3526445833
  9
$TDUSRTIMER
 40
0.3526445833
  9
$USRTIMER
 70
     1
  9
$ANGBASE
 50
0.0
  9
$ANGDIR
 70
     0
  9
$PDMODE
 70
     0
  9
$PDSIZE
 40
0.0
  9
$PLINEWID
 40
0.0
  9
$SPLFRAME
 70
     0
  9
$SPLINETYPE
 70
     6
  9
$SPLINESEGS
 70
     8
  9
$HANDSEED
  5
132B
  9
$SURFTAB1
 70
     6
  9
$SURFTAB2
 70
     6
  9
$SURFTYPE
 70
     6
  9
$SURFU
 70
     6
  9
$SURFV
 70
     6
  9
$UCSBASE
  2

  9
$UCSNAME
  2

  9
$UCSORG
 10
0.0
 20
0.0
 30
0.0
  9
$UCSXDIR
 10
1.0
 20
0.0
 30
0.0
  9
$UCSYDIR
 10
0.0
 20
1.0
 30
0.0
  9
$UCSORTHOREF
  2

  9
$UCSORTHOVIEW
 70
     0
  9
$UCSORGTOP
 10
0.0
 20
0.0
 30
0.0
  9
$UCSORGBOTTOM
 10
0.0
 20
0.0
 30
0.0
  9
$UCSORGLEFT
 10
0.0
 20
0.0
 30
0.0
  9
$UCSORGRIGHT
 10
0.0
 20
0.0
 30
0.0
  9
$UCSORGFRONT
 10
0.0
 20
0.0
 30
0.0
  9
$UCSORGBACK
 10
0.0
 20
0.0
 30
0.0
  9
$PUCSBASE
  2

  9
$PUCSNAME
  2

  9
$PUCSORG
 10
0.0
 20
0.0
 30
0.0
  9
$PUCSXDIR
 10
1.0
 20
0.0
 30
0.0
  9
$PUCSYDIR
 10
0.0
 20
1.0
 30
0.0
  9
$PUCSORTHOREF
  2

  9
$PUCSORTHOVIEW
 70
     0
  9
$PUCSORGTOP
 10
0.0
 20
0.0
 30
0.0
  9
$PUCSORGBOTTOM
 10
0.0
 20
0.0
 30
0.0
  9
$PUCSORGLEFT
 10
0.0
 20
0.0
 30
0.0
  9
$PUCSORGRIGHT
 10
0.0
 20
0.0
 30
0.0
  9
$PUCSORGFRONT
 10
0.0
 20
0.0
 30
0.0
  9
$PUCSORGBACK
 10
0.0
 20
0.0
 30
0.0
  9
$USERI1
 70
     0
  9
$USERI2
 70
     0
  9
$USERI3
 70
     0
  9
$USERI4
 70
     0
  9
$USERI5
 70
     0
  9
$USERR1
 40
0.0
  9
$USERR2
 40
0.0
  9
$USERR3
 40
0.0
  9
$USERR4
 40
0.0
  9
$USERR5
 40
0.0
  9
$WORLDVIEW
 70
     1
  9
$SHADEDGE
 70
     3
  9
$SHADEDIF
 70
    70
  9
$TILEMODE
 70
     1
  9
$MAXACTVP
 70
    48
  9
$PINSBASE
 10
0.0
 20
0.0
 30
0.0
  9
$PLIMCHECK
 70
     0
  9
$PEXTMIN
 10
1.000000000000000E+20
 20
1.000000000000000E+20
 30
1.000000000000000E+20
  9
$PEXTMAX
 10
-1.000000000000000E+20
 20
-1.000000000000000E+20
 30
-1.000000000000000E+20
  9
$PLIMMIN
 10
0.0
 20
0.0
  9
$PLIMMAX
 10
420.0
 20
297.0
  9
$UNITMODE
 70
     0
  9
$VISRETAIN
 70
     1
  9
$PLINEGEN
 70
     0
  9
$PSLTSCALE
 70
     1
  9
$TREEDEPTH
 70
  3020
  9
$CMLSTYLE
  2
STANDARD
  9
$CMLJUST
 70
     0
  9
$CMLSCALE
 40
20.0
  9
$PROXYGRAPHICS
 70
     1
  9
$MEASUREMENT
 70
     1
  9
$CELWEIGHT
370
    -1
  9
$ENDCAPS
280
     0
  9
$JOINSTYLE
280
     0
  9
$LWDISPLAY
290
     0
  9
$INSUNITS
 70
     0
  9
$HYPERLINKBASE
  1

  9
$STYLESHEET
  1

  9
$XEDIT
290
     1
  9
$CEPSNTYPE
380
     0
  9
$PSTYLEMODE
290
     1
  9
$FINGERPRINTGUID
  2
{F1C33AE1-5B2E-4BB1-8AD6-40ACACB34D93}
  9
$VERSIONGUID
  2
{D13F1549-F3CD-4B9B-844E-511854150464}
  9
$EXTNAMES
290
     1
  9
$PSVPSCALE
 40
0.0
  9
$OLESTARTUP
290
     0
  9
$SORTENTS
280
    96
  9
$INDEXCTL
280
     0
  9
$HIDETEXT
280
     0
  9
$XCLIPFRAME
290
     0
  9
$HALOGAP
280
     0
  9
$OBSCOLOR
 70
   257
  9
$OBSLTYPE
280
     0
  9
$INTERSECTIONDISPLAY
280
     0
  9
$INTERSECTIONCOLOR
 70
   257
  9
$DIMASSOC
280
     1
  9
$PROJECTNAME
  1

  0
ENDSEC
  0
SECTION
  2
CLASSES
  0
CLASS
  1
HATCH
  2
AcDbHatch
  3
ObjectDBX Classes
 90
        0
 91
       14
280
     0
281
     1
  0
CLASS
  1
LWPOLYLINE
  2
AcDbPolyline
  3
ObjectDBX Classes
 90
        0
 91
        1
280
     0
281
     1
  0
CLASS
  1
IMAGEDEF
  2
AcDbRasterImageDef
  3
ISM
 90
        0
 91
        1
280
     0
281
     0
  0
CLASS
  1
DICTIONARYVAR
  2
AcDbDictionaryVar
  3
ObjectDBX Classes
 90
        0
 91
        2
280
     0
281
     0
  0
CLASS
  1
ACDBDICTIONARYWDFLT
  2
AcDbDictionaryWithDefault
  3
ObjectDBX Classes
 90
        0
 91
        1
280
     0
281
     0
  0
CLASS
  1
TABLESTYLE
  2
AcDbTableStyle
  3
ObjectDBX Classes
 90
     2047
 91
        1
280
     0
281
     0
  0
ENDSEC
  0
SECTION
  2
TABLES
  0
TABLE
  2
VPORT
  5
8
330
0
100
AcDbSymbolTable
 70
     2
  0
VPORT
  5
132A
330
8
100
AcDbSymbolTableRecord
100
AcDbViewportTableRecord
  2
*Active
 70
     0
 10
0.0
 20
0.0
 11
1.0
 21
1.0
 12
364.1789875468323
 22
269.3506659190583
 13
0.0
 23
0.0
 14
10.0
 24
10.0
 15
10.0
 25
10.0
 16
0.0
 26
0.0
 36
1.0
 17
0.0
 27
0.0
 37
0.0
 40
196.9300935618867
 41
1.530456852791878
 42
50.0
 43
0.0
 44
0.0
 50
0.0
 51
0.0
 71
     0
 72
   100
 73
     1
 74
     1
 75
     0
 76
     0
 77
     0
 78
     0
281
     0
 65
     1
110
0.0
120
0.0
130
0.0
111
1.0
121
0.0
131
0.0
112
0.0
122
1.0
132
0.0
 79
     0
146
0.0
  0
ENDTAB
  0
TABLE
  2
LTYPE
  5
5
330
0
100
AcDbSymbolTable
 70
     5
  0
LTYPE
  5
12
330
5
100
AcDbSymbolTableRecord
100
AcDbLinetypeTableRecord
  2
BYBLOCK
 70
     0
  3

 72
    65
 73
     0
 40
0.0
  0
LTYPE
  5
13
330
5
100
AcDbSymbolTableRecord
100
AcDbLinetypeTableRecord
  2
BYLAYER
 70
     0
  3

 72
    65
 73
     0
 40
0.0
  0
LTYPE
  5
14
330
5
100
AcDbSymbolTableRecord
100
AcDbLinetypeTableRecord
  2
CONTINUOUS
 70
     0
  3
Solid line
 72
    65
 73
     0
 40
0.0
  0
LTYPE
  5
22
330
5
100
AcDbSymbolTableRecord
100
AcDbLinetypeTableRecord
  2
CENTER2
 70
     0
  3
Center (.5x) ___ _ ___ _ ___ _ ___ _ ___ _ ___
 72
    65
 73
     4
 40
28.575
 49
19.05
 74
     0
 49
-3.174999999999999
 74
     0
 49
3.174999999999999
 74
     0
 49
-3.174999999999999
 74
     0
  0
ENDTAB
  0
TABLE
  2
LAYER
  5
2
330
0
100
AcDbSymbolTable
 70
    16
  0
LAYER
  5
E
330
2
100
AcDbSymbolTableRecord
100
AcDbLayerTableRecord
  2
0
 70
     0
 62
     7
  6
CONTINUOUS
370
    -3
390
12A1
  0
LAYER
  5
25
330
2
100
AcDbSymbolTableRecord
100
AcDbLayerTableRecord
  2
外形線
 70
     0
 62
     7
  6
CONTINUOUS
370
    -3
390
12A1
  0
LAYER
  5
27
330
2
100
AcDbSymbolTableRecord
100
AcDbLayerTableRecord
  2
中心線
 70
     0
 62
     4
  6
CENTER2
370
    -3
390
12A1
  0
LAYER
  5
2A
330
2
100
AcDbSymbolTableRecord
100
AcDbLayerTableRecord
  2
ﾊｯﾁﾝｸ
 70
     0
 62
     6
  6
CONTINUOUS
370
    -3
390
12A1
  0
LAYER
  5
2B
330
2
100
AcDbSymbolTableRecord
100
AcDbLayerTableRecord
  2
文字
 70
     0
 62
     6
  6
CONTINUOUS
370
    -3
390
12A1
  0
LAYER
  5
2C
330
2
100
AcDbSymbolTableRecord
100
AcDbLayerTableRecord
  2
目盛
 70
     0
 62
    70
  6
CONTINUOUS
370
    -3
390
12A1
  0
LAYER
  5
2D
330
2
100
AcDbSymbolTableRecord
100
AcDbLayerTableRecord
  2
針
 70
     0
 62
     5
  6
CONTINUOUS
370
    -3
390
12A1
  0
LAYER
  5
53
330
2
100
AcDbSymbolTableRecord
100
AcDbLayerTableRecord
  2
DEFPOINTS
 70
     0
 62
     7
  6
CONTINUOUS
290
     0
370
    -3
390
12A1
  0
LAYER
  5
A5
330
2
100
AcDbSymbolTableRecord
100
AcDbLayerTableRecord
  2
C
 70
     0
 62
     7
  6
CONTINUOUS
370
    -3
390
12A1
  0
LAYER
  5
E00
330
2
100
AcDbSymbolTableRecord
100
AcDbLayerTableRecord
  2
ROGO
 70
     0
 62
     6
  6
CONTINUOUS
370
    -3
390
12A1
  0
ENDTAB
  0
TABLE
  2
STYLE
  5
3
330
0
100
AcDbSymbolTable
 70
     3
  0
STYLE
  5
F
330
3
100
AcDbSymbolTableRecord
100
AcDbTextStyleTableRecord
  2
STANDARD
 70
     0
 40
0.0
 41
1.0
 50
0.0
 71
     0
 42
2.5
  3
txt
  4

  0
STYLE
  5
3F
330
3
100
AcDbSymbolTableRecord
100
AcDbTextStyleTableRecord
  2
STYLE3
 70
     0
 40
0.0
 41
1.0
 50
0.0
 71
     0
 42
2.5
  3
romans.shx
  4
bigfont.shx
  0
ENDTAB
  0
TABLE
  2
VIEW
  5
6
330
0
100
AcDbSymbolTable
 70
     0
  0
ENDTAB
  0
TABLE
  2
UCS
  5
7
330
0
100
AcDbSymbolTable
 70
     0
  0
ENDTAB
  0
TABLE
  2
APPID
  5
9
330
0
100
AcDbSymbolTable
 70
     1
  0
APPID
  5
10
330
9
100
AcDbSymbolTableRecord
100
AcDbRegAppTableRecord
  2
ACAD
 70
     0
  0
ENDTAB
  0
TABLE
  2
DIMSTYLE
  5
A
330
0
100
AcDbSymbolTable
 70
     3
100
AcDbDimStyleTable
 71
     1
340
66
  0
DIMSTYLE
105
1D
330
A
100
AcDbSymbolTableRecord
100
AcDbDimStyleTableRecord
  2
STANDARD
 70
     0
 41
2.5
 42
0.625
 43
3.75
 44
1.25
 73
     0
 74
     0
 77
     1
 78
     8
140
2.5
141
2.5
143
0.0394
147
0.625
171
     4
172
     1
273
     8
274
     4
277
     6
340
F
  0
DIMSTYLE
105
66
330
A
100
AcDbSymbolTableRecord
100
AcDbDimStyleTableRecord
  2
STYLE2
 70
     0
 41
2.5
 42
0.0
 43
3.75
 44
1.25
 73
     0
 74
     0
 77
     1
 78
     8
140
2.5
141
2.5
143
0.0394
147
0.625
171
     4
172
     1
173
     1
176
     2
177
     2
178
     6
271
     1
273
     8
274
     4
340
3F
341
45
343
45
344
45
  0
ENDTAB
  0
TABLE
  2
BLOCK_RECORD
  5
1
330
0
100
AcDbSymbolTable
 70
     5
  0
BLOCK_RECORD
  5
18
330
1
100
AcDbSymbolTableRecord
100
AcDbBlockTableRecord
  2
*MODEL_SPACE
340
12A8
  0
BLOCK_RECORD
  5
15
330
1
100
AcDbSymbolTableRecord
100
AcDbBlockTableRecord
  2
*PAPER_SPACE
340
12A9
  0
BLOCK_RECORD
  5
45
330
1
100
AcDbSymbolTableRecord
100
AcDbBlockTableRecord
  2
_OPEN
340
0
102
{BLKREFS
331
836
331
837
331
83E
331
83F
331
847
331
848
331
875
331
876
331
87E
331
87F
331
900
331
901
331
909
331
90A
331
912
331
913
331
1025
331
1026
331
1078
331
1079
331
1081
331
1082
331
11F5
331
11F6
331
1216
331
1217
331
121F
331
1220
331
12C6
102
}
  0
BLOCK_RECORD
  5
12D1
330
1
100
AcDbSymbolTableRecord
100
AcDbBlockTableRecord
  2
A$C58896626
340
0
102
{BLKREFS
331
12D8
331
12EC
331
1308
102
}
  0
ENDTAB
  0
ENDSEC
  0
SECTION
  2
BLOCKS
  0
BLOCK
  5
19
330
18
100
AcDbEntity
  8
0
100
AcDbBlockBegin
  2
*MODEL_SPACE
 70
     0
 10
0.0
 20
0.0
 30
0.0
  3
*MODEL_SPACE
  1

  0
ENDBLK
  5
1A
330
18
100
AcDbEntity
  8
0
100
AcDbBlockEnd
  0
BLOCK
  5
16
330
15
100
AcDbEntity
 67
     1
  8
0
100
AcDbBlockBegin
  2
*PAPER_SPACE
 70
     0
 10
0.0
 20
0.0
 30
0.0
  3
*PAPER_SPACE
  1

  0
ENDBLK
  5
17
330
15
100
AcDbEntity
 67
     1
  8
0
100
AcDbBlockEnd
  0
BLOCK
  5
46
330
45
100
AcDbEntity
  8
0
100
AcDbBlockBegin
  2
_OPEN
 70
     0
 10
0.0
 20
0.0
 30
0.0
  3
_OPEN
  1

  0
LINE
  5
47
330
45
100
AcDbEntity
  8
0
  6
ByBlock
 62
     0
100
AcDbLine
 10
-1.0
 20
0.1666666666666666
 30
0.0
 11
0.0
 21
0.0
 31
0.0
  0
LINE
  5
48
330
45
100
AcDbEntity
  8
0
  6
ByBlock
 62
     0
100
AcDbLine
 10
0.0
 20
0.0
 30
0.0
 11
-1.0
 21
-0.1666666666666666
 31
0.0
  0
LINE
  5
49
330
45
100
AcDbEntity
  8
0
  6
ByBlock
 62
     0
100
AcDbLine
 10
0.0
 20
0.0
 30
0.0
 11
-1.0
 21
0.0
 31
0.0
  0
ENDBLK
  5
4A
330
45
100
AcDbEntity
  8
0
100
AcDbBlockEnd
  0
BLOCK
  5
12D2
330
12D1
100
AcDbEntity
  8
0
100
AcDbBlockBegin
  2
A$C58896626
 70
     0
 10
0.0
 20
0.0
 30
0.0
  3
A$C58896626
  1

  0
LINE
  5
12D3
330
12D1
100
AcDbEntity
  8
外形線
100
AcDbLine
 10
0.0
 20
0.0
 30
0.0
 11
74.266655
 21
0.0
 31
0.0
  0
ENDBLK
  5
12D4
330
12D1
100
AcDbEntity
  8
0
100
AcDbBlockEnd
  0
ENDSEC
  0
SECTION
  2
ENTITIES
  0
LINE
  5
244
330
18
100
AcDbEntity
  8
中心線
 48
0.5
100
AcDbLine
 10
287.8336107565618
 20
281.4736517155089
 30
0.0
 11
356.0146139937277
 21
281.4736517155088
 31
0.0
  0
LINE
  5
245
330
18
100
AcDbEntity
  8
中心線
 48
0.5
100
AcDbLine
 10
325.876538051936
 20
326.1154607188926
 30
0.0
 11
325.8765380519362
 21
261.1736517155088
 31
0.0
  0
CIRCLE
  5
246
330
18
100
AcDbEntity
  8
外形線
100
AcDbCircle
 10
325.876538051936
 20
281.4736517155088
 30
0.0
 40
15.5
  0
CIRCLE
  5
247
330
18
100
AcDbEntity
  8
外形線
100
AcDbCircle
 10
325.876538051936
 20
281.4736517155088
 30
0.0
 40
23.0
  0
CIRCLE
  5
248
330
18
100
AcDbEntity
  8
外形線
100
AcDbCircle
 10
325.876538051936
 20
281.4736517155088
 30
0.0
 40
26.4
  0
LINE
  5
249
330
18
100
AcDbEntity
  8
目盛
100
AcDbLine
 10
324.4323561027619
 20
304.428266469359
 30
0.0
 11
324.5390999859616
 21
302.7316210310309
 31
0.0
  0
LINE
  5
24A
330
18
100
AcDbEntity
  8
目盛
100
AcDbLine
 10
322.9938736799571
 20
304.2922898457418
 30
0.0
 11
323.2069401770163
 21
302.6056948535071
 31
0.0
  0
LINE
  5
24B
330
18
100
AcDbEntity
  8
目盛
100
AcDbLine
 10
321.5667678164644
 20
304.0662584822686
 30
0.0
 11
321.8853160512601
 21
302.3963701560298
 31
0.0
  0
LINE
  5
24C
330
18
100
AcDbEntity
  8
目盛
100
AcDbLine
 10
320.1566706471444
 20
303.7510644214673
 30
0.0
 11
320.5794434553246
 21
302.1044730475486
 31
0.0
  0
LINE
  5
24D
330
18
100
AcDbEntity
  8
目盛
100
AcDbLine
 10
318.7691471813122
 20
303.3479515902973
 30
0.0
 11
319.6034930661245
 21
300.7800989963004
 31
0.0
  0
LINE
  5
24E
330
18
100
AcDbEntity
  8
目盛
100
AcDbLine
 10
317.4096733401885
 20
302.8585108909386
 30
0.0
 11
318.0354850797524
 21
301.2778908649285
 31
0.0
  0
LINE
  5
24F
330
18
100
AcDbEntity
  8
目盛
100
AcDbLine
 10
316.0836143459392
 20
302.2846739222272
 30
0.0
 11
316.8074391415999
 21
300.7464679330349
 31
0.0
  0
LINE
  5
250
330
18
100
AcDbEntity
  8
目盛
100
AcDbLine
 10
314.7962035475964
 20
301.6287053565176
 30
0.0
 11
315.6151847935695
 21
300.138984000443
 31
0.0
  0
LINE
  5
251
330
18
100
AcDbEntity
  8
目盛
100
AcDbLine
 10
313.552521767419
 20
300.8931940020551
 30
0.0
 11
314.4634273188834
 21
299.4578365287016
 31
0.0
  0
LINE
  5
252
330
18
100
AcDbEntity
  8
目盛
100
AcDbLine
 10
312.3574772492091
 20
300.0810425861326
 30
0.0
 11
314.1208330060866
 21
297.6539916030077
 31
0.0
  0
LINE
  5
253
330
18
100
AcDbEntity
  8
目盛
100
AcDbLine
 10
311.2157862877162
 20
299.195456299352
 30
0.0
 11
312.2994070702889
 21
297.885583786633
 31
0.0
  0
LINE
  5
254
330
18
100
AcDbEntity
  8
目盛
100
AcDbLine
 10
310.1319546155762
 20
298.2399301462013
 30
0.0
 11
311.2956846956551
 21
297.0006834795849
 31
0.0
  0
LINE
  5
255
330
18
100
AcDbEntity
  8
目盛
100
AcDbLine
 10
309.1102596212435
 20
297.2182351518686
 30
0.0
 11
310.3495062878601
 21
296.0545050717898
 31
0.0
  0
LINE
  5
256
330
18
100
AcDbEntity
  8
目盛
100
AcDbLine
 10
308.154733468093
 20
296.1344034797286
 30
0.0
 11
309.4646059808118
 21
295.0507826971559
 31
0.0
  0
LINE
  5
257
330
18
100
AcDbEntity
  8
目盛
100
AcDbLine
 10
307.2691471813121
 20
294.9927125182356
 30
0.0
 11
309.4534930661246
 21
293.4056923370459
 31
0.0
  0
LINE
  5
258
330
18
100
AcDbEntity
  8
目盛
100
AcDbLine
 10
306.4569957653897
 20
293.7976680000257
 30
0.0
 11
307.8923532387431
 21
292.8867624485613
 31
0.0
  0
LINE
  5
259
330
18
100
AcDbEntity
  8
目盛
100
AcDbLine
 10
305.7214844109272
 20
292.5539862198482
 30
0.0
 11
307.2112057670018
 21
291.7350049738753
 31
0.0
  0
LINE
  5
25A
330
18
100
AcDbEntity
  8
目盛
100
AcDbLine
 10
305.0655158452176
 20
291.2665754215055
 30
0.0
 11
306.6037218344098
 21
290.5427506258448
 31
0.0
  0
LINE
  5
25B
330
18
100
AcDbEntity
  8
目盛
100
AcDbLine
 10
304.4916788765061
 20
289.9405164272563
 30
0.0
 11
306.0722989025163
 21
289.3147046876923
 31
0.0
  0
LINE
  5
25C
330
18
100
AcDbEntity
  8
目盛
100
AcDbLine
 10
304.0022381771474
 20
288.5810425861326
 30
0.0
 11
306.5700907711444
 21
287.7466967013202
 31
0.0
  0
LINE
  5
25D
330
18
100
AcDbEntity
  8
目盛
100
AcDbLine
 10
303.5991253459775
 20
287.1935191203004
 30
0.0
 11
305.2457167198963
 21
286.7707463121202
 31
0.0
  0
LINE
  5
25E
330
18
100
AcDbEntity
  8
目盛
100
AcDbLine
 10
303.2839312851761
 20
285.7834219509804
 30
0.0
 11
304.953819611415
 21
285.4648737161846
 31
0.0
  0
LINE
  5
25F
330
18
100
AcDbEntity
  8
目盛
100
AcDbLine
 10
303.0578999217031
 20
284.3563160874877
 30
0.0
 11
304.7444949139377
 21
284.1432495904284
 31
0.0
  0
LINE
  5
260
330
18
100
AcDbEntity
  8
目盛
100
AcDbLine
 10
302.9219232980857
 20
282.917833664683
 30
0.0
 11
304.6185687364139
 21
282.8110897814831
 31
0.0
  0
LINE
  5
261
330
18
100
AcDbEntity
  8
目盛
100
AcDbLine
 10
302.9219232980857
 20
280.0294697663346
 30
0.0
 11
304.6185687364139
 21
280.1362136495344
 31
0.0
  0
LINE
  5
262
330
18
100
AcDbEntity
  8
目盛
100
AcDbLine
 10
303.0578999217031
 20
278.5909873435298
 30
0.0
 11
304.7444949139377
 21
278.804053840589
 31
0.0
  0
LINE
  5
263
330
18
100
AcDbEntity
  8
目盛
100
AcDbLine
 10
303.2839312851761
 20
277.1638814800371
 30
0.0
 11
304.953819611415
 21
277.482429714833
 31
0.0
  0
LINE
  5
264
330
18
100
AcDbEntity
  8
目盛
100
AcDbLine
 10
303.5991253459775
 20
275.7537843107171
 30
0.0
 11
305.2457167198963
 21
276.1765571188974
 31
0.0
  0
LINE
  5
265
330
18
100
AcDbEntity
  8
目盛
100
AcDbLine
 10
304.0022381771476
 20
274.366260844885
 30
0.0
 11
306.5700907711443
 21
275.2006067296974
 31
0.0
  0
LINE
  5
266
330
18
100
AcDbEntity
  8
目盛
100
AcDbLine
 10
304.4916788765062
 20
273.0067870037611
 30
0.0
 11
306.0722989025164
 21
273.6325987433251
 31
0.0
  0
LINE
  5
267
330
18
100
AcDbEntity
  8
目盛
100
AcDbLine
 10
305.0655158452176
 20
271.6807280095121
 30
0.0
 11
306.6037218344099
 21
272.4045528051727
 31
0.0
  0
LINE
  5
268
330
18
100
AcDbEntity
  8
目盛
100
AcDbLine
 10
305.7214844109272
 20
270.3933172111693
 30
0.0
 11
307.2112057670018
 21
271.2122984571422
 31
0.0
  0
LINE
  5
269
330
18
100
AcDbEntity
  8
目盛
100
AcDbLine
 10
306.4569957653897
 20
269.1496354309919
 30
0.0
 11
307.8923532387431
 21
270.0605409824561
 31
0.0
  0
LINE
  5
26A
330
18
100
AcDbEntity
  8
目盛
100
AcDbLine
 10
307.2691471813123
 20
267.9545909127818
 30
0.0
 11
309.4534930661246
 21
269.5416110939715
 31
0.0
  0
LINE
  5
26B
330
18
100
AcDbEntity
  8
目盛
100
AcDbLine
 10
308.1547334680928
 20
266.8128999512889
 30
0.0
 11
309.4646059808118
 21
267.8965207338617
 31
0.0
  0
LINE
  5
26C
330
18
100
AcDbEntity
  8
目盛
100
AcDbLine
 10
309.1102596212436
 20
265.7290682791489
 30
0.0
 11
310.3495062878601
 21
266.8927983592277
 31
0.0
  0
LINE
  5
26D
330
18
100
AcDbEntity
  8
目盛
100
AcDbLine
 10
310.1319546155762
 20
264.7073732848162
 30
0.0
 11
311.295684695655
 21
265.9466199514327
 31
0.0
  0
LINE
  5
26E
330
18
100
AcDbEntity
  8
目盛
100
AcDbLine
 10
311.2157862877162
 20
263.7518471316655
 30
0.0
 11
312.299407070289
 21
265.0617196443845
 31
0.0
  0
LINE
  5
26F
330
18
100
AcDbEntity
  8
目盛
100
AcDbLine
 10
312.3574772492091
 20
262.8662608448849
 30
0.0
 11
313.9444974303988
 21
265.0506067296973
 31
0.0
  0
LINE
  5
270
330
18
100
AcDbEntity
  8
目盛
100
AcDbLine
 10
313.552521767419
 20
262.0541094289624
 30
0.0
 11
314.4634273188834
 21
263.4894669023159
 31
0.0
  0
LINE
  5
271
330
18
100
AcDbEntity
  8
目盛
100
AcDbLine
 10
314.7962035475967
 20
261.3185980744999
 30
0.0
 11
315.6151847935696
 21
262.8083194305744
 31
0.0
  0
LINE
  5
272
330
18
100
AcDbEntity
  8
目盛
100
AcDbLine
 10
316.0836143459395
 20
260.6626295087903
 30
0.0
 11
316.8074391416001
 21
262.2008354979826
 31
0.0
  0
LINE
  5
273
330
18
100
AcDbEntity
  8
目盛
100
AcDbLine
 10
317.4096733401885
 20
260.0887925400789
 30
0.0
 11
318.0354850797524
 21
261.669412566089
 31
0.0
  0
LINE
  5
274
330
18
100
AcDbEntity
  8
目盛
100
AcDbLine
 10
318.7691471813122
 20
259.5993518407202
 30
0.0
 11
319.6034930661246
 21
262.1672044347171
 31
0.0
  0
LINE
  5
275
330
18
100
AcDbEntity
  8
目盛
100
AcDbLine
 10
320.1566706471445
 20
259.1962390095503
 30
0.0
 11
320.5794434553246
 21
260.8428303834689
 31
0.0
  0
LINE
  5
276
330
18
100
AcDbEntity
  8
目盛
100
AcDbLine
 10
321.5667678164644
 20
258.8810449487489
 30
0.0
 11
321.8853160512602
 21
260.5509332749877
 31
0.0
  0
LINE
  5
277
330
18
100
AcDbEntity
  8
目盛
100
AcDbLine
 10
322.9938736799571
 20
258.6550135852757
 30
0.0
 11
323.2069401770164
 21
260.3416085775104
 31
0.0
  0
LINE
  5
278
330
18
100
AcDbEntity
  8
目盛
100
AcDbLine
 10
324.4323561027619
 20
258.5190369616585
 30
0.0
 11
324.5390999859616
 21
260.2156823999866
 31
0.0
  0
LINE
  5
279
330
18
100
AcDbEntity
  8
目盛
100
AcDbLine
 10
327.3207200011102
 20
258.5190369616585
 30
0.0
 11
327.2139761179104
 21
260.2156823999866
 31
0.0
  0
LINE
  5
27A
330
18
100
AcDbEntity
  8
目盛
100
AcDbLine
 10
328.759202423915
 20
258.6550135852757
 30
0.0
 11
328.5461359268557
 21
260.3416085775104
 31
0.0
  0
LINE
  5
27B
330
18
100
AcDbEntity
  8
目盛
100
AcDbLine
 10
330.1863082874077
 20
258.881044948749
 30
0.0
 11
329.867760052612
 21
260.5509332749877
 31
0.0
  0
LINE
  5
27C
330
18
100
AcDbEntity
  8
目盛
100
AcDbLine
 10
331.5964054567276
 20
259.1962390095503
 30
0.0
 11
331.1736326485475
 21
260.8428303834689
 31
0.0
  0
LINE
  5
27D
330
18
100
AcDbEntity
  8
目盛
100
AcDbLine
 10
332.9839289225599
 20
259.5993518407202
 30
0.0
 11
332.1495830377476
 21
262.1672044347172
 31
0.0
  0
LINE
  5
27E
330
18
100
AcDbEntity
  8
目盛
100
AcDbLine
 10
334.3434027636836
 20
260.088792540079
 30
0.0
 11
333.7175910241198
 21
261.669412566089
 31
0.0
  0
LINE
  5
27F
330
18
100
AcDbEntity
  8
目盛
100
AcDbLine
 10
335.6694617579326
 20
260.6626295087904
 30
0.0
 11
334.9456369622721
 21
262.2008354979826
 31
0.0
  0
LINE
  5
280
330
18
100
AcDbEntity
  8
目盛
100
AcDbLine
 10
336.9568725562754
 20
261.3185980744999
 30
0.0
 11
336.1378913103026
 21
262.8083194305744
 31
0.0
  0
LINE
  5
281
330
18
100
AcDbEntity
  8
目盛
100
AcDbLine
 10
338.200554336453
 20
262.0541094289625
 30
0.0
 11
337.2896487849888
 21
263.4894669023159
 31
0.0
  0
LINE
  5
282
330
18
100
AcDbEntity
  8
目盛
100
AcDbLine
 10
339.395598854663
 20
262.866260844885
 30
0.0
 11
337.8085786734732
 21
265.0506067296973
 31
0.0
  0
LINE
  5
283
330
18
100
AcDbEntity
  8
目盛
100
AcDbLine
 10
340.5372898161559
 20
263.7518471316657
 30
0.0
 11
339.4536690335832
 21
265.0617196443844
 31
0.0
  0
LINE
  5
284
330
18
100
AcDbEntity
  8
目盛
100
AcDbLine
 10
341.6211214882959
 20
264.7073732848164
 30
0.0
 11
340.4573914082172
 21
265.9466199514327
 31
0.0
  0
LINE
  5
285
330
18
100
AcDbEntity
  8
目盛
100
AcDbLine
 10
342.6428164826285
 20
265.729068279149
 30
0.0
 11
341.4035698160122
 21
266.8927983592277
 31
0.0
  0
LINE
  5
286
330
18
100
AcDbEntity
  8
目盛
100
AcDbLine
 10
343.5983426357791
 20
266.8128999512889
 30
0.0
 11
342.2884701230604
 21
267.8965207338616
 31
0.0
  0
LINE
  5
287
330
18
100
AcDbEntity
  8
目盛
100
AcDbLine
 10
344.4839289225598
 20
267.9545909127819
 30
0.0
 11
342.2995830377475
 21
269.5416110939717
 31
0.0
  0
LINE
  5
288
330
18
100
AcDbEntity
  8
目盛
100
AcDbLine
 10
345.2960803384824
 20
269.1496354309919
 30
0.0
 11
343.860722865129
 21
270.0605409824561
 31
0.0
  0
LINE
  5
289
330
18
100
AcDbEntity
  8
目盛
100
AcDbLine
 10
346.0315916929449
 20
270.3933172111694
 30
0.0
 11
344.5418703368704
 21
271.2122984571423
 31
0.0
  0
LINE
  5
28A
330
18
100
AcDbEntity
  8
目盛
100
AcDbLine
 10
346.6875602586545
 20
271.6807280095121
 30
0.0
 11
345.1493542694623
 21
272.4045528051727
 31
0.0
  0
LINE
  5
28B
330
18
100
AcDbEntity
  8
目盛
100
AcDbLine
 10
347.2613972273657
 20
273.0067870037612
 30
0.0
 11
345.6807772013558
 21
273.6325987433251
 31
0.0
  0
LINE
  5
28C
330
18
100
AcDbEntity
  8
目盛
100
AcDbLine
 10
347.7508379267245
 20
274.366260844885
 30
0.0
 11
345.1829853327276
 21
275.2006067296974
 31
0.0
  0
LINE
  5
28D
330
18
100
AcDbEntity
  8
目盛
100
AcDbLine
 10
348.1539507578945
 20
275.7537843107171
 30
0.0
 11
346.5073593839759
 21
276.1765571188973
 31
0.0
  0
LINE
  5
28E
330
18
100
AcDbEntity
  8
目盛
100
AcDbLine
 10
348.4691448186958
 20
277.1638814800371
 30
0.0
 11
346.7992564924572
 21
277.4824297148328
 31
0.0
  0
LINE
  5
28F
330
18
100
AcDbEntity
  8
目盛
100
AcDbLine
 10
348.695176182169
 20
278.5909873435298
 30
0.0
 11
347.0085811899345
 21
278.8040538405891
 31
0.0
  0
LINE
  5
290
330
18
100
AcDbEntity
  8
目盛
100
AcDbLine
 10
348.8311528057862
 20
280.0294697663346
 30
0.0
 11
347.1345073674583
 21
280.1362136495344
 31
0.0
  0
LINE
  5
291
330
18
100
AcDbEntity
  8
目盛
100
AcDbLine
 10
348.8311528057862
 20
282.9178336646829
 30
0.0
 11
347.1345073674583
 21
282.8110897814831
 31
0.0
  0
LINE
  5
292
330
18
100
AcDbEntity
  8
目盛
100
AcDbLine
 10
348.695176182169
 20
284.3563160874878
 30
0.0
 11
347.0085811899345
 21
284.1432495904285
 31
0.0
  0
LINE
  5
293
330
18
100
AcDbEntity
  8
目盛
100
AcDbLine
 10
348.4691448186958
 20
285.7834219509804
 30
0.0
 11
346.7992564924572
 21
285.4648737161847
 31
0.0
  0
LINE
  5
294
330
18
100
AcDbEntity
  8
目盛
100
AcDbLine
 10
348.1539507578946
 20
287.1935191203004
 30
0.0
 11
346.5073593839759
 21
286.7707463121202
 31
0.0
  0
LINE
  5
295
330
18
100
AcDbEntity
  8
目盛
100
AcDbLine
 10
347.7508379267245
 20
288.5810425861325
 30
0.0
 11
345.1829853327276
 21
287.7466967013203
 31
0.0
  0
LINE
  5
296
330
18
100
AcDbEntity
  8
目盛
100
AcDbLine
 10
347.2613972273657
 20
289.9405164272563
 30
0.0
 11
345.6807772013558
 21
289.3147046876924
 31
0.0
  0
LINE
  5
297
330
18
100
AcDbEntity
  8
目盛
100
AcDbLine
 10
346.6875602586545
 20
291.2665754215055
 30
0.0
 11
345.1493542694623
 21
290.5427506258448
 31
0.0
  0
LINE
  5
298
330
18
100
AcDbEntity
  8
目盛
100
AcDbLine
 10
346.0315916929449
 20
292.5539862198482
 30
0.0
 11
344.5418703368704
 21
291.7350049738753
 31
0.0
  0
LINE
  5
299
330
18
100
AcDbEntity
  8
目盛
100
AcDbLine
 10
345.2960803384824
 20
293.7976680000256
 30
0.0
 11
343.860722865129
 21
292.8867624485614
 31
0.0
  0
LINE
  5
29A
330
18
100
AcDbEntity
  8
目盛
100
AcDbLine
 10
344.4839289225598
 20
294.9927125182356
 30
0.0
 11
342.2995830377475
 21
293.4056923370459
 31
0.0
  0
LINE
  5
29B
330
18
100
AcDbEntity
  8
目盛
100
AcDbLine
 10
343.5983426357791
 20
296.1344034797286
 30
0.0
 11
342.2884701230604
 21
295.0507826971559
 31
0.0
  0
LINE
  5
29C
330
18
100
AcDbEntity
  8
目盛
100
AcDbLine
 10
342.6428164826285
 20
297.2182351518686
 30
0.0
 11
341.4035698160121
 21
296.0545050717899
 31
0.0
  0
LINE
  5
29D
330
18
100
AcDbEntity
  8
目盛
100
AcDbLine
 10
341.6211214882959
 20
298.2399301462012
 30
0.0
 11
340.4573914082171
 21
297.0006834795849
 31
0.0
  0
LINE
  5
29E
330
18
100
AcDbEntity
  8
目盛
100
AcDbLine
 10
340.5372898161559
 20
299.1954562993518
 30
0.0
 11
339.4536690335832
 21
297.8855837866331
 31
0.0
  0
LINE
  5
29F
330
18
100
AcDbEntity
  8
目盛
100
AcDbLine
 10
339.395598854663
 20
300.0810425861325
 30
0.0
 11
337.8085786734732
 21
297.8966967013201
 31
0.0
  0
LINE
  5
2A0
330
18
100
AcDbEntity
  8
目盛
100
AcDbLine
 10
338.2005543364531
 20
300.8931940020551
 30
0.0
 11
337.2896487849888
 21
299.4578365287016
 31
0.0
  0
LINE
  5
2A1
330
18
100
AcDbEntity
  8
目盛
100
AcDbLine
 10
336.9568725562757
 20
301.6287053565175
 30
0.0
 11
336.1378913103027
 21
300.138984000443
 31
0.0
  0
LINE
  5
2A2
330
18
100
AcDbEntity
  8
目盛
100
AcDbLine
 10
335.6694617579329
 20
302.2846739222271
 30
0.0
 11
334.9456369622723
 21
300.7464679330349
 31
0.0
  0
LINE
  5
2A3
330
18
100
AcDbEntity
  8
目盛
100
AcDbLine
 10
334.3434027636837
 20
302.8585108909385
 30
0.0
 11
333.7175910241198
 21
301.2778908649285
 31
0.0
  0
LINE
  5
2A4
330
18
100
AcDbEntity
  8
目盛
100
AcDbLine
 10
332.98392892256
 20
303.3479515902972
 30
0.0
 11
332.1495830377476
 21
300.7800989963004
 31
0.0
  0
LINE
  5
2A5
330
18
100
AcDbEntity
  8
目盛
100
AcDbLine
 10
331.5964054567278
 20
303.7510644214672
 30
0.0
 11
331.1736326485476
 21
302.1044730475486
 31
0.0
  0
LINE
  5
2A6
330
18
100
AcDbEntity
  8
目盛
100
AcDbLine
 10
330.1863082874078
 20
304.0662584822686
 30
0.0
 11
329.8677600526121
 21
302.3963701560298
 31
0.0
  0
LINE
  5
2A7
330
18
100
AcDbEntity
  8
目盛
100
AcDbLine
 10
328.7592024239153
 20
304.2922898457418
 30
0.0
 11
328.5461359268559
 21
302.6056948535071
 31
0.0
  0
LINE
  5
2A8
330
18
100
AcDbEntity
  8
目盛
100
AcDbLine
 10
327.3207200011105
 20
304.428266469359
 30
0.0
 11
327.2139761179106
 21
302.7316210310309
 31
0.0
  0
LINE
  5
2A9
330
18
100
AcDbEntity
  8
目盛
100
AcDbLine
 10
345.876538051936
 20
281.4736517155088
 30
0.0
 11
348.8765380519361
 21
281.4736517155088
 31
0.0
  0
LINE
  5
2AA
330
18
100
AcDbEntity
  8
目盛
100
AcDbLine
 10
325.876538051936
 20
261.1736517155088
 30
0.0
 11
325.876538051936
 21
258.4736517155088
 31
0.0
  0
LINE
  5
2AB
330
18
100
AcDbEntity
  8
目盛
100
AcDbLine
 10
302.876538051936
 20
281.4736517155088
 30
0.0
 11
305.576538051936
 21
281.4736517155088
 31
0.0
  0
LINE
  5
2AC
330
18
100
AcDbEntity
  8
目盛
100
AcDbLine
 10
325.876538051936
 20
304.4736517155087
 30
0.0
 11
325.876538051936
 21
301.7736517155088
 31
0.0
  0
TEXT
  5
2AD
330
18
100
AcDbEntity
  8
文字
100
AcDbText
 10
324.6965875679308
 20
298.7688019277133
 30
0.0
 40
2.5
  1
0
  7
STYLE3
100
AcDbText
  0
TEXT
  5
2AE
330
18
100
AcDbEntity
  8
文字
100
AcDbText
 10
334.5899472242049
 20
295.036173732123
 30
0.0
 40
2.5
  1
10
  7
STYLE3
100
AcDbText
  0
TEXT
  5
2AF
330
18
100
AcDbEntity
  8
文字
100
AcDbText
 10
340.6097828530945
 20
285.7460272828952
 30
0.0
 40
2.5
  1
20
  7
STYLE3
100
AcDbText
  0
TEXT
  5
2B0
330
18
100
AcDbEntity
  8
文字
100
AcDbText
 10
340.4403622091688
 20
274.2066160258255
 30
0.0
 40
2.5
  1
30
  7
STYLE3
100
AcDbText
  0
TEXT
  5
2B1
330
18
100
AcDbEntity
  8
文字
100
AcDbText
 10
334.6680235691053
 20
265.7345644381233
 30
0.0
 40
2.5
  1
40
  7
STYLE3
100
AcDbText
  0
TEXT
  5
2B2
330
18
100
AcDbEntity
  8
文字
100
AcDbText
 10
323.4924835125755
 20
261.7312672054737
 30
0.0
 40
2.5
  1
50
  7
STYLE3
100
AcDbText
  0
TEXT
  5
2B3
330
18
100
AcDbEntity
  8
文字
100
AcDbText
 10
312.1644610097131
 20
265.4096668164849
 30
0.0
 40
2.5
  1
40
  7
STYLE3
100
AcDbText
  0
TEXT
  5
2B4
330
18
100
AcDbEntity
  8
文字
100
AcDbText
 10
306.342224246424
 20
274.0504904979752
 30
0.0
 40
2.5
  1
30
  7
STYLE3
100
AcDbText
  0
TEXT
  5
2B5
330
18
100
AcDbEntity
  8
文字
100
AcDbText
 10
306.4479074262835
 20
286.2436515202229
 30
0.0
 40
2.5
  1
20
  7
STYLE3
100
AcDbText
  0
TEXT
  5
2B6
330
18
100
AcDbEntity
  8
文字
100
AcDbText
 10
312.6584952604294
 20
294.9522917094963
 30
0.0
 40
2.5
  1
10
  7
STYLE3
100
AcDbText
  0
LINE
  5
2B7
330
18
100
AcDbEntity
  8
中心線
 48
0.2
100
AcDbLine
 10
322.676538051936
 20
279.2628877227166
 30
0.0
 11
322.676538051936
 21
267.281089945939
 31
0.0
  0
ARC
  5
2B8
330
18
100
AcDbEntity
  8
外形線
100
AcDbCircle
 10
322.676538051936
 20
271.3996803039949
 30
0.0
 40
4.75
100
AcDbArc
 50
0.0
 51
180.0
  0
LINE
  5
2B9
330
18
100
AcDbEntity
  8
中心線
 48
0.2
100
AcDbLine
 10
316.5857627220157
 20
271.3996803039949
 30
0.0
 11
329.1398874428042
 21
271.3996803039949
 31
0.0
  0
LINE
  5
2BA
330
18
100
AcDbEntity
  8
目盛
100
AcDbLine
 10
321.208707328655
 20
275.9171987563968
 30
0.0
 11
321.3632158258425
 21
275.4416704982493
 31
0.0
  0
LINE
  5
2BB
330
18
100
AcDbEntity
  8
目盛
100
AcDbLine
 10
318.8337073286549
 20
274.191660252384
 30
0.0
 11
319.2382158258425
 21
273.8977676262379
 31
0.0
  0
LINE
  5
2BC
330
18
100
AcDbEntity
  8
目盛
100
AcDbLine
 10
317.9265380519358
 20
271.3996803039948
 30
0.0
 11
318.426538051936
 21
271.3996803039949
 31
0.0
  0
LINE
  5
2C1
330
18
100
AcDbEntity
  8
目盛
100
AcDbLine
 10
327.4265380519358
 20
271.3996803039949
 30
0.0
 11
326.9265380519359
 21
271.3996803039949
 31
0.0
  0
LINE
  5
2C2
330
18
100
AcDbEntity
  8
目盛
100
AcDbLine
 10
326.5193687752169
 20
274.191660252384
 30
0.0
 11
326.1148602780295
 21
273.8977676262378
 31
0.0
  0
LINE
  5
2C3
330
18
100
AcDbEntity
  8
目盛
100
AcDbLine
 10
324.144368775217
 20
275.9171987563968
 30
0.0
 11
323.9898602780295
 21
275.4416704982493
 31
0.0
  0
TEXT
  5
2C5
330
18
100
AcDbEntity
  8
文字
100
AcDbText
 10
325.8897429886256
 20
270.9166558505057
 30
0.0
 40
1.0
  1
0
  7
STYLE3
100
AcDbText
  0
TEXT
  5
2C6
330
18
100
AcDbEntity
  8
文字
100
AcDbText
 10
325.2323981019553
 20
272.9640761178929
 30
0.0
 40
1.0
  1
1
  7
STYLE3
100
AcDbText
  0
TEXT
  5
2C7
330
18
100
AcDbEntity
  8
文字
100
AcDbText
 10
323.2206064160989
 20
274.2813282108428
 30
0.0
 40
1.0
  1
2
  7
STYLE3
100
AcDbText
  0
TEXT
  5
2CD
330
18
100
AcDbEntity
  8
文字
100
AcDbText
 10
319.3337152562616
 20
272.8552112871188
 30
0.0
 40
1.0
  1
4
  7
STYLE3
100
AcDbText
  0
TEXT
  5
2CE
330
18
100
AcDbEntity
  8
文字
100
AcDbText
 10
321.0269593245815
 20
274.1213826561117
 30
0.0
 40
1.0
  1
3
  7
STYLE3
100
AcDbText
  0
LINE
  5
2D3
330
18
100
AcDbEntity
  8
外形線
100
AcDbLine
 10
322.476538051936
 20
236.4736517155087
 30
0.0
 11
329.2765380519361
 21
236.4736517155087
 31
0.0
  0
LINE
  5
2D4
330
18
100
AcDbEntity
  8
外形線
100
AcDbLine
 10
323.626538051936
 20
225.4736517155087
 30
0.0
 11
328.1265380519361
 21
225.4736517155087
 31
0.0
  0
LINE
  5
2D5
330
18
100
AcDbEntity
  8
外形線
100
AcDbLine
 10
329.876538051936
 20
255.3784414270286
 30
0.0
 11
329.876538051936
 21
240.9736517155088
 31
0.0
  0
LINE
  5
2D6
330
18
100
AcDbEntity
  8
外形線
100
AcDbLine
 10
321.8765380519361
 20
255.3784414270286
 30
0.0
 11
321.8765380519361
 21
240.9736517155087
 31
0.0
  0
LINE
  5
2D9
330
18
100
AcDbEntity
  8
外形線
100
AcDbLine
 10
327.8765380519359
 20
236.4736517155088
 30
0.0
 11
327.8765380519359
 21
225.4736517155087
 31
0.0
  0
LINE
  5
2DA
330
18
100
AcDbEntity
  8
外形線
100
AcDbLine
 10
323.8765380519361
 20
236.4736517155088
 30
0.0
 11
323.8765380519361
 21
225.4736517155087
 31
0.0
  0
LINE
  5
2DB
330
18
100
AcDbEntity
  8
外形線
100
AcDbLine
 10
328.3765380519361
 20
225.2736517155088
 30
0.0
 11
328.3765380519359
 21
222.1736517155088
 31
0.0
  0
LINE
  5
2DC
330
18
100
AcDbEntity
  8
外形線
100
AcDbLine
 10
323.376538051936
 20
225.2736517155088
 30
0.0
 11
323.376538051936
 21
222.1736517155088
 31
0.0
  0
LINE
  5
2DD
330
18
100
AcDbEntity
  8
外形線
100
AcDbLine
 10
323.626538051936
 20
221.9736517155088
 30
0.0
 11
328.1265380519359
 21
221.9736517155088
 31
0.0
  0
LINE
  5
2DE
330
18
100
AcDbEntity
  8
外形線
100
AcDbLine
 10
323.376538051936
 20
225.2736517155088
 30
0.0
 11
328.3765380519361
 21
225.2736517155088
 31
0.0
  0
LINE
  5
2DF
330
18
100
AcDbEntity
  8
外形線
100
AcDbLine
 10
323.376538051936
 20
222.1736517155088
 30
0.0
 11
328.3765380519361
 21
222.1736517155088
 31
0.0
  0
LINE
  5
2E0
330
18
100
AcDbEntity
  8
外形線
100
AcDbLine
 10
328.1265380519361
 20
225.4736517155087
 30
0.0
 11
328.3765380519361
 21
225.2736517155088
 31
0.0
  0
LINE
  5
2E1
330
18
100
AcDbEntity
  8
外形線
100
AcDbLine
 10
323.626538051936
 20
225.4736517155087
 30
0.0
 11
323.376538051936
 21
225.2736517155088
 31
0.0
  0
LINE
  5
2E2
330
18
100
AcDbEntity
  8
外形線
100
AcDbLine
 10
328.3765380519361
 20
222.1736517155088
 30
0.0
 11
328.1265380519361
 21
221.9736517155088
 31
0.0
  0
LINE
  5
2E3
330
18
100
AcDbEntity
  8
外形線
100
AcDbLine
 10
323.376538051936
 20
222.1736517155088
 30
0.0
 11
323.626538051936
 21
221.9736517155088
 31
0.0
  0
LINE
  5
2E5
330
18
100
AcDbEntity
  8
外形線
100
AcDbLine
 10
324.576538051936
 20
217.4736517155088
 30
0.0
 11
327.176538051936
 21
217.4736517155088
 31
0.0
  0
LINE
  5
2E6
330
18
100
AcDbEntity
  8
外形線
100
AcDbLine
 10
328.1265380519361
 20
221.9736517155088
 30
0.0
 11
327.176538051936
 21
217.4736517155088
 31
0.0
  0
LINE
  5
2E7
330
18
100
AcDbEntity
  8
外形線
100
AcDbLine
 10
323.626538051936
 20
221.9736517155088
 30
0.0
 11
324.576538051936
 21
217.4736517155088
 31
0.0
  0
LINE
  5
5CF
330
18
100
AcDbEntity
  8
外形線
  6
Continuous
100
AcDbLine
 10
329.576538051936
 20
321.9736517155086
 30
0.0
 11
329.576538051936
 21
315.4736517155086
 31
0.0
  0
LINE
  5
5D0
330
18
100
AcDbEntity
  8
外形線
  6
Continuous
100
AcDbLine
 10
322.1765380519361
 20
321.9736517155086
 30
0.0
 11
322.1765380519361
 21
315.4736517155086
 31
0.0
  0
LINE
  5
5D1
330
18
100
AcDbEntity
  8
外形線
  6
Continuous
100
AcDbLine
 10
322.1765380519361
 20
321.9736517155086
 30
0.0
 11
329.576538051936
 21
321.9736517155086
 31
0.0
  0
LINE
  5
5D2
330
18
100
AcDbEntity
  8
外形線
  6
Continuous
100
AcDbLine
 10
321.8765380519361
 20
315.4736517155086
 30
0.0
 11
329.876538051936
 21
315.4736517155086
 31
0.0
  0
LINE
  5
5D3
330
18
100
AcDbEntity
  8
外形線
  6
Continuous
100
AcDbLine
 10
321.876538051936
 20
309.4736517155086
 30
0.0
 11
329.876538051936
 21
309.4736517155086
 31
0.0
  0
LINE
  5
5D4
330
18
100
AcDbEntity
  8
外形線
  6
Continuous
100
AcDbLine
 10
329.876538051936
 20
315.4736517155086
 30
0.0
 11
329.876538051936
 21
309.4736517155086
 31
0.0
  0
LINE
  5
5D5
330
18
100
AcDbEntity
  8
外形線
  6
Continuous
100
AcDbLine
 10
321.8765380519361
 20
315.4736517155086
 30
0.0
 11
321.8765380519361
 21
309.4736517155086
 31
0.0
  0
LINE
  5
5D6
330
18
100
AcDbEntity
  8
外形線
  6
Continuous
100
AcDbLine
 10
329.576538051936
 20
309.4736517155086
 30
0.0
 11
329.576538051936
 21
307.6130855272806
 31
0.0
  0
LINE
  5
5D7
330
18
100
AcDbEntity
  8
外形線
  6
Continuous
100
AcDbLine
 10
322.1765380519361
 20
309.4736517155086
 30
0.0
 11
322.1765380519361
 21
307.6130855272806
 31
0.0
  0
ARC
  5
5D9
330
18
100
AcDbEntity
  8
外形線
  6
Continuous
100
AcDbCircle
 10
325.876538051936
 20
315.6286517155089
 30
0.0
 40
7.344999999999885
100
AcDbArc
 50
59.75198538337817
 51
120.2480146166212
  0
ARC
  5
692
330
18
100
AcDbEntity
  8
外形線
  6
Continuous
100
AcDbCircle
 10
507.6141556327497
 20
281.4736517155088
 30
0.0
 40
105.6666666666664
100
AcDbArc
 50
166.3144531747381
 51
193.685546825262
  0
LINE
  5
693
330
18
100
AcDbEntity
  8
外形線
  6
Continuous
100
AcDbLine
 10
404.9474889660833
 20
306.4736517155087
 30
0.0
 11
404.9474889660833
 21
256.4736517155087
 31
0.0
  0
LINE
  5
694
330
18
100
AcDbEntity
  8
外形線
  6
Continuous
100
AcDbLine
 10
406.1474889660834
 20
307.8736517155087
 30
0.0
 11
406.1474889660834
 21
255.0736517155088
 31
0.0
  0
LINE
  5
695
330
18
100
AcDbEntity
  8
外形線
  6
Continuous
100
AcDbLine
 10
409.9474889660834
 20
307.8736517155087
 30
0.0
 11
409.9474889660834
 21
255.0736517155088
 31
0.0
  0
LINE
  5
696
330
18
100
AcDbEntity
  8
外形線
  6
Continuous
100
AcDbLine
 10
411.4474889660834
 20
306.4736517155087
 30
0.0
 11
411.4474889660834
 21
256.4736517155087
 31
0.0
  0
LINE
  5
69C
330
18
100
AcDbEntity
  8
外形線
  6
Continuous
100
AcDbLine
 10
406.1474889660834
 20
255.9736517155088
 30
0.0
 11
404.9474889660833
 21
256.4736517155087
 31
0.0
  0
LINE
  5
6AD
330
18
100
AcDbEntity
  8
外形線
  6
CENTER2
100
AcDbLine
 10
411.4474889660834
 20
256.4736517155087
 30
0.0
 11
409.9474889660834
 21
256.4736517155087
 31
0.0
  0
LINE
  5
6AE
330
18
100
AcDbEntity
  8
外形線
  6
Continuous
100
AcDbLine
 10
406.1474889660834
 20
255.0736517155088
 30
0.0
 11
409.9474889660834
 21
255.0736517155088
 31
0.0
  0
LINE
  5
6AF
330
18
100
AcDbEntity
  8
外形線
  6
Continuous
100
AcDbLine
 10
406.1474889660834
 20
259.0736517155088
 30
0.0
 11
409.9474889660834
 21
259.0736517155088
 31
0.0
  0
LINE
  5
6B0
330
18
100
AcDbEntity
  8
外形線
  6
Continuous
100
AcDbLine
 10
406.1474889660834
 20
258.0736517155088
 30
0.0
 11
409.9474889660834
 21
258.0736517155088
 31
0.0
  0
LINE
  5
6B1
330
18
100
AcDbEntity
  8
外形線
  6
Continuous
100
AcDbLine
 10
406.1474889660834
 20
257.0736517155088
 30
0.0
 11
409.9474889660834
 21
257.0736517155088
 31
0.0
  0
LINE
  5
6B2
330
18
100
AcDbEntity
  8
外形線
  6
Continuous
100
AcDbLine
 10
406.1474889660834
 20
256.0736517155088
 30
0.0
 11
409.9474889660834
 21
256.0736517155088
 31
0.0
  0
ARC
  5
6B8
330
18
100
AcDbEntity
  8
外形線
  6
Continuous
100
AcDbCircle
 10
416.4474889660834
 20
315.6286517155089
 30
0.0
 40
7.344999999999885
100
AcDbArc
 50
59.75198538337879
 51
120.2480146166218
  0
LINE
  5
6B9
330
18
100
AcDbEntity
  8
外形線
  6
Continuous
100
AcDbLine
 10
406.1474889660834
 20
306.9736517155088
 30
0.0
 11
404.9474889660833
 21
306.4736517155087
 31
0.0
  0
LINE
  5
6BA
330
18
100
AcDbEntity
  8
外形線
  6
Continuous
100
AcDbLine
 10
406.1474889660834
 20
260.0736517155088
 30
0.0
 11
409.9474889660834
 21
260.0736517155088
 31
0.0
  0
LINE
  5
6BB
330
18
100
AcDbEntity
  8
外形線
  6
Continuous
100
AcDbLine
 10
409.9474889660834
 20
279.4736517155087
 30
0.0
 11
406.1474889660834
 21
279.4736517155087
 31
0.0
  0
LINE
  5
6BC
330
18
100
AcDbEntity
  8
外形線
  6
Continuous
100
AcDbLine
 10
409.9474889660834
 20
280.4736517155088
 30
0.0
 11
406.1474889660834
 21
280.4736517155088
 31
0.0
  0
LINE
  5
6BD
330
18
100
AcDbEntity
  8
外形線
  6
Continuous
100
AcDbLine
 10
409.9474889660834
 20
281.4736517155088
 30
0.0
 11
406.1474889660834
 21
281.4736517155088
 31
0.0
  0
LINE
  5
6BE
330
18
100
AcDbEntity
  8
外形線
  6
Continuous
100
AcDbLine
 10
409.9474889660834
 20
282.4736517155088
 30
0.0
 11
406.1474889660834
 21
282.4736517155088
 31
0.0
  0
LINE
  5
6BF
330
18
100
AcDbEntity
  8
外形線
  6
Continuous
100
AcDbLine
 10
409.9474889660834
 20
284.4736517155088
 30
0.0
 11
406.1474889660834
 21
284.4736517155088
 31
0.0
  0
LINE
  5
6C0
330
18
100
AcDbEntity
  8
外形線
  6
Continuous
100
AcDbLine
 10
409.9474889660834
 20
283.4736517155088
 30
0.0
 11
406.1474889660834
 21
283.4736517155088
 31
0.0
  0
LINE
  5
6C1
330
18
100
AcDbEntity
  8
外形線
  6
Continuous
100
AcDbLine
 10
406.1474889660834
 20
302.8736517155087
 30
0.0
 11
409.9474889660834
 21
302.8736517155087
 31
0.0
  0
LINE
  5
6C2
330
18
100
AcDbEntity
  8
外形線
  6
Continuous
100
AcDbLine
 10
406.1474889660834
 20
303.8736517155087
 30
0.0
 11
409.9474889660834
 21
303.8736517155087
 31
0.0
  0
LINE
  5
6C3
330
18
100
AcDbEntity
  8
外形線
  6
Continuous
100
AcDbLine
 10
406.1474889660834
 20
304.8736517155087
 30
0.0
 11
409.9474889660834
 21
304.8736517155087
 31
0.0
  0
LINE
  5
6C4
330
18
100
AcDbEntity
  8
外形線
  6
Continuous
100
AcDbLine
 10
406.1474889660834
 20
305.8736517155087
 30
0.0
 11
409.9474889660834
 21
305.8736517155087
 31
0.0
  0
LINE
  5
6C5
330
18
100
AcDbEntity
  8
外形線
  6
Continuous
100
AcDbLine
 10
420.1474889660834
 20
321.9736517155087
 30
0.0
 11
412.7474889660833
 21
321.9736517155087
 31
0.0
  0
LINE
  5
6C6
330
18
100
AcDbEntity
  8
外形線
  6
Continuous
100
AcDbLine
 10
420.4474889660834
 20
315.4736517155087
 30
0.0
 11
412.4474889660834
 21
315.4736517155087
 31
0.0
  0
LINE
  5
6C7
330
18
100
AcDbEntity
  8
外形線
  6
Continuous
100
AcDbLine
 10
420.4474889660834
 20
309.4736517155087
 30
0.0
 11
412.4474889660834
 21
309.4736517155087
 31
0.0
  0
LINE
  5
6C9
330
18
100
AcDbEntity
  8
外形線
  6
Continuous
100
AcDbLine
 10
420.4474889660834
 20
315.4736517155087
 30
0.0
 11
420.4474889660834
 21
309.4736517155087
 31
0.0
  0
LINE
  5
6CA
330
18
100
AcDbEntity
  8
外形線
  6
Continuous
100
AcDbLine
 10
420.1474889660834
 20
309.4736517155087
 30
0.0
 11
420.1474889660834
 21
305.8736517155087
 31
0.0
  0
LINE
  5
6CB
330
18
100
AcDbEntity
  8
外形線
  6
Continuous
100
AcDbLine
 10
420.1474889660834
 20
321.9736517155087
 30
0.0
 11
420.1474889660834
 21
315.4736517155087
 31
0.0
  0
LINE
  5
6CC
330
18
100
AcDbEntity
  8
外形線
  6
Continuous
100
AcDbLine
 10
412.4474889660834
 20
315.4736517155087
 30
0.0
 11
412.4474889660834
 21
309.4736517155087
 31
0.0
  0
LINE
  5
6CD
330
18
100
AcDbEntity
  8
外形線
  6
CENTER2
100
AcDbLine
 10
411.4474889660834
 20
306.4736517155087
 30
0.0
 11
409.9474889660834
 21
306.4736517155087
 31
0.0
  0
LINE
  5
6CE
330
18
100
AcDbEntity
  8
外形線
  6
Continuous
100
AcDbLine
 10
412.7474889660833
 20
309.4736517155087
 30
0.0
 11
412.7474889660833
 21
305.8736517155087
 31
0.0
  0
LINE
  5
6CF
330
18
100
AcDbEntity
  8
外形線
  6
Continuous
100
AcDbLine
 10
406.1474889660834
 20
306.8736517155087
 30
0.0
 11
409.9474889660834
 21
306.8736517155087
 31
0.0
  0
LINE
  5
6D0
330
18
100
AcDbEntity
  8
外形線
  6
Continuous
100
AcDbLine
 10
406.1474889660834
 20
307.8736517155087
 30
0.0
 11
409.9474889660834
 21
307.8736517155087
 31
0.0
  0
LINE
  5
6D1
330
18
100
AcDbEntity
  8
外形線
  6
Continuous
100
AcDbLine
 10
412.7474889660833
 20
321.9736517155087
 30
0.0
 11
412.7474889660833
 21
315.4736517155087
 31
0.0
  0
LINE
  5
71D
330
18
100
AcDbEntity
  8
外形線
  6
Continuous
100
AcDbLine
 10
424.0474889660834
 20
304.7736517155088
 30
0.0
 11
422.9474889660834
 21
304.7736517155088
 31
0.0
  0
LINE
  5
71E
330
18
100
AcDbEntity
  8
外形線
  6
Continuous
100
AcDbLine
 10
424.0474889660834
 20
258.1736517155088
 30
0.0
 11
422.9474889660835
 21
258.1736517155088
 31
0.0
  0
MTEXT
  5
778
330
18
100
AcDbEntity
  8
DEFPOINTS
  6
Continuous
100
AcDbMText
 10
735.8166661286731
 20
235.565234348894
 30
0.0
 40
1.0
 41
0.0
 71
     4
 72
     1
  1
\A1;
 73
     1
 44
1.0
  0
LINE
  5
789
330
18
100
AcDbEntity
  8
中心線
 48
0.5
100
AcDbLine
 10
416.4474889660834
 20
334.4924572442618
 30
0.0
 11
416.4474889660835
 21
214.3065778034963
 31
0.0
  0
LINE
  5
795
330
18
100
AcDbEntity
  8
外形線
100
AcDbLine
 10
321.8765380519361
 20
240.9736517155087
 30
0.0
 11
329.876538051936
 21
240.9736517155088
 31
0.0
  0
LINE
  5
796
330
18
100
AcDbEntity
  8
外形線
100
AcDbLine
 10
322.2765380519361
 20
238.4736517155087
 30
0.0
 11
329.4765380519361
 21
238.4736517155088
 31
0.0
  0
LINE
  5
797
330
18
100
AcDbEntity
  8
外形線
100
AcDbLine
 10
322.026538051936
 20
239.4736517155088
 30
0.0
 11
329.7265380519361
 21
239.4736517155088
 31
0.0
  0
LINE
  5
79F
330
18
100
AcDbEntity
  8
外形線
100
AcDbLine
 10
322.276538051936
 20
238.4736517155088
 30
0.0
 11
322.276538051936
 21
236.6736517155087
 31
0.0
  0
LINE
  5
7A0
330
18
100
AcDbEntity
  8
外形線
100
AcDbLine
 10
329.4765380519361
 20
236.6736517155087
 30
0.0
 11
329.4765380519361
 21
238.4736517155088
 31
0.0
  0
LINE
  5
7A1
330
18
100
AcDbEntity
  8
外形線
100
AcDbLine
 10
329.4765380519361
 20
236.6736517155087
 30
0.0
 11
329.2765380519361
 21
236.4736517155087
 31
0.0
  0
LINE
  5
7A2
330
18
100
AcDbEntity
  8
外形線
100
AcDbLine
 10
322.276538051936
 20
236.6736517155087
 30
0.0
 11
322.476538051936
 21
236.4736517155087
 31
0.0
  0
LINE
  5
7A5
330
18
100
AcDbEntity
  8
外形線
100
AcDbLine
 10
322.026538051936
 20
240.9736517155088
 30
0.0
 11
322.026538051936
 21
239.4736517155088
 31
0.0
  0
LINE
  5
7A6
330
18
100
AcDbEntity
  8
外形線
100
AcDbLine
 10
329.7265380519361
 20
240.9736517155088
 30
0.0
 11
329.7265380519361
 21
239.4736517155088
 31
0.0
  0
ARC
  5
7AC
330
18
100
AcDbEntity
  8
外形線
100
AcDbCircle
 10
329.6015380519361
 20
238.9736517155088
 30
0.0
 40
0.5153882032022076
100
AcDbArc
 50
75.96375653207353
 51
255.9637565320735
  0
ARC
  5
7AD
330
18
100
AcDbEntity
  8
外形線
100
AcDbCircle
 10
322.151538051936
 20
238.9736517155088
 30
0.0
 40
0.5153882032022076
100
AcDbArc
 50
284.0362434679264
 51
104.0362434679264
  0
LINE
  5
7B0
330
18
100
AcDbEntity
  8
外形線
100
AcDbLine
 10
418.4474889660833
 20
236.4736517155088
 30
0.0
 11
418.4474889660833
 21
225.4736517155087
 31
0.0
  0
LINE
  5
7B1
330
18
100
AcDbEntity
  8
外形線
100
AcDbLine
 10
414.4474889660834
 20
236.4736517155088
 30
0.0
 11
414.4474889660834
 21
225.4736517155087
 31
0.0
  0
LINE
  5
7B2
330
18
100
AcDbEntity
  8
外形線
100
AcDbLine
 10
418.9474889660834
 20
225.2736517155088
 30
0.0
 11
418.9474889660833
 21
222.1736517155088
 31
0.0
  0
LINE
  5
7B3
330
18
100
AcDbEntity
  8
外形線
100
AcDbLine
 10
413.9474889660834
 20
225.2736517155088
 30
0.0
 11
413.9474889660834
 21
222.1736517155088
 31
0.0
  0
LINE
  5
7B5
330
18
100
AcDbEntity
  8
外形線
100
AcDbLine
 10
415.1474889660834
 20
217.4736517155088
 30
0.0
 11
417.7474889660834
 21
217.4736517155088
 31
0.0
  0
LINE
  5
7B7
330
18
100
AcDbEntity
  8
外形線
100
AcDbLine
 10
414.1974889660835
 20
221.9736517155088
 30
0.0
 11
418.6974889660834
 21
221.9736517155088
 31
0.0
  0
LINE
  5
7B8
330
18
100
AcDbEntity
  8
外形線
100
AcDbLine
 10
413.9474889660833
 20
222.1736517155088
 30
0.0
 11
418.9474889660834
 21
222.1736517155088
 31
0.0
  0
LINE
  5
7B9
330
18
100
AcDbEntity
  8
外形線
100
AcDbLine
 10
414.1974889660835
 20
221.9736517155088
 30
0.0
 11
415.1474889660834
 21
217.4736517155088
 31
0.0
  0
LINE
  5
7BA
330
18
100
AcDbEntity
  8
外形線
100
AcDbLine
 10
413.9474889660834
 20
222.1736517155088
 30
0.0
 11
414.1974889660835
 21
221.9736517155088
 31
0.0
  0
LINE
  5
7BB
330
18
100
AcDbEntity
  8
外形線
100
AcDbLine
 10
418.6974889660834
 20
221.9736517155088
 30
0.0
 11
417.7474889660834
 21
217.4736517155088
 31
0.0
  0
LINE
  5
7BC
330
18
100
AcDbEntity
  8
外形線
100
AcDbLine
 10
418.9474889660834
 20
222.1736517155088
 30
0.0
 11
418.6974889660834
 21
221.9736517155088
 31
0.0
  0
LINE
  5
7BD
330
18
100
AcDbEntity
  8
外形線
100
AcDbLine
 10
414.1974889660835
 20
225.4736517155087
 30
0.0
 11
418.6974889660834
 21
225.4736517155087
 31
0.0
  0
LINE
  5
7BE
330
18
100
AcDbEntity
  8
外形線
100
AcDbLine
 10
413.9474889660833
 20
225.2736517155088
 30
0.0
 11
418.9474889660834
 21
225.2736517155088
 31
0.0
  0
LINE
  5
7BF
330
18
100
AcDbEntity
  8
外形線
100
AcDbLine
 10
414.1974889660835
 20
225.4736517155087
 30
0.0
 11
413.9474889660834
 21
225.2736517155088
 31
0.0
  0
LINE
  5
7C0
330
18
100
AcDbEntity
  8
外形線
100
AcDbLine
 10
418.6974889660834
 20
225.4736517155087
 30
0.0
 11
418.9474889660834
 21
225.2736517155088
 31
0.0
  0
LINE
  5
7C1
330
18
100
AcDbEntity
  8
外形線
100
AcDbLine
 10
420.4474889660835
 20
257.0736517155088
 30
0.0
 11
420.4474889660835
 21
240.9736517155088
 31
0.0
  0
LINE
  5
7C2
330
18
100
AcDbEntity
  8
外形線
100
AcDbLine
 10
412.4474889660836
 20
257.0736517155089
 30
0.0
 11
412.4474889660834
 21
240.9736517155087
 31
0.0
  0
LINE
  5
7C3
330
18
100
AcDbEntity
  8
外形線
100
AcDbLine
 10
412.8474889660834
 20
238.4736517155088
 30
0.0
 11
412.8474889660834
 21
236.6736517155087
 31
0.0
  0
LINE
  5
7C4
330
18
100
AcDbEntity
  8
外形線
100
AcDbLine
 10
420.0474889660835
 20
236.6736517155087
 30
0.0
 11
420.0474889660835
 21
238.4736517155088
 31
0.0
  0
LINE
  5
7C5
330
18
100
AcDbEntity
  8
外形線
100
AcDbLine
 10
413.0474889660834
 20
236.4736517155087
 30
0.0
 11
419.8474889660834
 21
236.4736517155087
 31
0.0
  0
LINE
  5
7C6
330
18
100
AcDbEntity
  8
外形線
100
AcDbLine
 10
412.8474889660834
 20
236.6736517155087
 30
0.0
 11
413.0474889660834
 21
236.4736517155087
 31
0.0
  0
LINE
  5
7C7
330
18
100
AcDbEntity
  8
外形線
100
AcDbLine
 10
420.0474889660835
 20
236.6736517155087
 30
0.0
 11
419.8474889660834
 21
236.4736517155087
 31
0.0
  0
LINE
  5
7C8
330
18
100
AcDbEntity
  8
外形線
100
AcDbLine
 10
412.5974889660835
 20
239.4736517155088
 30
0.0
 11
420.2974889660834
 21
239.4736517155088
 31
0.0
  0
LINE
  5
7C9
330
18
100
AcDbEntity
  8
外形線
100
AcDbLine
 10
412.8474889660835
 20
238.4736517155087
 30
0.0
 11
420.0474889660835
 21
238.4736517155088
 31
0.0
  0
LINE
  5
7CA
330
18
100
AcDbEntity
  8
外形線
100
AcDbLine
 10
412.4474889660834
 20
240.9736517155087
 30
0.0
 11
420.4474889660835
 21
240.9736517155088
 31
0.0
  0
ARC
  5
7CB
330
18
100
AcDbEntity
  8
外形線
100
AcDbCircle
 10
412.7224889660834
 20
238.9736517155088
 30
0.0
 40
0.5153882032022076
100
AcDbArc
 50
284.0362434679264
 51
104.0362434679264
  0
LINE
  5
7CC
330
18
100
AcDbEntity
  8
外形線
100
AcDbLine
 10
412.5974889660835
 20
240.9736517155088
 30
0.0
 11
412.5974889660835
 21
239.4736517155088
 31
0.0
  0
ARC
  5
7CD
330
18
100
AcDbEntity
  8
外形線
100
AcDbCircle
 10
420.1724889660835
 20
238.9736517155088
 30
0.0
 40
0.5153882032022076
100
AcDbArc
 50
75.96375653207353
 51
255.9637565320735
  0
LINE
  5
7CE
330
18
100
AcDbEntity
  8
外形線
100
AcDbLine
 10
420.2974889660834
 20
240.9736517155088
 30
0.0
 11
420.2974889660834
 21
239.4736517155088
 31
0.0
  0
LINE
  5
7D6
330
18
100
AcDbEntity
  8
中心線
 48
0.5
100
AcDbLine
 10
396.7333472064233
 20
281.4736517155088
 30
0.0
 11
428.1915248996204
 21
281.4736517155088
 31
0.0
  0
LINE
  5
833
330
18
100
AcDbEntity
  8
0
  6
ByBlock
 62
     2
100
AcDbLine
 10
325.876538051936
 20
322.9736517155088
 30
0.0
 11
280.7385741471596
 21
322.9736517155088
 31
0.0
  0
LINE
  5
835
330
18
100
AcDbEntity
  8
0
  6
ByBlock
 62
     2
100
AcDbLine
 10
289.0836107565618
 20
320.4736517155088
 30
0.0
 11
289.0836107565618
 21
283.9736517155088
 31
0.0
  0
INSERT
  5
836
330
18
100
AcDbEntity
  8
0
  6
ByBlock
 62
     2
100
AcDbBlockReference
  2
_OPEN
 10
289.0836107565618
 20
322.9736517155088
 30
0.0
 41
2.5
 42
2.5
 43
2.5
 50
90.0
  0
INSERT
  5
837
330
18
100
AcDbEntity
  8
0
  6
ByBlock
 62
     2
100
AcDbBlockReference
  2
_OPEN
 10
289.0836107565618
 20
281.4736517155088
 30
0.0
 41
2.5
 42
2.5
 43
2.5
 50
270.0
  0
MTEXT
  5
838
330
18
100
AcDbEntity
  8
0
  6
ByBlock
 62
     6
100
AcDbMText
 10
287.2086107565618
 20
302.2236517155088
 30
0.0
 40
2.5
 41
0.0
 71
     5
 72
     1
  1
\A1;41.5
  7
STYLE3
 11
0.0000000000000001
 21
1.0
 31
0.0
 73
     1
 44
1.0
  0
POINT
  5
839
330
18
100
AcDbEntity
  8
DEFPOINTS
  6
ByBlock
 62
     0
100
AcDbPoint
 10
325.876538051936
 20
322.9736517155088
 30
0.0
  0
POINT
  5
83A
330
18
100
AcDbEntity
  8
DEFPOINTS
  6
ByBlock
 62
     0
100
AcDbPoint
 10
325.876538051936
 20
281.4736517155088
 30
0.0
  0
POINT
  5
83B
330
18
100
AcDbEntity
  8
DEFPOINTS
  6
ByBlock
 62
     0
100
AcDbPoint
 10
289.0836107565618
 20
281.4736517155088
 30
0.0
  0
LINE
  5
83C
330
18
100
AcDbEntity
  8
0
  6
ByBlock
 62
     2
100
AcDbLine
 10
325.876538051936
 20
216.4736517155088
 30
0.0
 11
280.7385741471597
 21
216.4736517155088
 31
0.0
  0
LINE
  5
83D
330
18
100
AcDbEntity
  8
0
  6
ByBlock
 62
     2
100
AcDbLine
 10
289.0836107565618
 20
278.9736517155088
 30
0.0
 11
289.0836107565618
 21
218.9736517155087
 31
0.0
  0
INSERT
  5
83E
330
18
100
AcDbEntity
  8
0
  6
ByBlock
 62
     2
100
AcDbBlockReference
  2
_OPEN
 10
289.0836107565618
 20
281.4736517155088
 30
0.0
 41
2.5
 42
2.5
 43
2.5
 50
90.0
  0
INSERT
  5
83F
330
18
100
AcDbEntity
  8
0
  6
ByBlock
 62
     2
100
AcDbBlockReference
  2
_OPEN
 10
289.0836107565618
 20
216.4736517155088
 30
0.0
 41
2.5
 42
2.5
 43
2.5
 50
270.0
  0
MTEXT
  5
840
330
18
100
AcDbEntity
  8
0
  6
ByBlock
 62
     6
100
AcDbMText
 10
287.2086107565618
 20
248.9736517155088
 30
0.0
 40
2.5
 41
0.0
 71
     5
 72
     1
  1
\A1;65
  7
STYLE3
 11
0.0000000000000001
 21
1.0
 31
0.0
 73
     1
 44
1.0
  0
POINT
  5
841
330
18
100
AcDbEntity
  8
DEFPOINTS
  6
ByBlock
 62
     0
100
AcDbPoint
 10
325.876538051936
 20
281.4736517155088
 30
0.0
  0
POINT
  5
842
330
18
100
AcDbEntity
  8
DEFPOINTS
  6
ByBlock
 62
     0
100
AcDbPoint
 10
325.876538051936
 20
216.4736517155088
 30
0.0
  0
POINT
  5
843
330
18
100
AcDbEntity
  8
DEFPOINTS
  6
ByBlock
 62
     0
100
AcDbPoint
 10
289.0836107565618
 20
216.4736517155088
 30
0.0
  0
LINE
  5
846
330
18
100
AcDbEntity
  8
0
  6
ByBlock
 62
     2
100
AcDbLine
 10
281.9885741471596
 20
320.4736517155088
 30
0.0
 11
281.9885741471596
 21
218.9736517155087
 31
0.0
  0
INSERT
  5
847
330
18
100
AcDbEntity
  8
0
  6
ByBlock
 62
     2
100
AcDbBlockReference
  2
_OPEN
 10
281.9885741471596
 20
322.9736517155088
 30
0.0
 41
2.5
 42
2.5
 43
2.5
 50
90.0
  0
INSERT
  5
848
330
18
100
AcDbEntity
  8
0
  6
ByBlock
 62
     2
100
AcDbBlockReference
  2
_OPEN
 10
281.9885741471596
 20
216.4736517155088
 30
0.0
 41
2.5
 42
2.5
 43
2.5
 50
270.0
  0
MTEXT
  5
849
330
18
100
AcDbEntity
  8
0
  6
ByBlock
 62
     6
100
AcDbMText
 10
280.1135741471597
 20
269.7236517155088
 30
0.0
 40
2.5
 41
0.0
 71
     5
 72
     1
  1
\A1;106.5
  7
STYLE3
 11
0.0000000000000001
 21
1.0
 31
0.0
 73
     1
 44
1.0
  0
POINT
  5
84A
330
18
100
AcDbEntity
  8
DEFPOINTS
  6
ByBlock
 62
     0
100
AcDbPoint
 10
287.8336107565618
 20
322.9736517155088
 30
0.0
  0
POINT
  5
84B
330
18
100
AcDbEntity
  8
DEFPOINTS
  6
ByBlock
 62
     0
100
AcDbPoint
 10
287.8336107565618
 20
216.4736517155088
 30
0.0
  0
POINT
  5
84C
330
18
100
AcDbEntity
  8
DEFPOINTS
  6
ByBlock
 62
     0
100
AcDbPoint
 10
281.9885741471596
 20
216.4736517155088
 30
0.0
  0
LINE
  5
874
330
18
100
AcDbEntity
  8
0
  6
ByBlock
 62
     2
100
AcDbLine
 10
324.3765380519361
 20
246.8234240110799
 30
0.0
 11
327.376538051936
 21
246.8234240110799
 31
0.0
  0
INSERT
  5
875
330
18
100
AcDbEntity
  8
0
  6
ByBlock
 62
     2
100
AcDbBlockReference
  2
_OPEN
 10
321.8765380519361
 20
246.8234240110799
 30
0.0
 41
2.5
 42
2.5
 43
2.5
 50
180.0
  0
INSERT
  5
876
330
18
100
AcDbEntity
  8
0
  6
ByBlock
 62
     2
100
AcDbBlockReference
  2
_OPEN
 10
329.876538051936
 20
246.8234240110799
 30
0.0
 41
2.5
 42
2.5
 43
2.5
  0
MTEXT
  5
877
330
18
100
AcDbEntity
  8
0
  6
ByBlock
 62
     6
100
AcDbMText
 10
326.6876405420772
 20
248.6984240110799
 30
0.0
 40
2.5
 41
0.0
 71
     5
 72
     1
  1
8.0
  7
STYLE3
 73
     1
 44
1.0
  0
POINT
  5
878
330
18
100
AcDbEntity
  8
DEFPOINTS
  6
ByBlock
 62
     0
100
AcDbPoint
 10
321.8765380519361
 20
246.2561211338112
 30
0.0
  0
POINT
  5
879
330
18
100
AcDbEntity
  8
DEFPOINTS
  6
ByBlock
 62
     0
100
AcDbPoint
 10
329.876538051936
 20
246.0940347924655
 30
0.0
  0
POINT
  5
87A
330
18
100
AcDbEntity
  8
DEFPOINTS
  6
ByBlock
 62
     0
100
AcDbPoint
 10
329.876538051936
 20
246.8234240110799
 30
0.0
  0
LINE
  5
87B
330
18
100
AcDbEntity
  8
0
  6
ByBlock
 62
     2
100
AcDbLine
 10
321.376538051936
 20
229.5612052232449
 30
0.0
 11
320.4987422289523
 21
229.5612052232449
 31
0.0
  0
LINE
  5
87C
330
18
100
AcDbEntity
  8
0
  6
ByBlock
 62
     2
100
AcDbLine
 10
330.3765380519359
 20
229.5612052232449
 30
0.0
 11
334.9042942772886
 21
229.5612052232449
 31
0.0
  0
LINE
  5
87D
330
18
100
AcDbEntity
  8
0
  6
ByBlock
 62
     2
100
AcDbLine
 10
323.8765380519361
 20
229.5612052232449
 30
0.0
 11
327.8765380519359
 21
229.5612052232449
 31
0.0
  0
INSERT
  5
87E
330
18
100
AcDbEntity
  8
0
  6
ByBlock
 62
     2
100
AcDbBlockReference
  2
_OPEN
 10
323.8765380519361
 20
229.5612052232449
 30
0.0
 41
2.5
 42
2.5
 43
2.5
  0
INSERT
  5
87F
330
18
100
AcDbEntity
  8
0
  6
ByBlock
 62
     2
100
AcDbBlockReference
  2
_OPEN
 10
327.8765380519359
 20
229.5612052232449
 30
0.0
 41
2.5
 42
2.5
 43
2.5
 50
180.0
  0
MTEXT
  5
880
330
18
100
AcDbEntity
  8
0
  6
ByBlock
 62
     6
100
AcDbMText
 10
333.3386816038463
 20
231.4362052232449
 30
0.0
 40
2.5
 41
0.0
 71
     5
 72
     1
  1
\A1;4
  7
STYLE3
 73
     1
 44
1.0
  0
POINT
  5
881
330
18
100
AcDbEntity
  8
DEFPOINTS
  6
ByBlock
 62
     0
100
AcDbPoint
 10
323.8765380519361
 20
230.2095514987061
 30
0.0
  0
POINT
  5
882
330
18
100
AcDbEntity
  8
DEFPOINTS
  6
ByBlock
 62
     0
100
AcDbPoint
 10
327.8765380519359
 20
230.1285081005137
 30
0.0
  0
POINT
  5
883
330
18
100
AcDbEntity
  8
DEFPOINTS
  6
ByBlock
 62
     0
100
AcDbPoint
 10
327.8765380519359
 20
229.5612052232449
 30
0.0
  0
TEXT
  5
884
330
18
100
AcDbEntity
  8
文字
100
AcDbText
 10
330.1445493461596
 20
230.9389411723598
 30
0.0
 40
2.5
  1
φ
  7
STYLE3
100
AcDbText
  0
TEXT
  5
885
330
18
100
AcDbEntity
  8
文字
100
AcDbText
 10
321.7803504694134
 20
249.0106150243663
 30
0.0
 40
2.5
  1
φ
  7
STYLE3
100
AcDbText
  0
MTEXT
  5
887
330
18
100
AcDbEntity
  8
文字
100
AcDbMText
 10
302.9558756866726
 20
261.6432165871282
 30
0.0
 40
1.0
 41
6.927999999999999
 71
     1
 72
     5
  1

  7
STYLE3
 73
     1
 44
1.0
  0
LINE
  5
8FD
330
18
100
AcDbEntity
  8
0
  6
ByBlock
 62
     2
100
AcDbLine
 10
414.1974889660835
 20
225.4736517155087
 30
0.0
 11
389.6684431009409
 21
225.4736517155087
 31
0.0
  0
LINE
  5
8FF
330
18
100
AcDbEntity
  8
0
  6
ByBlock
 62
     2
100
AcDbLine
 10
390.9184431009409
 20
222.9736517155088
 30
0.0
 11
390.9184431009409
 21
218.9736517155087
 31
0.0
  0
INSERT
  5
900
330
18
100
AcDbEntity
  8
0
  6
ByBlock
 62
     2
100
AcDbBlockReference
  2
_OPEN
 10
390.9184431009409
 20
225.4736517155087
 30
0.0
 41
2.5
 42
2.5
 43
2.5
 50
90.0
  0
INSERT
  5
901
330
18
100
AcDbEntity
  8
0
  6
ByBlock
 62
     2
100
AcDbBlockReference
  2
_OPEN
 10
390.9184431009409
 20
216.4736517155088
 30
0.0
 41
2.5
 42
2.5
 43
2.5
 50
270.0
  0
MTEXT
  5
902
330
18
100
AcDbEntity
  8
0
  6
ByBlock
 62
     6
100
AcDbMText
 10
389.0434431009409
 20
220.9736517155088
 30
0.0
 40
2.5
 41
0.0
 71
     5
 72
     1
  1
\A1;9
  7
STYLE3
 11
0.0000000000000001
 21
1.0
 31
0.0
 73
     1
 44
1.0
  0
POINT
  5
903
330
18
100
AcDbEntity
  8
DEFPOINTS
  6
ByBlock
 62
     0
100
AcDbPoint
 10
414.1974889660835
 20
225.4736517155087
 30
0.0
  0
LINE
  5
907
330
18
100
AcDbEntity
  8
0
  6
ByBlock
 62
     2
100
AcDbLine
 10
412.4474889660834
 20
240.9736517155087
 30
0.0
 11
400.9032907749697
 21
240.9736517155087
 31
0.0
  0
LINE
  5
908
330
18
100
AcDbEntity
  8
0
  6
ByBlock
 62
     2
100
AcDbLine
 10
402.1532907749696
 20
252.5736517155088
 30
0.0
 11
402.1532907749696
 21
243.4736517155087
 31
0.0
  0
INSERT
  5
909
330
18
100
AcDbEntity
  8
0
  6
ByBlock
 62
     2
100
AcDbBlockReference
  2
_OPEN
 10
402.1532907749696
 20
255.0736517155088
 30
0.0
 41
2.5
 42
2.5
 43
2.5
 50
90.0
  0
INSERT
  5
90A
330
18
100
AcDbEntity
  8
0
  6
ByBlock
 62
     2
100
AcDbBlockReference
  2
_OPEN
 10
402.1532907749696
 20
240.9736517155087
 30
0.0
 41
2.5
 42
2.5
 43
2.5
 50
270.0
  0
MTEXT
  5
90B
330
18
100
AcDbEntity
  8
0
  6
ByBlock
 62
     6
100
AcDbMText
 10
400.2782907749696
 20
248.0236517155088
 30
0.0
 40
2.5
 41
0.0
 71
     5
 72
     1
  1
14
  7
STYLE3
 11
0.0000000000000001
 21
1.0
 31
0.0
 73
     1
 44
1.0
  0
POINT
  5
90D
330
18
100
AcDbEntity
  8
DEFPOINTS
  6
ByBlock
 62
     0
100
AcDbPoint
 10
412.4474889660834
 20
240.9736517155087
 30
0.0
  0
POINT
  5
90E
330
18
100
AcDbEntity
  8
DEFPOINTS
  6
ByBlock
 62
     0
100
AcDbPoint
 10
402.1532907749696
 20
240.9736517155087
 30
0.0
  0
LINE
  5
910
330
18
100
AcDbEntity
  8
0
  6
ByBlock
 62
     2
100
AcDbLine
 10
413.0474889660834
 20
236.4736517155087
 30
0.0
 11
389.6684431009409
 21
236.4736517155087
 31
0.0
  0
LINE
  5
911
330
18
100
AcDbEntity
  8
0
  6
ByBlock
 62
     2
100
AcDbLine
 10
390.9184431009409
 20
252.5736517155088
 30
0.0
 11
390.9184431009409
 21
238.9736517155087
 31
0.0
  0
INSERT
  5
912
330
18
100
AcDbEntity
  8
0
  6
ByBlock
 62
     2
100
AcDbBlockReference
  2
_OPEN
 10
390.9184431009409
 20
255.0736517155088
 30
0.0
 41
2.5
 42
2.5
 43
2.5
 50
90.0
  0
INSERT
  5
913
330
18
100
AcDbEntity
  8
0
  6
ByBlock
 62
     2
100
AcDbBlockReference
  2
_OPEN
 10
390.9184431009409
 20
236.4736517155087
 30
0.0
 41
2.5
 42
2.5
 43
2.5
 50
270.0
  0
MTEXT
  5
914
330
18
100
AcDbEntity
  8
0
  6
ByBlock
 62
     6
100
AcDbMText
 10
389.0434431009409
 20
245.7736517155088
 30
0.0
 40
2.5
 41
0.0
 71
     5
 72
     1
  1
18.5
  7
STYLE3
 11
0.0000000000000001
 21
1.0
 31
0.0
 73
     1
 44
1.0
  0
POINT
  5
916
330
18
100
AcDbEntity
  8
DEFPOINTS
  6
ByBlock
 62
     0
100
AcDbPoint
 10
413.0474889660834
 20
236.4736517155087
 30
0.0
  0
POINT
  5
917
330
18
100
AcDbEntity
  8
DEFPOINTS
  6
ByBlock
 62
     0
100
AcDbPoint
 10
390.9184431009409
 20
236.4736517155087
 30
0.0
  0
TEXT
  5
93E
330
18
100
AcDbEntity
  8
文字
100
AcDbText
 10
449.6294715751384
 20
275.4716491747152
 30
0.0
 40
2.5
  1
φ
 50
90.0
  7
STYLE3
100
AcDbText
  0
LWPOLYLINE
  5
96E
330
18
100
AcDbEntity
  8
C
100
AcDbPolyline
 90
        5
 70
     0
 43
0.4
 10
236.6915604445414
 20
366.8501752555372
 10
491.6915604445414
 20
366.8501752555372
 10
491.6915604445414
 20
171.8501752555372
 10
236.6915604445414
 20
171.8501752555372
 10
236.6915604445414
 20
366.8501752555372
  0
MTEXT
  5
EB4
330
18
100
AcDbEntity
  8
DEFPOINTS
  6
Continuous
100
AcDbMText
 10
624.6916853418142
 20
184.890767874579
 30
0.0
 40
0.35
 41
0.0
 71
     4
 72
     1
  1
\A1;
 73
     1
 44
1.0
  0
LINE
  5
EB5
102
{ACAD_REACTORS
330
EF3
102
}
330
18
100
AcDbEntity
  8
ROGO
 62
     4
100
AcDbLine
 10
319.2091619370942
 20
290.8386183566152
 30
0.0
 11
320.8216602500794
 21
290.8386183566152
 31
0.0
  0
LINE
  5
EB6
102
{ACAD_REACTORS
330
EF2
330
EF3
102
}
330
18
100
AcDbEntity
  8
ROGO
 62
     4
100
AcDbLine
 10
318.1939113970015
 20
288.7867395717093
 30
0.0
 11
332.0830886640254
 21
288.7867395717093
 31
0.0
  0
LINE
  5
EB7
102
{ACAD_REACTORS
330
EF3
102
}
330
18
100
AcDbEntity
  8
ROGO
 62
     4
100
AcDbLine
 10
319.2091619370942
 20
290.8386183566152
 30
0.0
 11
318.1939113970015
 21
288.7867395717092
 31
0.0
  0
SPLINE
  5
EB8
102
{ACAD_REACTORS
330
EF3
102
}
330
18
100
AcDbEntity
  8
ROGO
 62
     4
100
AcDbSpline
210
0.0
220
0.0
230
1.0
 70
     8
 71
     3
 72
    18
 73
    14
 74
     0
 42
0.0000000001
 43
0.0000000001
 40
0.1087402787915014
 40
0.1087402787915014
 40
0.1087402787915014
 40
0.1087402787915014
 40
0.5992371417938475
 40
1.083176791562496
 40
1.448211145705696
 40
1.714037220764907
 40
2.164002567013297
 40
2.740236056362883
 40
3.395137510199602
 40
4.071816045172726
 40
4.784906178399433
 40
5.506895915094292
 40
6.060470601257719
 40
6.060470601257719
 40
6.060470601257719
 40
6.060470601257719
 10
320.8216602500794
 20
290.8386183566153
 30
0.0
 10
320.8733197877155
 20
290.8196860017676
 30
0.0
 10
320.9749077355659
 20
290.7796601104523
 30
0.0
 10
321.0988929711131
 20
290.6883078006609
 30
0.0
 10
321.1665091650378
 20
290.5828490234882
 30
0.0
 10
321.2315483735809
 20
290.4789382811853
 30
0.0
 10
321.2406504920918
 20
290.3298607470289
 30
0.0
 10
321.2257406070447
 20
290.1413906114571
 30
0.0
 10
321.1294837361686
 20
289.9447414739364
 30
0.0
 10
320.9749857970872
 20
289.7727444431346
 30
0.0
 10
320.7831658239942
 20
289.6350802627929
 30
0.0
 10
320.5808850458869
 20
289.5270174262975
 30
0.0
 10
320.4362946888334
 20
289.5259407056889
 30
0.0
 10
320.3735447719387
 20
289.5254734260578
 30
0.0
  0
LINE
  5
EB9
102
{ACAD_REACTORS
330
EF3
102
}
330
18
100
AcDbEntity
  8
ROGO
 62
     4
100
AcDbLine
 10
320.3735447722478
 20
289.5254734260578
 30
0.0
 11
319.4819365037665
 21
289.5254734260578
 31
0.0
  0
LINE
  5
EBA
102
{ACAD_REACTORS
330
EF3
102
}
330
18
100
AcDbEntity
  8
ROGO
 62
     4
100
AcDbLine
 10
319.8462987924341
 20
290.3308214454019
 30
0.0
 11
319.6883009960767
 21
289.9815997605165
 31
0.0
  0
SPLINE
  5
EBB
102
{ACAD_REACTORS
330
EF3
102
}
330
18
100
AcDbEntity
  8
ROGO
 62
     4
100
AcDbSpline
210
0.0
220
0.0
230
1.0
 70
     8
 71
     3
 72
    15
 73
    11
 74
     9
 42
0.0000000001
 43
0.0000000001
 44
0.0000000001
 40
0.0
 40
0.0
 40
0.0
 40
0.0
 40
0.1539705029175028
 40
0.2241725832587281
 40
0.3038566179396687
 40
0.3581410872474193
 40
0.443992538467216
 40
0.4954152125469665
 40
0.5836396705646186
 40
0.6130478420065743
 40
0.6130478420065743
 40
0.6130478420065743
 40
0.6130478420065743
 10
320.2522857915315
 20
290.3308214454019
 30
0.0
 10
320.3101141265908
 20
290.3310863300443
 30
0.0
 10
320.3943090016489
 20
290.331471987514
 30
0.0
 10
320.4403497580134
 20
290.2273226835845
 30
0.0
 10
320.4197120957799
 20
290.1602667789471
 30
0.0
 10
320.3937688723558
 20
290.0914212646993
 30
0.0
 10
320.3479213208134
 20
290.0446396994301
 30
0.0
 10
320.2863871912184
 20
289.999581165793
 30
0.0
 10
320.2282344981625
 20
289.9941266285335
 30
0.0
 10
320.1904126991899
 20
289.9841051350794
 30
0.0
 10
320.1809572449207
 20
289.9815997605165
 30
0.0
 11
320.2522857915315
 21
290.3308214454019
 31
0.0
 11
320.4020758624603
 21
290.295186484762
 31
0.0
 11
320.4306073631353
 21
290.2310437879566
 31
0.0
 11
320.4163418178745
 21
290.1526471068952
 31
0.0
 11
320.3949432949066
 21
290.1027581619993
 31
0.0
 11
320.3378802935566
 21
290.038615465194
 31
0.0
 11
320.2950832476207
 21
290.0101074966821
 31
0.0
 11
320.2094887455957
 21
289.9887267526445
 31
0.0
 11
320.1809572449207
 21
289.9815997605165
 31
0.0
  0
LINE
  5
EBC
102
{ACAD_REACTORS
330
EF3
102
}
330
18
100
AcDbEntity
  8
ROGO
 62
     4
100
AcDbLine
 10
320.2522857915316
 20
290.3308214454019
 30
0.0
 11
319.8462987924341
 21
290.3308214454019
 31
0.0
  0
LINE
  5
EBD
102
{ACAD_REACTORS
330
EF3
102
}
330
18
100
AcDbEntity
  8
ROGO
 62
     4
100
AcDbLine
 10
320.1809572449207
 20
289.9815997605165
 30
0.0
 11
319.6883009960767
 21
289.9815997605165
 31
0.0
  0
LINE
  5
EBE
102
{ACAD_REACTORS
330
EF3
102
}
330
18
100
AcDbEntity
  8
ROGO
 62
     4
100
AcDbLine
 10
319.4819365037665
 20
289.5254734260578
 30
0.0
 11
319.1477123529381
 21
288.7867395717093
 31
0.0
  0
LINE
  5
EBF
102
{ACAD_REACTORS
330
EEE
102
}
330
18
100
AcDbEntity
  8
ROGO
 62
     4
100
AcDbLine
 10
321.774284243285
 20
290.8386183566152
 30
0.0
 11
321.1245523440249
 21
289.5254734260578
 31
0.0
  0
LINE
  5
EC0
102
{ACAD_REACTORS
330
EEE
102
}
330
18
100
AcDbEntity
  8
ROGO
 62
     4
100
AcDbLine
 10
323.5503673917689
 20
290.8386183566152
 30
0.0
 11
323.4015331960343
 21
290.5378160259232
 31
0.0
  0
LINE
  5
EC1
102
{ACAD_REACTORS
330
EEE
102
}
330
18
100
AcDbEntity
  8
ROGO
 62
     4
100
AcDbLine
 10
321.1245523440249
 20
289.5254734260578
 30
0.0
 11
322.9006354925088
 21
289.5254734260578
 31
0.0
  0
LINE
  5
EC2
102
{ACAD_REACTORS
330
EEE
102
}
330
18
100
AcDbEntity
  8
ROGO
 62
     4
100
AcDbLine
 10
322.4680687738163
 20
290.5378160259232
 30
0.0
 11
322.3516989277399
 21
290.302625982739
 31
0.0
  0
LINE
  5
EC3
102
{ACAD_REACTORS
330
EEE
102
}
330
18
100
AcDbEntity
  8
ROGO
 62
     4
100
AcDbLine
 10
322.4680687738163
 20
290.5378160259232
 30
0.0
 11
323.4015331960343
 21
290.5378160259232
 31
0.0
  0
LINE
  5
EC4
102
{ACAD_REACTORS
330
EEE
102
}
330
18
100
AcDbEntity
  8
ROGO
 62
     4
100
AcDbLine
 10
322.3516989277399
 20
290.302625982739
 30
0.0
 11
323.2851633499578
 21
290.302625982739
 31
0.0
  0
LINE
  5
EC5
102
{ACAD_REACTORS
330
EEE
102
}
330
18
100
AcDbEntity
  8
ROGO
 62
     4
100
AcDbLine
 10
322.1159977794997
 20
289.8262606260578
 30
0.0
 11
323.0494622017176
 21
289.8262606260578
 31
0.0
  0
LINE
  5
EC6
102
{ACAD_REACTORS
330
EEE
102
}
330
18
100
AcDbEntity
  8
ROGO
 62
     4
100
AcDbLine
 10
322.232372552116
 20
290.0614606260578
 30
0.0
 11
323.1658369743339
 21
290.0614606260578
 31
0.0
  0
LINE
  5
EC7
102
{ACAD_REACTORS
330
EEE
102
}
330
18
100
AcDbEntity
  8
ROGO
 62
     4
100
AcDbLine
 10
323.2851633499578
 20
290.302625982739
 30
0.0
 11
323.1658369743339
 21
290.0614606260578
 31
0.0
  0
LINE
  5
EC8
102
{ACAD_REACTORS
330
EEE
102
}
330
18
100
AcDbEntity
  8
ROGO
 62
     4
100
AcDbLine
 10
323.0494622017176
 20
289.8262606260578
 30
0.0
 11
322.9006354925088
 21
289.5254734260578
 31
0.0
  0
LINE
  5
EC9
102
{ACAD_REACTORS
330
EEE
102
}
330
18
100
AcDbEntity
  8
ROGO
 62
     4
100
AcDbLine
 10
322.232372552116
 20
290.0614606260578
 30
0.0
 11
322.1159977794997
 21
289.8262606260578
 31
0.0
  0
LINE
  5
ECA
102
{ACAD_REACTORS
330
EF7
102
}
330
18
100
AcDbEntity
  8
ROGO
 62
     4
100
AcDbLine
 10
324.0648616569666
 20
290.8386183566152
 30
0.0
 11
323.1179273268675
 21
289.5254734260578
 31
0.0
  0
LINE
  5
ECB
102
{ACAD_REACTORS
330
EF7
102
}
330
18
100
AcDbEntity
  8
ROGO
 62
     4
100
AcDbLine
 10
324.5389895135982
 20
290.4876093796635
 30
0.0
 11
324.215622777285
 21
290.0391861078446
 31
0.0
  0
LINE
  5
ECC
102
{ACAD_REACTORS
330
EF7
102
}
330
18
100
AcDbEntity
  8
ROGO
 62
     4
100
AcDbLine
 10
324.02546501614
 20
289.7754880961486
 30
0.0
 11
324.8553420049243
 21
289.7754880961486
 31
0.0
  0
LINE
  5
ECD
102
{ACAD_REACTORS
330
EF7
102
}
330
18
100
AcDbEntity
  8
ROGO
 62
     4
100
AcDbLine
 10
324.215622777285
 20
290.0391861078447
 30
0.0
 11
324.7381968993237
 21
290.0391861078447
 31
0.0
  0
LINE
  5
ECE
102
{ACAD_REACTORS
330
EF7
102
}
330
18
100
AcDbEntity
  8
ROGO
 62
     4
100
AcDbLine
 10
324.02546501614
 20
289.7754880961486
 30
0.0
 11
323.8451745785591
 21
289.5254734260578
 31
0.0
  0
LINE
  5
ECF
102
{ACAD_REACTORS
330
EF7
102
}
330
18
100
AcDbEntity
  8
ROGO
 62
     4
100
AcDbLine
 10
323.1179273268675
 20
289.5254734260578
 30
0.0
 11
323.845174578559
 21
289.5254734260578
 31
0.0
  0
LINE
  5
ED0
102
{ACAD_REACTORS
330
EF7
102
}
330
18
100
AcDbEntity
  8
ROGO
 62
     4
100
AcDbLine
 10
324.0648616569666
 20
290.8386183566152
 30
0.0
 11
325.115265139738
 21
290.8386183566153
 31
0.0
  0
LINE
  5
ED1
102
{ACAD_REACTORS
330
EF7
102
}
330
18
100
AcDbEntity
  8
ROGO
 62
     4
100
AcDbLine
 10
325.6986161501213
 20
289.5254734260578
 30
0.0
 11
324.9664084279932
 21
289.5254734260578
 31
0.0
  0
LINE
  5
ED2
102
{ACAD_REACTORS
330
EEF
102
}
330
18
100
AcDbEntity
  8
ROGO
 62
     4
100
AcDbLine
 10
326.0582355651271
 20
289.5254734260578
 30
0.0
 11
327.1892645801318
 21
289.5254734260578
 31
0.0
  0
LINE
  5
ED3
102
{ACAD_REACTORS
330
EEF
102
}
330
18
100
AcDbEntity
  8
ROGO
 62
     4
100
AcDbLine
 10
327.844041053141
 20
290.8386183566152
 30
0.0
 11
327.6004217526004
 21
290.3500433043984
 31
0.0
  0
LINE
  5
ED4
102
{ACAD_REACTORS
330
EEF
102
}
330
18
100
AcDbEntity
  8
ROGO
 62
     4
100
AcDbLine
 10
326.7786548292492
 20
290.3500433043984
 30
0.0
 11
327.6004217526004
 21
290.3500433043984
 31
0.0
  0
LINE
  5
ED5
102
{ACAD_REACTORS
330
EEF
102
}
330
18
100
AcDbEntity
  8
ROGO
 62
     4
100
AcDbLine
 10
326.5932002799384
 20
290.0140433043984
 30
0.0
 11
327.4328813008105
 21
290.0140433043984
 31
0.0
  0
SPLINE
  5
ED6
102
{ACAD_REACTORS
330
EEF
102
}
330
18
100
AcDbEntity
  8
ROGO
 62
     4
100
AcDbSpline
210
0.0
220
0.0
230
1.0
 70
     8
 71
     3
 72
    26
 73
    22
 74
    20
 42
0.0000000001
 43
0.0000000001
 44
0.0000000001
 40
0.0
 40
0.0
 40
0.0
 40
0.0
 40
0.2382195346591896
 40
0.397689067266058
 40
0.5126795869787669
 40
0.5985392873135731
 40
0.7099038249249733
 40
0.7911890807494741
 40
0.9379713068543702
 40
1.057449928673087
 40
1.138714535893316
 40
1.218398644003506
 40
1.36093802187036
 40
1.461730374800257
 40
1.516014844108008
 40
1.593124329220501
 40
1.648806818593631
 40
1.729472362005518
 40
1.775122082164342
 40
1.874460993765092
 40
1.919820003751207
 40
1.919820003751207
 40
1.919820003751207
 40
1.919820003751207
 10
326.5290047110347
 20
290.8386183566152
 30
0.0
 10
326.4481493202761
 20
290.8337943853501
 30
0.0
 10
326.3131675062101
 20
290.8257411388534
 30
0.0
 10
326.1649582954984
 20
290.7357056349951
 30
0.0
 10
326.0563715510881
 20
290.6833629496526
 30
0.0
 10
325.9789276166639
 20
290.612207528233
 30
0.0
 10
325.9221608987964
 20
290.5387091757118
 30
0.0
 10
325.8505957940988
 20
290.4511364275864
 30
0.0
 10
325.792236496193
 20
290.3491615061218
 30
0.0
 10
325.7625176536598
 20
290.2367673650585
 30
0.0
 10
325.7361929850061
 20
290.1471885824994
 30
0.0
 10
325.716670170033
 20
290.0473647196072
 30
0.0
 10
325.7216373268461
 20
289.9395198314848
 30
0.0
 10
325.7287505227305
 20
289.839359020481
 30
0.0
 10
325.7605092126545
 20
289.7678591975544
 30
0.0
 10
325.7966767350446
 20
289.7169562506249
 30
0.0
 10
325.8409633708994
 20
289.6608922979263
 30
0.0
 10
325.8894226352169
 20
289.623761323596
 30
0.0
 10
325.9295024023274
 20
289.5564960684554
 30
0.0
 10
325.9996606825899
 20
289.5479125367793
 30
0.0
 10
326.0442560766657
 20
289.5308287469023
 30
0.0
 10
326.0582355651272
 20
289.5254734260578
 30
0.0
 11
326.5290047110347
 21
290.8386183566152
 31
0.0
 11
326.2936201380809
 21
290.8019761745215
 31
0.0
 11
326.1509626347059
 21
290.7307064855881
 31
0.0
 11
326.05110258742
 21
290.6736907809107
 31
0.0
 11
325.9869070185163
 21
290.6166748438869
 31
0.0
 11
325.9155784719055
 21
290.5311511706975
 31
0.0
 11
325.8656484482626
 21
290.4670084738921
 31
0.0
 11
325.7943194914984
 21
290.3387228479349
 31
0.0
 11
325.7586554232696
 21
290.2246912062337
 31
0.0
 11
325.7372569003018
 21
290.1462945251722
 31
0.0
 11
325.7229909448875
 21
290.0678978441109
 31
0.0
 11
325.7229909448875
 21
289.925358466244
 31
0.0
 11
325.7372569003018
 21
289.8255808087987
 31
0.0
 11
325.7586554232696
 21
289.7756918639029
 31
0.0
 11
325.8014524692054
 21
289.7115491670974
 31
0.0
 11
325.8371169475875
 21
289.6687872143296
 31
0.0
 11
325.8941795387841
 21
289.6117715096521
 31
0.0
 11
325.9227110394592
 21
289.5761365490122
 31
0.0
 11
326.0154385191913
 21
289.5405018207187
 31
0.0
 11
326.0582355651272
 21
289.5254734260578
 31
0.0
  0
SPLINE
  5
ED7
102
{ACAD_REACTORS
330
EEF
102
}
330
18
100
AcDbEntity
  8
ROGO
 62
     4
100
AcDbSpline
210
0.0
220
0.0
230
1.0
 70
     8
 71
     3
 72
    16
 73
    12
 74
    10
 42
0.0000000001
 43
0.0000000001
 44
0.0000000001
 40
0.0
 40
0.0
 40
0.0
 40
0.0
 40
0.1255907025629711
 40
0.1869327038470372
 40
0.2171823804790188
 40
0.2490606136884497
 40
0.2947101524738226
 40
0.3362763310931653
 40
0.3796288870083566
 40
0.452312579561098
 40
0.5242542460842631
 40
0.5242542460842631
 40
0.5242542460842631
 40
0.5242542460842631
 10
326.7786548292493
 20
290.3500433043984
 30
0.0
 10
326.7361241216279
 20
290.3435592110945
 30
0.0
 10
326.6728202304166
 20
290.3339081058089
 30
0.0
 10
326.6155744790253
 20
290.2885929988332
 30
0.0
 10
326.5832918499013
 20
290.2616335265167
 30
0.0
 10
326.5723091556496
 20
290.2259315323345
 30
0.0
 10
326.5428130877891
 20
290.198517881299
 30
0.0
 10
326.5184999379118
 20
290.1608427005827
 30
0.0
 10
326.5126945088501
 20
290.1090952296237
 30
0.0
 10
326.5169558266977
 20
290.0364755404863
 30
0.0
 10
326.5678725412668
 20
290.0214950964869
 30
0.0
 10
326.5932002799385
 20
290.0140433043984
 30
0.0
 11
326.7786548292493
 21
290.3500433043984
 31
0.0
 11
326.6573962589955
 21
290.317341871551
 31
0.0
 11
326.6074662353526
 21
290.2817071432575
 31
0.0
 11
326.5860677123848
 21
290.2603261668734
 31
0.0
 11
326.5718017569705
 21
290.2318181983616
 31
0.0
 11
326.5432702562955
 21
290.1961834700681
 31
0.0
 11
326.5218717333275
 21
290.1605485094282
 31
0.0
 11
326.5147387556205
 21
290.1177867890067
 31
0.0
 11
326.5290047110347
 21
290.046516867727
 31
0.0
 11
326.5932002799385
 21
290.0140433043984
 31
0.0
  0
LINE
  5
ED8
102
{ACAD_REACTORS
330
EEF
102
}
330
18
100
AcDbEntity
  8
ROGO
 62
     4
100
AcDbLine
 10
327.4328813008105
 20
290.0140433043984
 30
0.0
 11
327.1892645801318
 21
289.5254734260578
 31
0.0
  0
LINE
  5
ED9
102
{ACAD_REACTORS
330
EEF
102
}
330
18
100
AcDbEntity
  8
ROGO
 62
     4
100
AcDbLine
 10
326.5290047110351
 20
290.8386183566153
 30
0.0
 11
327.844041053141
 21
290.8386183566153
 31
0.0
  0
LINE
  5
EDA
102
{ACAD_REACTORS
330
EF0
102
}
330
18
100
AcDbEntity
  8
ROGO
 62
     4
100
AcDbLine
 10
330.2893053360549
 20
289.5254734260578
 30
0.0
 11
331.4203343510596
 21
289.5254734260578
 31
0.0
  0
LINE
  5
EDB
102
{ACAD_REACTORS
330
EF0
102
}
330
18
100
AcDbEntity
  8
ROGO
 62
     4
100
AcDbLine
 10
330.7600744819629
 20
290.8386183566152
 30
0.0
 11
332.0751108240688
 21
290.8386183566152
 31
0.0
  0
SPLINE
  5
EDC
102
{ACAD_REACTORS
330
EF0
102
}
330
18
100
AcDbEntity
  8
ROGO
 62
     4
100
AcDbSpline
210
0.0
220
0.0
230
1.0
 70
     8
 71
     3
 72
    16
 73
    12
 74
    10
 42
0.0000000001
 43
0.0000000001
 44
0.0000000001
 40
0.0
 40
0.0
 40
0.0
 40
0.0
 40
0.1255907025629163
 40
0.1869327038470616
 40
0.217182380479003
 40
0.2490606136884339
 40
0.2947101524738157
 40
0.3362763310931585
 40
0.3796288870082937
 40
0.4523125795610796
 40
0.5242542460842448
 40
0.5242542460842448
 40
0.5242542460842448
 40
0.5242542460842448
 10
331.0097246001771
 20
290.3500433043984
 30
0.0
 10
330.9671938925557
 20
290.3435592110944
 30
0.0
 10
330.9038900013443
 20
290.3339081058089
 30
0.0
 10
330.8466442499532
 20
290.2885929988332
 30
0.0
 10
330.8143616208292
 20
290.2616335265167
 30
0.0
 10
330.8033789265774
 20
290.2259315323345
 30
0.0
 10
330.773882858717
 20
290.1985178812989
 30
0.0
 10
330.7495697088397
 20
290.1608427005827
 30
0.0
 10
330.7437642797779
 20
290.1090952296236
 30
0.0
 10
330.7480255976254
 20
290.0364755404863
 30
0.0
 10
330.7989423121946
 20
290.0214950964869
 30
0.0
 10
330.8242700508663
 20
290.0140433043983
 30
0.0
 11
331.0097246001771
 21
290.3500433043984
 31
0.0
 11
330.8884660299234
 21
290.317341871551
 31
0.0
 11
330.8385360062804
 21
290.2817071432574
 31
0.0
 11
330.8171374833126
 21
290.2603261668734
 31
0.0
 11
330.8028715278983
 21
290.2318181983616
 31
0.0
 11
330.7743400272234
 21
290.1961834700681
 31
0.0
 11
330.7529415042554
 21
290.1605485094282
 31
0.0
 11
330.7458085265484
 21
290.1177867890067
 31
0.0
 11
330.7600744819625
 21
290.0465168677269
 31
0.0
 11
330.8242700508663
 21
290.0140433043983
 31
0.0
  0
SPLINE
  5
EDD
102
{ACAD_REACTORS
330
EF0
102
}
330
18
100
AcDbEntity
  8
ROGO
 62
     4
100
AcDbSpline
210
0.0
220
0.0
230
1.0
 70
     8
 71
     3
 72
    26
 73
    22
 74
    20
 42
0.0000000001
 43
0.0000000001
 44
0.0000000001
 40
0.0
 40
0.0
 40
0.0
 40
0.0
 40
0.2382195346591896
 40
0.397689067266058
 40
0.5126795869787176
 40
0.5985392873135238
 40
0.7099038249250041
 40
0.7911890807494602
 40
0.9379713068544059
 40
1.057449928673177
 40
1.138714535893296
 40
1.218398644003487
 40
1.36093802187034
 40
1.461730374800238
 40
1.51601484410804
 40
1.593124329220486
 40
1.648806818593696
 40
1.729472362005543
 40
1.775122082164332
 40
1.874460993765135
 40
1.919820003751196
 40
1.919820003751196
 40
1.919820003751196
 40
1.919820003751196
 10
330.7600744819625
 20
290.8386183566152
 30
0.0
 10
330.6792190912039
 20
290.8337943853501
 30
0.0
 10
330.544237277138
 20
290.8257411388535
 30
0.0
 10
330.3960280664262
 20
290.7357056349951
 30
0.0
 10
330.287441322016
 20
290.6833629496526
 30
0.0
 10
330.2099973875918
 20
290.612207528233
 30
0.0
 10
330.1532306697243
 20
290.5387091757118
 30
0.0
 10
330.0816655650266
 20
290.4511364275863
 30
0.0
 10
330.0233062671207
 20
290.3491615061217
 30
0.0
 10
329.9935874245876
 20
290.2367673650584
 30
0.0
 10
329.9672627559339
 20
290.1471885824996
 30
0.0
 10
329.9477399409608
 20
290.047364719607
 30
0.0
 10
329.9527070977738
 20
289.9395198314849
 30
0.0
 10
329.9598202936584
 20
289.839359020481
 30
0.0
 10
329.9915789835822
 20
289.7678591975543
 30
0.0
 10
330.0277465059725
 20
289.7169562506251
 30
0.0
 10
330.0720331418272
 20
289.6608922979262
 30
0.0
 10
330.1204924061448
 20
289.623761323596
 30
0.0
 10
330.1605721732553
 20
289.5564960684554
 30
0.0
 10
330.2307304535179
 20
289.5479125367793
 30
0.0
 10
330.2753258475936
 20
289.5308287469022
 30
0.0
 10
330.289305336055
 20
289.5254734260578
 30
0.0
 11
330.7600744819625
 21
290.8386183566152
 31
0.0
 11
330.5246899090087
 21
290.8019761745215
 31
0.0
 11
330.3820324056337
 21
290.7307064855881
 31
0.0
 11
330.2821723583479
 21
290.6736907809107
 31
0.0
 11
330.2179767894442
 21
290.6166748438869
 31
0.0
 11
330.1466482428334
 21
290.5311511706975
 31
0.0
 11
330.0967182191904
 21
290.4670084738921
 31
0.0
 11
330.0253892624262
 21
290.3387228479348
 31
0.0
 11
329.9897251941974
 21
290.2246912062336
 31
0.0
 11
329.9683266712296
 21
290.1462945251722
 31
0.0
 11
329.9540607158153
 21
290.0678978441109
 31
0.0
 11
329.9540607158153
 21
289.925358466244
 31
0.0
 11
329.9683266712296
 21
289.8255808087987
 31
0.0
 11
329.9897251941974
 21
289.7756918639029
 31
0.0
 11
330.0325222401332
 21
289.7115491670974
 31
0.0
 11
330.0681867185155
 21
289.6687872143295
 31
0.0
 11
330.125249309712
 21
289.6117715096521
 31
0.0
 11
330.1537808103871
 21
289.5761365490122
 31
0.0
 11
330.2465082901192
 21
289.5405018207187
 31
0.0
 11
330.289305336055
 21
289.5254734260578
 31
0.0
  0
LINE
  5
EDE
102
{ACAD_REACTORS
330
EF0
102
}
330
18
100
AcDbEntity
  8
ROGO
 62
     4
100
AcDbLine
 10
331.6639510717384
 20
290.0140433043984
 30
0.0
 11
331.4203343510596
 21
289.5254734260578
 31
0.0
  0
LINE
  5
EDF
102
{ACAD_REACTORS
330
EF0
102
}
330
18
100
AcDbEntity
  8
ROGO
 62
     4
100
AcDbLine
 10
330.8242700508663
 20
290.0140433043984
 30
0.0
 11
331.6639510717384
 21
290.0140433043984
 31
0.0
  0
LINE
  5
EE0
102
{ACAD_REACTORS
330
EF0
102
}
330
18
100
AcDbEntity
  8
ROGO
 62
     4
100
AcDbLine
 10
331.009724600177
 20
290.3500433043984
 30
0.0
 11
331.8314915235283
 21
290.3500433043984
 31
0.0
  0
LINE
  5
EE1
102
{ACAD_REACTORS
330
EF0
102
}
330
18
100
AcDbEntity
  8
ROGO
 62
     4
100
AcDbLine
 10
332.0751108240688
 20
290.8386183566152
 30
0.0
 11
331.8314915235283
 21
290.3500433043984
 31
0.0
  0
LINE
  5
EE2
102
{ACAD_REACTORS
330
EF2
102
}
330
18
100
AcDbEntity
  8
ROGO
 62
     4
100
AcDbLine
 10
332.350137953191
 20
290.8386183566152
 30
0.0
 11
333.1062216956952
 21
290.8386183566152
 31
0.0
  0
LINE
  5
EE3
102
{ACAD_REACTORS
330
EF2
102
}
330
18
100
AcDbEntity
  8
ROGO
 62
     4
100
AcDbLine
 10
332.350137953191
 20
290.8386183566152
 30
0.0
 11
331.3270049215211
 21
288.7867395717093
 31
0.0
  0
LINE
  5
EE4
102
{ACAD_REACTORS
330
EF2
102
}
330
18
100
AcDbEntity
  8
ROGO
 62
     4
100
AcDbLine
 10
333.1062216956952
 20
290.8386183566152
 30
0.0
 11
332.9945163887742
 21
290.6145949477937
 31
0.0
  0
LINE
  5
EE5
102
{ACAD_REACTORS
330
EF2
102
}
330
18
100
AcDbEntity
  8
ROGO
 62
     4
100
AcDbLine
 10
332.9945163887742
 20
290.6145949477937
 30
0.0
 11
333.348529471853
 21
290.8386183566152
 31
0.0
  0
LINE
  5
EE6
102
{ACAD_REACTORS
330
EF2
102
}
330
18
100
AcDbEntity
  8
ROGO
 62
     4
100
AcDbLine
 10
332.350137953191
 20
289.3223031338288
 30
0.0
 11
332.6171872423567
 21
288.7867395717093
 31
0.0
  0
LINE
  5
EE7
102
{ACAD_REACTORS
330
EF2
102
}
330
18
100
AcDbEntity
  8
ROGO
 62
     4
100
AcDbLine
 10
332.8616879265218
 20
289.8126789641623
 30
0.0
 11
333.3732544423567
 21
288.7867395717093
 31
0.0
  0
LINE
  5
EE8
102
{ACAD_REACTORS
330
EF2
102
}
330
18
100
AcDbEntity
  8
ROGO
 62
     4
100
AcDbLine
 10
332.350137953191
 20
289.3223031338288
 30
0.0
 11
332.0830886640254
 21
288.7867395717093
 31
0.0
  0
LINE
  5
EE9
102
{ACAD_REACTORS
330
EF2
102
}
330
18
100
AcDbEntity
  8
ROGO
 62
     4
100
AcDbLine
 10
332.8616879265218
 20
289.8126789641623
 30
0.0
 11
334.104596671853
 21
290.8386183566152
 31
0.0
  0
LINE
  5
EEA
102
{ACAD_REACTORS
330
EF2
102
}
330
18
100
AcDbEntity
  8
ROGO
 62
     4
100
AcDbLine
 10
333.348529471853
 20
290.8386183566152
 30
0.0
 11
334.104596671853
 21
290.8386183566152
 31
0.0
  0
LINE
  5
EEB
102
{ACAD_REACTORS
330
EF2
102
}
330
18
100
AcDbEntity
  8
ROGO
 62
     4
100
AcDbLine
 10
332.6171872423567
 20
288.7867395717093
 30
0.0
 11
333.3732544423567
 21
288.7867395717093
 31
0.0
  0
LINE
  5
EEC
102
{ACAD_REACTORS
330
EEE
102
}
330
18
100
AcDbEntity
  8
ROGO
 62
     4
100
AcDbLine
 10
321.774284243285
 20
290.8386183566152
 30
0.0
 11
323.5503673917689
 21
290.8386183566153
 31
0.0
  0
LINE
  5
EED
330
18
100
AcDbEntity
  8
ROGO
 62
     4
100
AcDbLine
 10
319.2264999414434
 20
288.9924097780006
 30
0.0
 11
331.4295587289073
 21
288.9924097780006
 31
0.0
  0
HATCH
  5
EEE
330
18
100
AcDbEntity
  8
ROGO
 62
     4
100
AcDbHatch
 10
0.0
 20
0.0
 30
0.0
210
0.0
220
0.0
230
1.0
  2
SOLID
 70
     1
 71
     1
 91
        1
 92
        1
 93
       12
 72
     1
 10
321.774284243285
 20
290.8386183566152
 11
323.5503673917689
 21
290.8386183566153
 72
     1
 10
323.5503673917689
 20
290.8386183566152
 11
323.4015331960343
 21
290.5378160259232
 72
     1
 10
323.4015331960343
 20
290.5378160259232
 11
322.4680687738163
 21
290.5378160259232
 72
     1
 10
322.4680687738163
 20
290.5378160259232
 11
322.3516989277399
 21
290.302625982739
 72
     1
 10
322.3516989277399
 20
290.302625982739
 11
323.2851633499578
 21
290.302625982739
 72
     1
 10
323.2851633499578
 20
290.302625982739
 11
323.1658369743339
 21
290.0614606260578
 72
     1
 10
323.1658369743339
 20
290.0614606260578
 11
322.232372552116
 21
290.0614606260578
 72
     1
 10
322.232372552116
 20
290.0614606260578
 11
322.1159977794997
 21
289.8262606260578
 72
     1
 10
322.1159977794997
 20
289.8262606260578
 11
323.0494622017176
 21
289.8262606260578
 72
     1
 10
323.0494622017176
 20
289.8262606260578
 11
322.9006354925088
 21
289.5254734260578
 72
     1
 10
322.9006354925088
 20
289.5254734260578
 11
321.1245523440249
 21
289.5254734260578
 72
     1
 10
321.1245523440249
 20
289.5254734260578
 11
321.774284243285
 21
290.8386183566152
 97
       12
330
EEC
330
EC0
330
EC3
330
EC2
330
EC4
330
EC7
330
EC6
330
EC9
330
EC5
330
EC8
330
EC1
330
EBF
 75
     0
 76
     1
 98
        1
 10
249.124155264576
 20
200.0405223085039
450
        0
451
        0
460
0.0
461
0.0
452
        0
462
0.0
453
        0
470

  0
HATCH
  5
EEF
330
18
100
AcDbEntity
  8
ROGO
 62
     4
100
AcDbHatch
 10
0.0
 20
0.0
 30
0.0
210
0.0
220
0.0
230
1.0
  2
SOLID
 70
     1
 71
     1
 91
        1
 92
        5
 93
        8
 72
     1
 10
327.6004217526004
 20
290.3500433043984
 11
327.844041053141
 21
290.8386183566152
 72
     1
 10
327.844041053141
 20
290.8386183566152
 11
326.5290047110348
 21
290.8386183566154
 72
     4
 94
        3
 73
     0
 74
     0
 95
       26
 96
       22
 40
0.0
 40
0.0
 40
0.0
 40
0.0
 40
0.2382195346591896
 40
0.397689067266058
 40
0.5126795869787669
 40
0.5985392873135731
 40
0.7099038249249733
 40
0.7911890807494741
 40
0.9379713068543702
 40
1.057449928673087
 40
1.138714535893316
 40
1.218398644003506
 40
1.36093802187036
 40
1.461730374800257
 40
1.516014844108008
 40
1.593124329220501
 40
1.648806818593631
 40
1.729472362005518
 40
1.775122082164342
 40
1.874460993765092
 40
1.919820003751207
 40
1.919820003751207
 40
1.919820003751207
 40
1.919820003751207
 10
326.5290047110347
 20
290.8386183566152
 10
326.4481493202761
 20
290.8337943853501
 10
326.3131675062101
 20
290.8257411388534
 10
326.1649582954984
 20
290.7357056349951
 10
326.0563715510881
 20
290.6833629496526
 10
325.9789276166639
 20
290.612207528233
 10
325.9221608987964
 20
290.5387091757118
 10
325.8505957940988
 20
290.4511364275864
 10
325.792236496193
 20
290.3491615061218
 10
325.7625176536598
 20
290.2367673650585
 10
325.7361929850061
 20
290.1471885824994
 10
325.716670170033
 20
290.0473647196072
 10
325.7216373268461
 20
289.9395198314848
 10
325.7287505227305
 20
289.839359020481
 10
325.7605092126545
 20
289.7678591975544
 10
325.7966767350446
 20
289.7169562506249
 10
325.8409633708994
 20
289.6608922979263
 10
325.8894226352169
 20
289.623761323596
 10
325.9295024023274
 20
289.5564960684554
 10
325.9996606825899
 20
289.5479125367793
 10
326.0442560766657
 20
289.5308287469023
 10
326.0582355651272
 20
289.5254734260578
 72
     1
 10
326.0582355651271
 20
289.5254734260578
 11
327.1892645801318
 21
289.5254734260578
 72
     1
 10
327.1892645801318
 20
289.5254734260578
 11
327.4328813008105
 21
290.0140433043984
 72
     1
 10
327.4328813008105
 20
290.0140433043984
 11
326.5932002799384
 21
290.0140433043984
 72
     4
 94
        3
 73
     0
 74
     0
 95
       16
 96
       12
 40
0.0
 40
0.0
 40
0.0
 40
0.0
 40
0.0719416665231651
 40
0.1446253590759065
 40
0.1879779149910977
 40
0.2295440936104405
 40
0.2751936323958134
 40
0.3070718656052443
 40
0.3373215422372259
 40
0.3986635435212919
 40
0.5242542460842631
 40
0.5242542460842631
 40
0.5242542460842631
 40
0.5242542460842631
 10
326.5932002799385
 20
290.0140433043984
 10
326.5678725412668
 20
290.0214950964869
 10
326.5169558266977
 20
290.0364755404863
 10
326.5126945088501
 20
290.1090952296237
 10
326.5184999379118
 20
290.1608427005827
 10
326.5428130877891
 20
290.198517881299
 10
326.5723091556496
 20
290.2259315323345
 10
326.5832918499013
 20
290.2616335265167
 10
326.6155744790253
 20
290.2885929988332
 10
326.6728202304166
 20
290.3339081058089
 10
326.7361241216279
 20
290.3435592110945
 10
326.7786548292493
 20
290.3500433043984
 72
     1
 10
326.7786548292493
 20
290.3500433043984
 11
327.6004217526004
 21
290.3500433043984
 97
        8
330
ED9
330
ED6
330
ED2
330
ED8
330
ED5
330
ED7
330
ED4
330
ED3
 75
     0
 76
     1
 47
0.0514683685270805
 98
        1
 10
326.9889216082416
 20
290.5462969002683
450
        0
451
        0
460
0.0
461
0.0
452
        0
462
0.0
453
        0
470

  0
HATCH
  5
EF0
330
18
100
AcDbEntity
  8
ROGO
 62
     4
100
AcDbHatch
 10
0.0
 20
0.0
 30
0.0
210
0.0
220
0.0
230
1.0
  2
SOLID
 70
     1
 71
     1
 91
        1
 92
        5
 93
        8
 72
     4
 94
        3
 73
     0
 74
     0
 95
       26
 96
       22
 40
0.0
 40
0.0
 40
0.0
 40
0.0
 40
0.2382195346591896
 40
0.397689067266058
 40
0.5126795869787176
 40
0.5985392873135238
 40
0.7099038249250041
 40
0.7911890807494602
 40
0.9379713068544059
 40
1.057449928673177
 40
1.138714535893296
 40
1.218398644003487
 40
1.36093802187034
 40
1.461730374800238
 40
1.51601484410804
 40
1.593124329220486
 40
1.648806818593696
 40
1.729472362005543
 40
1.775122082164332
 40
1.874460993765135
 40
1.919820003751196
 40
1.919820003751196
 40
1.919820003751196
 40
1.919820003751196
 10
330.7600744819625
 20
290.8386183566152
 10
330.6792190912039
 20
290.8337943853501
 10
330.544237277138
 20
290.8257411388535
 10
330.3960280664262
 20
290.7357056349951
 10
330.287441322016
 20
290.6833629496526
 10
330.2099973875918
 20
290.612207528233
 10
330.1532306697243
 20
290.5387091757118
 10
330.0816655650266
 20
290.4511364275863
 10
330.0233062671207
 20
290.3491615061217
 10
329.9935874245876
 20
290.2367673650584
 10
329.9672627559339
 20
290.1471885824996
 10
329.9477399409608
 20
290.047364719607
 10
329.9527070977738
 20
289.9395198314849
 10
329.9598202936584
 20
289.839359020481
 10
329.9915789835822
 20
289.7678591975543
 10
330.0277465059725
 20
289.7169562506251
 10
330.0720331418272
 20
289.6608922979262
 10
330.1204924061448
 20
289.623761323596
 10
330.1605721732553
 20
289.5564960684554
 10
330.2307304535179
 20
289.5479125367793
 10
330.2753258475936
 20
289.5308287469022
 10
330.289305336055
 20
289.5254734260578
 72
     1
 10
330.2893053360549
 20
289.5254734260578
 11
331.4203343510595
 21
289.5254734260578
 72
     1
 10
331.4203343510595
 20
289.5254734260578
 11
331.6639510717384
 21
290.0140433043984
 72
     1
 10
331.6639510717384
 20
290.0140433043984
 11
330.8242700508663
 21
290.0140433043984
 72
     4
 94
        3
 73
     0
 74
     0
 95
       16
 96
       12
 40
0.0
 40
0.0
 40
0.0
 40
0.0
 40
0.0719416665231652
 40
0.1446253590759511
 40
0.1879779149910863
 40
0.229544093610429
 40
0.2751936323958108
 40
0.3070718656052417
 40
0.3373215422371831
 40
0.3986635435213285
 40
0.5242542460842448
 40
0.5242542460842448
 40
0.5242542460842448
 40
0.5242542460842448
 10
330.8242700508663
 20
290.0140433043983
 10
330.7989423121946
 20
290.0214950964869
 10
330.7480255976254
 20
290.0364755404863
 10
330.7437642797779
 20
290.1090952296236
 10
330.7495697088397
 20
290.1608427005827
 10
330.773882858717
 20
290.1985178812989
 10
330.8033789265774
 20
290.2259315323345
 10
330.8143616208292
 20
290.2616335265167
 10
330.8466442499532
 20
290.2885929988332
 10
330.9038900013443
 20
290.3339081058089
 10
330.9671938925557
 20
290.3435592110944
 10
331.0097246001771
 20
290.3500433043984
 72
     1
 10
331.0097246001771
 20
290.3500433043984
 11
331.8314915235283
 21
290.3500433043984
 72
     1
 10
331.8314915235283
 20
290.3500433043984
 11
332.0751108240689
 21
290.8386183566153
 72
     1
 10
332.0751108240689
 20
290.8386183566153
 11
330.7600744819624
 21
290.8386183566152
 97
        8
330
EDB
330
EDD
330
EDA
330
EDE
330
EDF
330
EDC
330
EE0
330
EE1
 75
     0
 76
     1
 47
0.0514683685270805
 98
        1
 10
330.9869919116474
 20
290.5981770534362
450
        0
451
        0
460
0.0
461
0.0
452
        0
462
0.0
453
        0
470

  0
HATCH
  5
EF1
330
18
100
AcDbEntity
  8
ROGO
 62
     4
100
AcDbHatch
 10
0.0
 20
0.0
 30
0.0
210
0.0
220
0.0
230
1.0
  2
SOLID
 70
     1
 71
     0
 91
        1
 92
        7
 72
     0
 73
     1
 93
        4
 10
319.24076338836
 20
288.9924097780006
 10
319.1477123529381
 20
288.7867395717093
 10
331.3270049215211
 20
288.7867395717092
 10
331.4295587289073
 20
288.9924097780006
 97
        0
 75
     0
 76
     1
 47
0.0514683685270805
 98
        1
 10
326.9369986492483
 20
288.9380133137958
450
        0
451
        0
460
0.0
461
0.0
452
        0
462
0.0
453
        0
470

  0
HATCH
  5
EF2
330
18
100
AcDbEntity
  8
ROGO
 62
     4
100
AcDbHatch
 10
0.0
 20
0.0
 30
0.0
210
0.0
220
0.0
230
1.0
  2
SOLID
 70
     1
 71
     1
 91
        1
 92
        7
 72
     0
 73
     1
 93
       11
 10
331.3270049215211
 20
288.7867395717094
 10
332.0830886640254
 20
288.7867395717093
 10
332.350137953191
 20
289.3223031338288
 10
332.6171872423567
 20
288.7867395717093
 10
333.3732544423566
 20
288.7867395717093
 10
332.8616879265218
 20
289.8126789641623
 10
334.104596671853
 20
290.8386183566153
 10
333.348529471853
 20
290.8386183566152
 10
332.9945163887742
 20
290.6145949477937
 10
333.1062216956951
 20
290.8386183566152
 10
332.350137953191
 20
290.8386183566152
 97
       11
330
EEA
330
EE5
330
EE4
330
EE2
330
EE3
330
EB6
330
EE8
330
EE6
330
EEB
330
EE7
330
EE9
 75
     0
 76
     1
 47
0.0514683685270805
 98
        1
 10
332.2850667067871
 20
289.9583223731738
450
        0
451
        0
460
0.0
461
0.0
452
        0
462
0.0
453
        0
470

  0
HATCH
  5
EF3
330
18
100
AcDbEntity
  8
ROGO
 62
     4
100
AcDbHatch
 10
0.0
 20
0.0
 30
0.0
210
0.0
220
0.0
230
1.0
  2
SOLID
 70
     1
 71
     1
 91
        2
 92
        5
 93
        6
 72
     1
 10
318.1939113970016
 20
288.7867395717093
 11
319.1477123529381
 21
288.7867395717093
 72
     1
 10
319.1477123529381
 20
288.7867395717093
 11
319.4819365037665
 21
289.5254734260578
 72
     1
 10
319.4819365037665
 20
289.5254734260578
 11
320.3735447719387
 21
289.5254734260577
 72
     4
 94
        3
 73
     0
 74
     0
 95
       18
 96
       14
 40
0.108740278791501
 40
0.108740278791501
 40
0.108740278791501
 40
0.108740278791501
 40
0.6623149649549278
 40
1.384304701649787
 40
2.097394834876493
 40
2.774073369849618
 40
3.428974823686337
 40
4.005208313035923
 40
4.455173659284313
 40
4.720999734343524
 40
5.086034088486724
 40
5.569973738255373
 40
6.060470601257719
 40
6.060470601257719
 40
6.060470601257719
 40
6.060470601257719
 10
320.3735447719387
 20
289.5254734260578
 10
320.4362946888334
 20
289.5259407056889
 10
320.5808850458869
 20
289.5270174262975
 10
320.7831658239942
 20
289.6350802627929
 10
320.9749857970872
 20
289.7727444431346
 10
321.1294837361686
 20
289.9447414739364
 10
321.2257406070447
 20
290.1413906114571
 10
321.2406504920918
 20
290.3298607470289
 10
321.2315483735809
 20
290.4789382811853
 10
321.1665091650378
 20
290.5828490234882
 10
321.0988929711131
 20
290.6883078006609
 10
320.9749077355659
 20
290.7796601104523
 10
320.8733197877155
 20
290.8196860017676
 10
320.8216602500794
 20
290.8386183566153
 72
     1
 10
320.8216602500794
 20
290.8386183566152
 11
319.2091619370942
 21
290.8386183566152
 72
     1
 10
319.2091619370942
 20
290.8386183566152
 11
318.1939113970016
 21
288.7867395717093
 97
        6
330
EB8
330
EB5
330
EB7
330
EB6
330
EBE
330
EB9
 92
       20
 93
        4
 72
     1
 10
319.6883009960767
 20
289.9815997605166
 11
319.8462987924342
 21
290.330821445402
 72
     1
 10
319.8462987924342
 20
290.330821445402
 11
320.2522857915316
 21
290.3308214454018
 72
     4
 94
        3
 73
     0
 74
     0
 95
       15
 96
       11
 40
0.0
 40
0.0
 40
0.0
 40
0.0
 40
0.1539705029175028
 40
0.2241725832587281
 40
0.3038566179396687
 40
0.3581410872474193
 40
0.443992538467216
 40
0.4954152125469665
 40
0.5836396705646186
 40
0.6130478420065743
 40
0.6130478420065743
 40
0.6130478420065743
 40
0.6130478420065743
 10
320.2522857915315
 20
290.3308214454019
 10
320.3101141265908
 20
290.3310863300443
 10
320.3943090016489
 20
290.331471987514
 10
320.4403497580134
 20
290.2273226835845
 10
320.4197120957799
 20
290.1602667789471
 10
320.3937688723558
 20
290.0914212646993
 10
320.3479213208134
 20
290.0446396994301
 10
320.2863871912184
 20
289.999581165793
 10
320.2282344981625
 20
289.9941266285335
 10
320.1904126991899
 20
289.9841051350794
 10
320.1809572449207
 20
289.9815997605165
 72
     1
 10
320.1809572449207
 20
289.9815997605165
 11
319.6883009960767
 21
289.9815997605166
 97
        4
330
EBA
330
EBC
330
EBB
330
EBD
 75
     0
 76
     1
 47
0.0514683685270805
 98
        2
 10
319.2177804904011
 20
290.2004295997263
 10
319.2177804904011
 20
290.2004295997263
450
        0
451
        0
460
0.0
461
0.0
452
        0
462
0.0
453
        0
470

  0
LINE
  5
EF4
102
{ACAD_REACTORS
330
EF7
102
}
330
18
100
AcDbEntity
  8
ROGO
 62
     4
100
AcDbLine
 10
325.115265139738
 20
290.8386183566152
 30
0.0
 11
325.6986161501213
 21
289.5254734260578
 31
0.0
  0
LINE
  5
EF5
102
{ACAD_REACTORS
330
EF7
102
}
330
18
100
AcDbEntity
  8
ROGO
 62
     4
100
AcDbLine
 10
324.5389895135983
 20
290.4876093796635
 30
0.0
 11
324.7381968993237
 21
290.0391861078446
 31
0.0
  0
LINE
  5
EF6
102
{ACAD_REACTORS
330
EF7
102
}
330
18
100
AcDbEntity
  8
ROGO
 62
     4
100
AcDbLine
 10
324.8553420049243
 20
289.7754880961486
 30
0.0
 11
324.9664084279932
 21
289.5254734260578
 31
0.0
  0
HATCH
  5
EF7
330
18
100
AcDbEntity
  8
ROGO
 62
     4
100
AcDbHatch
 10
0.0
 20
0.0
 30
0.0
210
0.0
220
0.0
230
1.0
  2
SOLID
 70
     1
 71
     1
 91
        2
 92
        7
 72
     0
 73
     1
 93
        8
 10
325.115265139738
 20
290.8386183566152
 10
324.0648616569666
 20
290.8386183566152
 10
323.1179273268675
 20
289.5254734260578
 10
323.8451745785591
 20
289.5254734260578
 10
324.02546501614
 20
289.7754880961486
 10
324.8553420049243
 20
289.7754880961486
 10
324.9664084279932
 20
289.5254734260578
 10
325.6986161501214
 20
289.5254734260578
 97
        8
330
ED0
330
ECA
330
ECF
330
ECE
330
ECC
330
EF6
330
ED1
330
EF4
 92
       22
 72
     0
 73
     1
 93
        3
 10
324.7381968993237
 20
290.0391861078447
 10
324.215622777285
 20
290.0391861078447
 10
324.5389895135983
 20
290.4876093796636
 97
        3
330
ECD
330
ECB
330
EF5
 75
     0
 76
     1
 47
0.0128389261915577
 98
        2
 10
325.0330102472422
 20
290.5235764398062
 10
325.0330102472422
 20
290.5235764398062
450
        0
451
        0
460
0.0
461
0.0
452
        0
462
0.0
453
        0
470

  0
SPLINE
  5
EF8
102
{ACAD_REACTORS
330
EFF
102
}
330
18
100
AcDbEntity
  8
ROGO
 62
     4
100
AcDbSpline
210
0.0
220
0.0
230
1.0
 70
     8
 71
     3
 72
    38
 73
    34
 74
    32
 42
0.0000000001
 43
0.0000000001
 44
0.0000000001
 40
0.0
 40
0.0
 40
0.0
 40
0.0
 40
0.1807680148264315
 40
0.2375392910068956
 40
0.3104865209606157
 40
0.3712759982447458
 40
0.422566754387306
 40
0.490692583720658
 40
0.5255021974951946
 40
0.5647069597052371
 40
0.622487401681883
 40
0.6879401044674746
 40
0.7303986317551266
 40
0.7765228362185534
 40
0.8277951442290254
 40
0.9056034697002209
 40
0.9795294930264187
 40
1.013897332332996
 40
1.053089255536027
 40
1.099518741889647
 40
1.132570569820733
 40
1.160277520290299
 40
1.19983678629386
 40
1.243305643169139
 40
1.286774258016964
 40
1.324809356515675
 40
1.411916492917645
 40
1.446284332224223
 40
1.5150200516612
 40
1.575779369908399
 40
1.69209852953623
 40
1.835624328519098
 40
2.042896467983898
 40
2.042896467983898
 40
2.042896467983898
 40
2.042896467983898
 10
328.5732663731837
 20
290.8440955757876
 30
0.0
 10
328.5130109755581
 20
290.8398389566867
 30
0.0
 10
328.433832009937
 20
290.8342455208995
 30
0.0
 10
328.3332932374274
 20
290.8067008946947
 30
0.0
 10
328.2784884829863
 20
290.7738863752367
 30
0.0
 10
328.2214531816692
 20
290.7497661305362
 30
0.0
 10
328.1728252752841
 20
290.7140488312869
 30
0.0
 10
328.1236391745883
 20
290.6956440510935
 30
0.0
 10
328.0891975612125
 20
290.662456942721
 30
0.0
 10
328.0493342030795
 20
290.6421848245459
 30
0.0
 10
328.0175903032442
 20
290.5968099305315
 30
0.0
 10
327.9821096267126
 20
290.5543860488732
 30
0.0
 10
327.9409475783053
 20
290.5234185072956
 30
0.0
 10
327.9071653327461
 20
290.4908935283333
 30
0.0
 10
327.8761748198215
 20
290.4406977131493
 30
0.0
 10
327.8578332472505
 20
290.3740023384638
 30
0.0
 10
327.8061314328412
 20
290.3318932841786
 30
0.0
 10
327.7983467583581
 20
290.2812656365025
 30
0.0
 10
327.7697489081624
 20
290.2513961763117
 30
0.0
 10
327.7573135627065
 20
290.2128389943269
 30
0.0
 10
327.7525775845826
 20
290.177513805006
 30
0.0
 10
327.7468932815402
 20
290.1445225235779
 30
0.0
 10
327.7320242213077
 20
290.10981715284
 30
0.0
 10
327.7368775338691
 20
290.066946873905
 30
0.0
 10
327.7354949708269
 20
290.0254341598785
 30
0.0
 10
327.7363086108002
 20
289.969390703267
 30
0.0
 10
327.7333720714543
 20
289.9148255063476
 30
0.0
 10
327.7567898219692
 20
289.8554456301791
 30
0.0
 10
327.7706476695721
 20
289.8025166855126
 30
0.0
 10
327.8085996395156
 20
289.729230143261
 30
0.0
 10
327.8740659923336
 20
289.6446733195522
 30
0.0
 10
327.9985557383511
 20
289.5420373562593
 30
0.0
 10
328.1182562689104
 20
289.5316254155421
 30
0.0
 10
328.1889824116406
 20
289.5254734260578
 30
0.0
 11
328.5732663731837
 21
290.8440955757876
 31
0.0
 11
328.3938097362364
 21
290.8223610263362
 31
0.0
 11
328.3394289501083
 21
290.8060604772889
 31
0.0
 11
328.2741722631003
 21
290.7734588951393
 31
0.0
 11
328.2197914769721
 21
290.7462910713662
 31
0.0
 11
328.1762870189668
 21
290.7191230055657
 31
0.0
 11
328.1164682823988
 21
290.6865216654436
 31
0.0
 11
328.0892776757131
 21
290.6647873580197
 31
0.0
 11
328.0566491185876
 21
290.6430528085683
 31
0.0
 11
328.0185826110222
 21
290.5995841937204
 31
0.0
 11
327.9750781530169
 21
290.5506820625235
 31
0.0
 11
327.9424495958914
 21
290.523513996723
 31
0.0
 11
327.9098214660089
 21
290.4909126566009
 31
0.0
 11
327.8826308593233
 21
290.447444041753
 31
0.0
 11
327.8500027294409
 21
290.3768073611047
 31
0.0
 11
327.8064978441924
 21
290.3170379551821
 31
0.0
 11
327.7956219433127
 21
290.2844363730325
 31
0.0
 11
327.77386971431
 21
290.2518350329103
 31
0.0
 11
327.7575554357473
 21
290.208366176035
 31
0.0
 11
327.7521170580643
 21
290.1757648359128
 31
0.0
 11
327.7466791076244
 21
290.1485967701124
 31
0.0
 11
327.7358032067446
 21
290.1105619136411
 31
0.0
 11
327.7358032067446
 21
290.0670930567658
 31
0.0
 11
327.7358032067446
 21
290.023624441918
 31
0.0
 11
327.7358032067446
 21
289.9855893434193
 31
0.0
 11
327.7412411571845
 21
289.8986521137236
 31
0.0
 11
327.7521170580643
 21
289.866050531574
 31
0.0
 11
327.77386971431
 21
289.8008476093023
 31
0.0
 11
327.8010598937526
 21
289.7465117197287
 31
0.0
 11
327.8717549584435
 21
289.6541409736839
 31
0.0
 11
327.9859544811398
 21
289.5672035019608
 31
0.0
 11
328.1889824116406
 21
289.5254734260578
 31
0.0
  0
SPLINE
  5
EF9
102
{ACAD_REACTORS
330
EFF
102
}
330
18
100
AcDbEntity
  8
ROGO
 62
     4
100
AcDbSpline
210
0.0
220
0.0
230
1.0
 70
     8
 71
     3
 72
    25
 73
    21
 74
     0
 42
0.0000000001
 43
0.0000000001
 40
0.0
 40
0.0
 40
0.0
 40
0.0
 40
0.4087168505087288
 40
0.6887487002771746
 40
0.9415836120477687
 40
1.17452070575514
 40
1.41154617586699
 40
1.599156012919487
 40
1.80099909059943
 40
2.178735911501585
 40
2.521686161369157
 40
2.762704659361267
 40
3.06256558063785
 40
3.222432137207705
 40
3.399493810628493
 40
3.567459719866414
 40
3.743172740007509
 40
3.995988754699505
 40
4.17170091132118
 40
4.337226830236035
 40
4.337226830236035
 40
4.337226830236035
 40
4.337226830236035
 10
329.3237201963691
 20
290.8440955757876
 30
0.0
 10
329.3729402467946
 20
290.8425141863315
 30
0.0
 10
329.4558833545132
 20
290.8398493098255
 30
0.0
 10
329.5449330131343
 20
290.7702466204499
 30
0.0
 10
329.6130712338936
 20
290.712540658135
 30
0.0
 10
329.6614365887543
 20
290.6427768518008
 30
0.0
 10
329.7038301773967
 20
290.5786327481237
 30
0.0
 10
329.7317643381659
 20
290.5109113334575
 30
0.0
 10
329.7697603158407
 20
290.4296518379207
 30
0.0
 10
329.7854887734879
 20
290.3209387054896
 30
0.0
 10
329.7748623301512
 20
290.2085736524441
 30
0.0
 10
329.7471322746537
 20
290.1089723687406
 30
0.0
 10
329.7180456759537
 20
290.0325606035965
 30
0.0
 10
329.6837636570363
 20
289.9660394216059
 30
0.0
 10
329.6428951097322
 20
289.9229669511068
 30
0.0
 10
329.6145421541933
 20
289.8682007247593
 30
0.0
 10
329.560079753476
 20
289.8234048918859
 30
0.0
 10
329.5159295936694
 20
289.7681331214319
 30
0.0
 10
329.4658283570297
 20
289.7206927730933
 30
0.0
 10
329.4375810577258
 20
289.6914226498716
 30
0.0
 10
329.422688400332
 20
289.6791159059259
 30
0.0
  0
LINE
  5
EFA
102
{ACAD_REACTORS
330
EFF
102
}
330
18
100
AcDbEntity
  8
ROGO
 62
     4
100
AcDbLine
 10
328.5732663731837
 20
290.8440955757876
 30
0.0
 11
329.3237201963691
 21
290.8440955757876
 31
0.0
  0
LINE
  5
EFB
102
{ACAD_REACTORS
330
EFF
102
}
330
18
100
AcDbEntity
  8
ROGO
 62
     4
100
AcDbLine
 10
328.1889824116406
 20
289.5254734260578
 30
0.0
 11
328.9394362348259
 21
289.5254734260578
 31
0.0
  0
SPLINE
  5
EFC
102
{ACAD_REACTORS
330
EFF
102
}
330
18
100
AcDbEntity
  8
ROGO
 62
     4
100
AcDbSpline
210
0.0
220
0.0
230
1.0
 70
     8
 71
     3
 72
    11
 73
     7
 74
     0
 42
0.0000000001
 43
0.0000000001
 40
0.1647869275458134
 40
0.1647869275458134
 40
0.1647869275458134
 40
0.1647869275458134
 40
0.2895635144633836
 40
0.5387013147903714
 40
0.7953622617455423
 40
0.8850764140209602
 40
0.8850764140209602
 40
0.8850764140209602
 40
0.8850764140209602
 10
329.189453693444
 20
289.5547498729664
 30
0.0
 10
329.1754751506431
 20
289.5508589402499
 30
0.0
 10
329.1321341392089
 20
289.543931350466
 30
0.0
 10
329.0594353720708
 20
289.5344189560926
 30
0.0
 10
328.9903388299745
 20
289.524492425508
 30
0.0
 10
328.9499081351459
 20
289.5252716104148
 30
0.0
 10
328.9394362348259
 20
289.5254734260578
 30
0.0
  0
SPLINE
  5
EFD
102
{ACAD_REACTORS
330
EFF
102
}
330
18
100
AcDbEntity
  8
ROGO
 62
     4
100
AcDbSpline
210
0.0
220
0.0
230
1.0
 70
     8
 71
     3
 72
     9
 73
     5
 74
     3
 42
0.0000000001
 43
0.0000000001
 44
0.0000000001
 40
0.0
 40
0.0
 40
0.0
 40
0.0
 40
0.1135793343552172
 40
0.2662938392177403
 40
0.2662938392177403
 40
0.2662938392177403
 40
0.2662938392177403
 10
329.189453693444
 20
289.5547498729664
 30
0.0
 10
329.225938661762
 20
289.5659122126896
 30
0.0
 10
329.3114799474394
 20
289.5920830149435
 30
0.0
 10
329.3821566446762
 20
289.647395332718
 30
0.0
 10
329.422688400332
 20
289.6791159059259
 30
0.0
 11
329.189453693444
 21
289.5547498729664
 31
0.0
 11
329.2962044576686
 21
289.5935382672361
 31
0.0
 11
329.422688400332
 21
289.6791159059259
 31
0.0
  0
ELLIPSE
  5
EFE
102
{ACAD_REACTORS
330
EFF
102
}
330
18
100
AcDbEntity
  8
ROGO
 62
     4
100
AcDbEllipse
 10
328.7457247678144
 20
290.1663995835686
 30
0.0
 11
0.1782847090673272
 21
0.1567790921840611
 31
0.0
210
0.0
220
0.0
230
0.9999999999999998
 40
0.6788083417438792
 41
0.0
 42
6.283185307179586
  0
HATCH
  5
EFF
330
18
100
AcDbEntity
  8
ROGO
 62
     4
100
AcDbHatch
 10
0.0
 20
0.0
 30
0.0
210
0.0
220
0.0
230
1.0
  2
SOLID
 70
     1
 71
     1
 91
        2
 92
        5
 93
        6
 72
     4
 94
        3
 73
     0
 74
     0
 95
       38
 96
       34
 40
0.0
 40
0.0
 40
0.0
 40
0.0
 40
0.1807680148264315
 40
0.2375392910068956
 40
0.3104865209606157
 40
0.3712759982447458
 40
0.422566754387306
 40
0.490692583720658
 40
0.5255021974951946
 40
0.5647069597052371
 40
0.622487401681883
 40
0.6879401044674746
 40
0.7303986317551266
 40
0.7765228362185534
 40
0.8277951442290254
 40
0.9056034697002209
 40
0.9795294930264187
 40
1.013897332332996
 40
1.053089255536027
 40
1.099518741889647
 40
1.132570569820733
 40
1.160277520290299
 40
1.19983678629386
 40
1.243305643169139
 40
1.286774258016964
 40
1.324809356515675
 40
1.411916492917645
 40
1.446284332224223
 40
1.5150200516612
 40
1.575779369908399
 40
1.69209852953623
 40
1.835624328519098
 40
2.042896467983898
 40
2.042896467983898
 40
2.042896467983898
 40
2.042896467983898
 10
328.5732663731837
 20
290.8440955757876
 10
328.5130109755581
 20
290.8398389566867
 10
328.433832009937
 20
290.8342455208995
 10
328.3332932374274
 20
290.8067008946947
 10
328.2784884829863
 20
290.7738863752367
 10
328.2214531816692
 20
290.7497661305362
 10
328.1728252752841
 20
290.7140488312869
 10
328.1236391745883
 20
290.6956440510935
 10
328.0891975612125
 20
290.662456942721
 10
328.0493342030795
 20
290.6421848245459
 10
328.0175903032442
 20
290.5968099305315
 10
327.9821096267126
 20
290.5543860488732
 10
327.9409475783053
 20
290.5234185072956
 10
327.9071653327461
 20
290.4908935283333
 10
327.8761748198215
 20
290.4406977131493
 10
327.8578332472505
 20
290.3740023384638
 10
327.8061314328412
 20
290.3318932841786
 10
327.7983467583581
 20
290.2812656365025
 10
327.7697489081624
 20
290.2513961763117
 10
327.7573135627065
 20
290.2128389943269
 10
327.7525775845826
 20
290.177513805006
 10
327.7468932815402
 20
290.1445225235779
 10
327.7320242213077
 20
290.10981715284
 10
327.7368775338691
 20
290.066946873905
 10
327.7354949708269
 20
290.0254341598785
 10
327.7363086108002
 20
289.969390703267
 10
327.7333720714543
 20
289.9148255063476
 10
327.7567898219692
 20
289.8554456301791
 10
327.7706476695721
 20
289.8025166855126
 10
327.8085996395156
 20
289.729230143261
 10
327.8740659923336
 20
289.6446733195522
 10
327.9985557383511
 20
289.5420373562593
 10
328.1182562689104
 20
289.5316254155421
 10
328.1889824116406
 20
289.5254734260578
 72
     1
 10
328.1889824116407
 20
289.5254734260578
 11
328.9394362348263
 21
289.5254734260577
 72
     4
 94
        3
 73
     0
 74
     0
 95
       11
 96
        7
 40
0.1647869275458135
 40
0.1647869275458135
 40
0.1647869275458135
 40
0.1647869275458135
 40
0.2545010798212315
 40
0.5111620267764023
 40
0.7602998271033902
 40
0.8850764140209603
 40
0.8850764140209603
 40
0.8850764140209603
 40
0.8850764140209603
 10
328.9394362348259
 20
289.5254734260578
 10
328.9499081351459
 20
289.5252716104148
 10
328.9903388299745
 20
289.524492425508
 10
329.0594353720708
 20
289.5344189560926
 10
329.1321341392089
 20
289.543931350466
 10
329.1754751506431
 20
289.5508589402499
 10
329.189453693444
 20
289.5547498729664
 72
     4
 94
        3
 73
     0
 74
     0
 95
        9
 96
        5
 40
0.0
 40
0.0
 40
0.0
 40
0.0
 40
0.1135793343552172
 40
0.2662938392177403
 40
0.2662938392177403
 40
0.2662938392177403
 40
0.2662938392177403
 10
329.189453693444
 20
289.5547498729664
 10
329.225938661762
 20
289.5659122126896
 10
329.3114799474394
 20
289.5920830149435
 10
329.3821566446762
 20
289.647395332718
 10
329.422688400332
 20
289.6791159059259
 72
     4
 94
        3
 73
     0
 74
     0
 95
       25
 96
       21
 40
0.0
 40
0.0
 40
0.0
 40
0.0
 40
0.165525918914855
 40
0.3412380755365305
 40
0.5940540902285263
 40
0.7697671103696209
 40
0.9377330196075423
 40
1.11479469302833
 40
1.274661249598185
 40
1.574522170874768
 40
1.815540668866877
 40
2.15849091873445
 40
2.536227739636605
 40
2.738070817316548
 40
2.925680654369045
 40
3.162706124480894
 40
3.395643218188267
 40
3.648478129958861
 40
3.928509979727306
 40
4.337226830236035
 40
4.337226830236035
 40
4.337226830236035
 40
4.337226830236035
 10
329.422688400332
 20
289.6791159059259
 10
329.4375810577258
 20
289.6914226498716
 10
329.4658283570297
 20
289.7206927730933
 10
329.5159295936694
 20
289.7681331214319
 10
329.560079753476
 20
289.8234048918859
 10
329.6145421541933
 20
289.8682007247593
 10
329.6428951097322
 20
289.9229669511068
 10
329.6837636570363
 20
289.9660394216059
 10
329.7180456759537
 20
290.0325606035965
 10
329.7471322746537
 20
290.1089723687406
 10
329.7748623301512
 20
290.2085736524441
 10
329.7854887734879
 20
290.3209387054896
 10
329.7697603158407
 20
290.4296518379207
 10
329.7317643381659
 20
290.5109113334575
 10
329.7038301773967
 20
290.5786327481237
 10
329.6614365887543
 20
290.6427768518008
 10
329.6130712338936
 20
290.712540658135
 10
329.5449330131343
 20
290.7702466204499
 10
329.4558833545132
 20
290.8398493098255
 10
329.3729402467946
 20
290.8425141863315
 10
329.3237201963691
 20
290.8440955757876
 72
     1
 10
329.3237201963691
 20
290.8440955757876
 11
328.5732663731839
 21
290.8440955757876
 97
        6
330
EF9
330
EFA
330
EF8
330
EFB
330
EFC
330
EFD
 92
       20
 93
        1
 72
     3
 10
328.7457247678144
 20
290.1663995835686
 11
0.1782847090673272
 21
0.1567790921840611
 40
0.678808341743879
 50
0.0
 51
360.0
 73
     1
 97
        1
330
EFE
 75
     0
 76
     1
 47
0.088756267210375
 98
        2
 10
328.7981560435831
 20
290.4798868538926
 10
328.7981560435831
 20
290.4798868538926
450
        0
451
        0
460
0.0
461
0.0
452
        0
462
0.0
453
        0
470

  0
TEXT
  5
F31
330
18
100
AcDbEntity
  8
文字
100
AcDbText
 10
321.2171123928552
 20
335.031964940816
 30
0.0
 40
2.5
  1
φ
  7
STYLE3
100
AcDbText
  0
LINE
  5
F4B
330
18
100
AcDbEntity
  8
外形線
100
AcDbLine
 10
411.4474889660834
 20
305.8736517155087
 30
0.0
 11
422.9474889660834
 21
305.8736517155087
 31
0.0
  0
LINE
  5
F4C
330
18
100
AcDbEntity
  8
外形線
100
AcDbLine
 10
411.4474889660834
 20
257.0736517155088
 30
0.0
 11
422.9474889660834
 21
257.0736517155088
 31
0.0
  0
POINT
  5
F84
330
18
100
AcDbEntity
  8
DEFPOINTS
  6
ByBlock
 62
     0
100
AcDbPoint
 10
422.9474889660834
 20
305.8736517155087
 30
0.0
  0
TEXT
  5
F94
330
18
100
AcDbEntity
  8
文字
100
AcDbText
 10
318.6492926013266
 20
270.8775693383259
 30
0.0
 40
1.0
  1
5
  7
STYLE3
100
AcDbText
  0
LINE
  5
F9F
330
18
100
AcDbEntity
  8
外形線
  6
Continuous
100
AcDbLine
 10
424.0474889660834
 20
304.7736517155088
 30
0.0
 11
424.0474889660834
 21
258.1736517155088
 31
0.0
  0
POINT
  5
FB5
330
18
100
AcDbEntity
  8
DEFPOINTS
  6
ByBlock
 62
     0
100
AcDbPoint
 10
424.0474889660834
 20
304.7736517155088
 30
0.0
  0
LINE
  5
101C
330
18
100
AcDbEntity
  8
中心線
100
AcDbLine
 10
325.876538051936
 20
261.1736517155088
 30
0.0
 11
325.876538051936
 21
212.8560069478767
 31
0.0
  0
LINE
  5
1022
330
18
100
AcDbEntity
  8
0
  6
ByBlock
 62
     2
100
AcDbLine
 10
422.9474889660834
 20
305.8736517155087
 30
0.0
 11
451.7476198157628
 21
305.8736517155087
 31
0.0
  0
LINE
  5
1023
330
18
100
AcDbEntity
  8
0
  6
ByBlock
 62
     2
100
AcDbLine
 10
422.9474889660834
 20
257.0736517155088
 30
0.0
 11
451.7476198157628
 21
257.0736517155088
 31
0.0
  0
LINE
  5
1024
330
18
100
AcDbEntity
  8
0
  6
ByBlock
 62
     2
100
AcDbLine
 10
450.4976198157628
 20
303.3736517155087
 30
0.0
 11
450.4976198157628
 21
259.5736517155088
 31
0.0
  0
INSERT
  5
1025
330
18
100
AcDbEntity
  8
0
  6
ByBlock
 62
     2
100
AcDbBlockReference
  2
_OPEN
 10
450.4976198157628
 20
305.8736517155087
 30
0.0
 41
2.5
 42
2.5
 43
2.5
 50
90.0
  0
INSERT
  5
1026
330
18
100
AcDbEntity
  8
0
  6
ByBlock
 62
     2
100
AcDbBlockReference
  2
_OPEN
 10
450.4976198157628
 20
257.0736517155088
 30
0.0
 41
2.5
 42
2.5
 43
2.5
 50
270.0
  0
POINT
  5
1028
330
18
100
AcDbEntity
  8
DEFPOINTS
  6
ByBlock
 62
     0
100
AcDbPoint
 10
422.9474889660834
 20
305.8736517155087
 30
0.0
  0
POINT
  5
1029
330
18
100
AcDbEntity
  8
DEFPOINTS
  6
ByBlock
 62
     0
100
AcDbPoint
 10
422.9474889660834
 20
257.0736517155088
 30
0.0
  0
POINT
  5
102A
330
18
100
AcDbEntity
  8
DEFPOINTS
  6
ByBlock
 62
     0
100
AcDbPoint
 10
450.4976198157628
 20
257.0736517155088
 30
0.0
  0
TEXT
  5
102B
330
18
100
AcDbEntity
  8
ﾊｯﾁﾝｸ
100
AcDbText
 10
449.9284045035365
 20
278.0262614379302
 30
0.0
 40
2.5
  1
49
 50
90.0
  7
STYLE3
100
AcDbText
  0
TEXT
  5
104F
330
18
100
AcDbEntity
  8
文字
100
AcDbText
 10
319.5983815505521
 20
286.870327051364
 30
0.0
 40
1.0
  1
MADE  IN  JAPAN
  7
STYLE3
100
AcDbText
  0
TEXT
  5
1050
330
18
100
AcDbEntity
  8
文字
100
AcDbText
 10
323.223415418367
 20
284.7756449370769
 30
0.0
 40
1.0
  1
NO.57
  7
STYLE3
100
AcDbText
  0
TEXT
  5
1053
330
18
100
AcDbEntity
  8
文字
100
AcDbText
 10
325.9058637353387
 20
266.5047163746714
 30
0.0
 40
1.0
  1
S
  7
STYLE3
100
AcDbText
  0
TEXT
  5
1054
330
18
100
AcDbEntity
  8
文字
100
AcDbText
 10
326.7888316225267
 20
266.5735534985845
 30
0.0
 40
1.0
  1
H
 50
1.589821613340259
  7
STYLE3
100
AcDbText
  0
TEXT
  5
1055
330
18
100
AcDbEntity
  8
文字
100
AcDbText
 10
327.7406900845901
 20
266.6867084312211
 30
0.0
 40
1.0
  1
O
 50
1.760930144340787
  7
STYLE3
100
AcDbText
  0
TEXT
  5
1056
330
18
100
AcDbEntity
  8
文字
100
AcDbText
 10
328.7629527578831
 20
266.8687004930591
 30
0.0
 40
1.0
  1
C
 50
5.687207778684769
  7
STYLE3
100
AcDbText
  0
TEXT
  5
1057
330
18
100
AcDbEntity
  8
文字
100
AcDbText
 10
329.7897450593519
 20
267.0414519972202
 30
0.0
 40
1.0
  1
K
 50
11.14538657471254
  7
STYLE3
100
AcDbText
  0
TEXT
  5
1058
330
18
100
AcDbEntity
  8
文字
100
AcDbText
 10
331.3657974286763
 20
267.5874280525673
 30
0.0
 40
1.0
  1
P
 50
23.24053280085741
  7
STYLE3
100
AcDbText
  0
TEXT
  5
1059
330
18
100
AcDbEntity
  8
文字
100
AcDbText
 10
332.2517840673635
 20
268.0492921317208
 30
0.0
 40
1.0
  1
R
 50
26.06198672177309
  7
STYLE3
100
AcDbText
  0
TEXT
  5
105A
330
18
100
AcDbEntity
  8
文字
100
AcDbText
 10
333.1760859670299
 20
268.5294498330002
 30
0.0
 40
1.0
  1
O
 50
27.73777743938884
  7
STYLE3
100
AcDbText
  0
TEXT
  5
105B
330
18
100
AcDbEntity
  8
文字
100
AcDbText
 10
334.127944873959
 20
269.1044692194259
 30
0.0
 40
1.0
  1
O
 50
27.6495577688412
  7
STYLE3
100
AcDbText
  0
TEXT
  5
105C
330
18
100
AcDbEntity
  8
文字
100
AcDbText
 10
335.1134013210117
 20
269.6549714851021
 30
0.0
 40
1.0
  1
F
 50
35.29154926473689
  7
STYLE3
100
AcDbText
  0
LINE
  5
1076
330
18
100
AcDbEntity
  8
0
  6
ByBlock
 62
     2
100
AcDbLine
 10
424.0474889660834
 20
304.7736517155088
 30
0.0
 11
424.0474889660834
 21
334.4924572442619
 31
0.0
  0
LINE
  5
1077
330
18
100
AcDbEntity
  8
0
  6
ByBlock
 62
     2
100
AcDbLine
 10
418.9474889660833
 20
333.2424572442619
 30
0.0
 11
421.5474889660834
 21
333.2424572442619
 31
0.0
  0
INSERT
  5
1078
330
18
100
AcDbEntity
  8
0
  6
ByBlock
 62
     2
100
AcDbBlockReference
  2
_OPEN
 10
416.4474889660834
 20
333.2424572442619
 30
0.0
 41
2.5
 42
2.5
 43
2.5
 50
180.0
  0
INSERT
  5
1079
330
18
100
AcDbEntity
  8
0
  6
ByBlock
 62
     2
100
AcDbBlockReference
  2
_OPEN
 10
424.0474889660834
 20
333.2424572442619
 30
0.0
 41
2.5
 42
2.5
 43
2.5
  0
MTEXT
  5
107A
330
18
100
AcDbEntity
  8
0
  6
ByBlock
 62
     6
100
AcDbMText
 10
420.2474889660834
 20
335.1174572442619
 30
0.0
 40
2.5
 41
0.0
 71
     5
 72
     1
  1
\A1;7.6
  7
STYLE3
 73
     1
 44
1.0
  0
POINT
  5
107B
330
18
100
AcDbEntity
  8
DEFPOINTS
  6
ByBlock
 62
     0
100
AcDbPoint
 10
416.4474889660834
 20
322.9736517155088
 30
0.0
  0
POINT
  5
107C
330
18
100
AcDbEntity
  8
DEFPOINTS
  6
ByBlock
 62
     0
100
AcDbPoint
 10
424.0474889660834
 20
304.7736517155088
 30
0.0
  0
POINT
  5
107D
330
18
100
AcDbEntity
  8
DEFPOINTS
  6
ByBlock
 62
     0
100
AcDbPoint
 10
424.0474889660834
 20
333.2424572442619
 30
0.0
  0
LINE
  5
107E
330
18
100
AcDbEntity
  8
0
  6
ByBlock
 62
     2
100
AcDbLine
 10
401.9474889660833
 20
281.4736517155088
 30
0.0
 11
401.9474889660833
 21
334.4924572442619
 31
0.0
  0
LINE
  5
1080
330
18
100
AcDbEntity
  8
0
  6
ByBlock
 62
     2
100
AcDbLine
 10
404.4474889660834
 20
333.2424572442619
 30
0.0
 11
413.9474889660833
 21
333.2424572442619
 31
0.0
  0
INSERT
  5
1081
330
18
100
AcDbEntity
  8
0
  6
ByBlock
 62
     2
100
AcDbBlockReference
  2
_OPEN
 10
401.9474889660833
 20
333.2424572442619
 30
0.0
 41
2.5
 42
2.5
 43
2.5
 50
180.0
  0
INSERT
  5
1082
330
18
100
AcDbEntity
  8
0
  6
ByBlock
 62
     2
100
AcDbBlockReference
  2
_OPEN
 10
416.4474889660834
 20
333.2424572442619
 30
0.0
 41
2.5
 42
2.5
 43
2.5
  0
MTEXT
  5
1083
330
18
100
AcDbEntity
  8
0
  6
ByBlock
 62
     6
100
AcDbMText
 10
409.1974889660833
 20
335.1174572442619
 30
0.0
 40
2.5
 41
0.0
 71
     5
 72
     1
  1
\A1;14.5
  7
STYLE3
 73
     1
 44
1.0
  0
POINT
  5
1084
330
18
100
AcDbEntity
  8
DEFPOINTS
  6
ByBlock
 62
     0
100
AcDbPoint
 10
401.9474889660833
 20
281.4736517155088
 30
0.0
  0
POINT
  5
1085
330
18
100
AcDbEntity
  8
DEFPOINTS
  6
ByBlock
 62
     0
100
AcDbPoint
 10
416.4474889660834
 20
322.9736517155088
 30
0.0
  0
POINT
  5
1086
330
18
100
AcDbEntity
  8
DEFPOINTS
  6
ByBlock
 62
     0
100
AcDbPoint
 10
416.4474889660834
 20
333.2424572442619
 30
0.0
  0
LINE
  5
10D9
330
18
100
AcDbEntity
  8
外形線
  6
Continuous
100
AcDbLine
 10
422.9474889660834
 20
305.8736517155087
 30
0.0
 11
422.9474889660834
 21
257.0736517155088
 31
0.0
  0
TEXT
  5
11E9
330
18
100
AcDbEntity
  8
文字
100
AcDbText
 10
331.5811565175879
 20
249.2037367073464
 30
0.0
 40
1.0
  1
0
  7
STYLE3
100
AcDbText
  0
TEXT
  5
11EA
330
18
100
AcDbEntity
  8
文字
100
AcDbText
 10
330.3906143139705
 20
247.7919585055352
 30
0.0
 40
1.0
  1
-0.03
  7
STYLE3
100
AcDbText
  0
LINE
  5
11F3
330
18
100
AcDbEntity
  8
0
  6
ByBlock
 62
     2
100
AcDbLine
 10
416.4474889660835
 20
216.4736517155088
 30
0.0
 11
376.6046671841392
 21
216.4736517155088
 31
0.0
  0
LINE
  5
11F4
330
18
100
AcDbEntity
  8
0
  6
ByBlock
 62
     2
100
AcDbLine
 10
377.8546671841393
 20
252.5736517155088
 30
0.0
 11
377.8546671841393
 21
218.9736517155087
 31
0.0
  0
INSERT
  5
11F5
330
18
100
AcDbEntity
  8
0
  6
ByBlock
 62
     2
100
AcDbBlockReference
  2
_OPEN
 10
377.8546671841393
 20
255.0736517155088
 30
0.0
 41
2.5
 42
2.5
 43
2.5
 50
90.0
  0
INSERT
  5
11F6
330
18
100
AcDbEntity
  8
0
  6
ByBlock
 62
     2
100
AcDbBlockReference
  2
_OPEN
 10
377.8546671841393
 20
216.4736517155088
 30
0.0
 41
2.5
 42
2.5
 43
2.5
 50
270.0
  0
MTEXT
  5
11F7
330
18
100
AcDbEntity
  8
0
  6
ByBlock
 62
     6
100
AcDbMText
 10
375.9796671841393
 20
235.7736517155088
 30
0.0
 40
2.5
 41
0.0
 71
     5
 72
     1
  1
\A1;38.5
  7
STYLE3
 11
0.0000000000000001
 21
1.0
 31
0.0
 73
     1
 44
1.0
  0
POINT
  5
11F8
330
18
100
AcDbEntity
  8
DEFPOINTS
  6
ByBlock
 62
     0
100
AcDbPoint
 10
406.1474889660834
 20
255.0736517155088
 30
0.0
  0
POINT
  5
11F9
330
18
100
AcDbEntity
  8
DEFPOINTS
  6
ByBlock
 62
     0
100
AcDbPoint
 10
416.4474889660835
 20
216.4736517155088
 30
0.0
  0
POINT
  5
11FA
330
18
100
AcDbEntity
  8
DEFPOINTS
  6
ByBlock
 62
     0
100
AcDbPoint
 10
377.8546671841393
 20
216.4736517155088
 30
0.0
  0
LINE
  5
11FB
330
18
100
AcDbEntity
  8
ﾊｯﾁﾝｸ
  6
Continuous
100
AcDbLine
 10
412.4474889660834
 20
315.2401455118066
 30
0.0
 11
412.6809951697855
 21
315.4736517155087
 31
0.0
  0
LINE
  5
11FC
330
18
100
AcDbEntity
  8
ﾊｯﾁﾝｸ
  6
Continuous
100
AcDbLine
 10
412.4474889660834
 20
313.4723785588402
 30
0.0
 11
414.4487621227519
 21
315.4736517155087
 31
0.0
  0
LINE
  5
11FD
330
18
100
AcDbEntity
  8
ﾊｯﾁﾝｸ
  6
Continuous
100
AcDbLine
 10
412.4474889660834
 20
311.7046116058738
 30
0.0
 11
416.2165290757183
 21
315.4736517155087
 31
0.0
  0
LINE
  5
11FE
330
18
100
AcDbEntity
  8
ﾊｯﾁﾝｸ
  6
Continuous
100
AcDbLine
 10
412.4474889660833
 20
309.9368446529074
 30
0.0
 11
416.4474889660833
 21
313.9368446529074
 31
0.0
  0
LINE
  5
11FF
330
18
100
AcDbEntity
  8
ﾊｯﾁﾝｸ
  6
Continuous
100
AcDbLine
 10
413.7520629816509
 20
309.4736517155087
 30
0.0
 11
416.4474889660834
 21
312.1690776999411
 31
0.0
  0
LINE
  5
1200
330
18
100
AcDbEntity
  8
ﾊｯﾁﾝｸ
  6
Continuous
100
AcDbLine
 10
415.5198299346174
 20
309.4736517155087
 30
0.0
 11
416.4474889660834
 21
310.4013107469747
 31
0.0
  0
LINE
  5
1201
330
18
100
AcDbEntity
  8
ﾊｯﾁﾝｸ
  6
Continuous
100
AcDbLine
 10
412.4990346124023
 20
309.4736517155088
 30
0.0
 11
412.4474889660834
 21
309.5251973618277
 31
0.0
  0
LINE
  5
1202
330
18
100
AcDbEntity
  8
ﾊｯﾁﾝｸ
  6
Continuous
100
AcDbLine
 10
414.2668015653686
 20
309.4736517155087
 30
0.0
 11
412.4474889660834
 21
311.292964314794
 31
0.0
  0
LINE
  5
1203
330
18
100
AcDbEntity
  8
ﾊｯﾁﾝｸ
  6
Continuous
100
AcDbLine
 10
416.0345685183351
 20
309.4736517155087
 30
0.0
 11
412.4474889660834
 21
313.0607312677605
 31
0.0
  0
LINE
  5
1204
330
18
100
AcDbEntity
  8
ﾊｯﾁﾝｸ
  6
Continuous
100
AcDbLine
 10
416.4474889660834
 20
310.8284982207268
 30
0.0
 11
412.4474889660834
 21
314.8284982207268
 31
0.0
  0
LINE
  5
1205
330
18
100
AcDbEntity
  8
ﾊｯﾁﾝｸ
  6
Continuous
100
AcDbLine
 10
416.4474889660834
 20
312.5962651736931
 30
0.0
 11
413.5701024242678
 21
315.4736517155086
 31
0.0
  0
LINE
  5
1206
330
18
100
AcDbEntity
  8
ﾊｯﾁﾝｸ
  6
Continuous
100
AcDbLine
 10
416.4474889660834
 20
314.3640321266595
 30
0.0
 11
415.3378693772342
 21
315.4736517155086
 31
0.0
  0
CIRCLE
  5
1207
330
18
100
AcDbEntity
  8
針
100
AcDbCircle
 10
325.8765380519361
 20
281.4736517155088
 30
0.0
 40
1.9
  0
CIRCLE
  5
1208
330
18
100
AcDbEntity
  8
針
100
AcDbCircle
 10
325.8765380519361
 20
281.4736517155088
 30
0.0
 40
1.5
  0
POINT
  5
1209
330
18
100
AcDbEntity
  8
DEFPOINTS
  6
ByBlock
 62
     0
100
AcDbPoint
 10
325.8765380519361
 20
281.4736517155088
 30
0.0
  0
POINT
  5
120A
330
18
100
AcDbEntity
  8
DEFPOINTS
  6
ByBlock
 62
     0
100
AcDbPoint
 10
325.8765380519361
 20
281.4736517155088
 30
0.0
  0
CIRCLE
  5
120B
330
18
100
AcDbEntity
  8
針
100
AcDbCircle
 10
325.8765380519361
 20
281.4736517155088
 30
0.0
 40
0.475
  0
ARC
  5
120C
330
18
100
AcDbEntity
  8
針
100
AcDbCircle
 10
321.1426537594096
 20
281.86459864921
 30
0.0
 40
3.0
100
AcDbArc
 50
6.527720822960354
 51
36.00000000000001
  0
HATCH
  5
120D
330
18
100
AcDbEntity
  8
針
100
AcDbHatch
 10
0.0
 20
0.0
 30
0.0
210
0.0
220
0.0
230
1.0
  2
SOLID
 70
     1
 71
     0
 91
        2
 92
        7
 72
     1
 73
     1
 93
        5
 10
313.0180740309953
 20
299.324926264464
 42
0.0
 10
312.9452625015017
 20
299.2720255917578
 42
0.0
 10
312.872450972008
 20
299.2191249190514
 42
0.0
 10
316.5524516782032
 20
293.8555503298236
 42
-0.0085634322047721
 10
316.9819538371895
 20
294.1676019141972
 42
0.0
 97
        0
 92
        7
 72
     1
 73
     1
 93
        6
 10
316.9819538371895
 20
294.1676019141972
 42
0.0085634322047721
 10
316.5524516782032
 20
293.8555503298236
 42
0.0
 10
323.5697047425347
 20
283.627954406087
 42
-0.1293106770632391
 10
324.123204667769
 20
282.2056503794181
 42
-0.2805221108582334
 10
325.7221757652185
 20
283.3673708827666
 42
-0.1293106770632486
 10
324.5405251357847
 20
284.3332967088382
 42
0.0
 97
        0
 75
     0
 76
     1
 47
0.0423559757596284
 98
        2
 10
316.3651083504831
 20
294.4960021010627
 10
319.0571945763378
 20
291.007011212555
450
        0
451
        0
460
0.0
461
0.0
452
        0
462
0.0
453
        0
470

  0
LINE
  5
120E
330
18
100
AcDbEntity
  8
針
100
AcDbLine
 10
312.872450972008
 20
299.2191249190514
 30
0.0
 11
323.5697047425344
 21
283.6279544060874
 31
0.0
  0
ARC
  5
120F
330
18
100
AcDbEntity
  8
針
100
AcDbCircle
 10
326.9675761189093
 20
286.0966524657159
 30
0.0
 40
3.0
100
AcDbArc
 50
216.0
 51
245.4722791770396
  0
LINE
  5
1210
330
18
100
AcDbEntity
  8
針
100
AcDbLine
 10
312.9452625015016
 20
299.2720255917577
 30
0.0
 11
312.872450972008
 21
299.2191249190514
 31
0.0
  0
LINE
  5
1211
330
18
100
AcDbEntity
  8
針
100
AcDbLine
 10
312.9452625015017
 20
299.2720255917578
 30
0.0
 11
313.0180740309953
 21
299.324926264464
 31
0.0
  0
LINE
  5
1212
330
18
100
AcDbEntity
  8
針
100
AcDbLine
 10
313.0180740309953
 20
299.324926264464
 30
0.0
 11
324.5405251357845
 21
284.3332967088385
 31
0.0
  0
LINE
  5
1213
330
18
100
AcDbEntity
  8
0
  6
ByBlock
 62
     2
100
AcDbLine
 10
302.876538051936
 20
281.4736517155088
 30
0.0
 11
302.876538051936
 21
334.3240463763789
 31
0.0
  0
LINE
  5
1214
330
18
100
AcDbEntity
  8
0
  6
ByBlock
 62
     2
100
AcDbLine
 10
348.8765380519361
 20
281.4736517155088
 30
0.0
 11
348.8765380519361
 21
334.3240463763789
 31
0.0
  0
LINE
  5
1215
330
18
100
AcDbEntity
  8
0
  6
ByBlock
 62
     2
100
AcDbLine
 10
305.3765380519361
 20
333.0740463763789
 30
0.0
 11
346.376538051936
 21
333.0740463763789
 31
0.0
  0
INSERT
  5
1216
330
18
100
AcDbEntity
  8
0
  6
ByBlock
 62
     2
100
AcDbBlockReference
  2
_OPEN
 10
302.876538051936
 20
333.0740463763789
 30
0.0
 41
2.5
 42
2.5
 43
2.5
 50
180.0
  0
INSERT
  5
1217
330
18
100
AcDbEntity
  8
0
  6
ByBlock
 62
     2
100
AcDbBlockReference
  2
_OPEN
 10
348.8765380519361
 20
333.0740463763789
 30
0.0
 41
2.5
 42
2.5
 43
2.5
  0
MTEXT
  5
1218
330
18
100
AcDbEntity
  8
0
  6
ByBlock
 62
     6
100
AcDbMText
 10
325.876538051936
 20
334.9490463763789
 30
0.0
 40
2.5
 41
0.0
 71
     5
 72
     1
  1
\A1;46
  7
STYLE3
 73
     1
 44
1.0
  0
POINT
  5
1219
330
18
100
AcDbEntity
  8
DEFPOINTS
  6
ByBlock
 62
     0
100
AcDbPoint
 10
302.876538051936
 20
281.4736517155088
 30
0.0
  0
POINT
  5
121A
330
18
100
AcDbEntity
  8
DEFPOINTS
  6
ByBlock
 62
     0
100
AcDbPoint
 10
348.8765380519361
 20
281.4736517155088
 30
0.0
  0
POINT
  5
121B
330
18
100
AcDbEntity
  8
DEFPOINTS
  6
ByBlock
 62
     0
100
AcDbPoint
 10
348.8765380519361
 20
333.0740463763789
 30
0.0
  0
LINE
  5
121C
330
18
100
AcDbEntity
  8
0
  6
ByBlock
 62
     2
100
AcDbLine
 10
406.1474889660834
 20
307.8736517155087
 30
0.0
 11
376.6046671841392
 21
307.8736517155087
 31
0.0
  0
LINE
  5
121D
330
18
100
AcDbEntity
  8
0
  6
ByBlock
 62
     2
100
AcDbLine
 10
406.1474889660834
 20
255.0736517155088
 30
0.0
 11
376.6046671841392
 21
255.0736517155088
 31
0.0
  0
LINE
  5
121E
330
18
100
AcDbEntity
  8
0
  6
ByBlock
 62
     2
100
AcDbLine
 10
377.8546671841393
 20
305.3736517155087
 30
0.0
 11
377.8546671841393
 21
257.5736517155088
 31
0.0
  0
INSERT
  5
121F
330
18
100
AcDbEntity
  8
0
  6
ByBlock
 62
     2
100
AcDbBlockReference
  2
_OPEN
 10
377.8546671841393
 20
307.8736517155087
 30
0.0
 41
2.5
 42
2.5
 43
2.5
 50
90.0
  0
INSERT
  5
1220
330
18
100
AcDbEntity
  8
0
  6
ByBlock
 62
     2
100
AcDbBlockReference
  2
_OPEN
 10
377.8546671841393
 20
255.0736517155088
 30
0.0
 41
2.5
 42
2.5
 43
2.5
 50
270.0
  0
MTEXT
  5
1221
330
18
100
AcDbEntity
  8
0
  6
ByBlock
 62
     6
100
AcDbMText
 10
375.9796671841393
 20
281.4736517155088
 30
0.0
 40
2.5
 41
0.0
 71
     5
 72
     1
  1
\A1;φ53
  7
STYLE3
 11
0.0000000000000001
 21
1.0
 31
0.0
 73
     1
 44
1.0
  0
POINT
  5
1222
330
18
100
AcDbEntity
  8
DEFPOINTS
  6
ByBlock
 62
     0
100
AcDbPoint
 10
406.1474889660834
 20
307.8736517155087
 30
0.0
  0
POINT
  5
1223
330
18
100
AcDbEntity
  8
DEFPOINTS
  6
ByBlock
 62
     0
100
AcDbPoint
 10
406.1474889660834
 20
255.0736517155088
 30
0.0
  0
POINT
  5
1224
330
18
100
AcDbEntity
  8
DEFPOINTS
  6
ByBlock
 62
     0
100
AcDbPoint
 10
377.8546671841393
 20
255.0736517155088
 30
0.0
  0
LINE
  5
1225
102
{ACAD_REACTORS
330
1228
102
}
330
18
100
AcDbEntity
  8
外形線
100
AcDbLine
 10
337.7153269894037
 20
283.013235048842
 30
0.0
 11
336.7153269894036
 21
283.013235048842
 31
0.0
  0
LINE
  5
1226
102
{ACAD_REACTORS
330
1228
102
}
330
18
100
AcDbEntity
  8
外形線
100
AcDbLine
 10
337.7153269894037
 20
282.8340683821754
 30
0.0
 11
336.7153269894036
 21
282.8340683821754
 31
0.0
  0
TEXT
  5
1227
330
18
100
AcDbEntity
  8
文字
100
AcDbText
 10
331.9450733721899
 20
280.4373614810962
 30
0.0
 40
1.0
  1
0.01mm
  7
STYLE3
100
AcDbText
  0
HATCH
  5
1228
330
18
100
AcDbEntity
  8
外形線
100
AcDbHatch
 10
0.0
 20
0.0
 30
0.0
210
0.0
220
0.0
230
1.0
  2
SOLID
 70
     1
 71
     1
 91
        2
 92
        1
 93
        7
 72
     1
 10
335.5486603227369
 20
282.9236517155088
 11
336.7153269894036
 21
282.4990197755315
 72
     1
 10
336.7153269894036
 20
282.4990197755316
 11
336.7153269894036
 21
282.8340683821754
 72
     1
 10
336.7153269894036
 20
282.8340683821754
 11
337.7153269894037
 21
282.8340683821754
 72
     1
 10
337.7153269894037
 20
282.8340683821754
 11
337.7153269894037
 21
283.013235048842
 72
     1
 10
337.7153269894037
 20
283.013235048842
 11
336.7153269894036
 21
283.013235048842
 72
     1
 10
336.7153269894036
 20
283.013235048842
 11
336.7153269894036
 21
283.348283655486
 72
     1
 10
336.7153269894036
 20
283.348283655486
 11
335.5486603227369
 21
282.9236517155088
 97
        7
330
1231
330
1234
330
1226
330
124D
330
1225
330
1230
330
1237
 92
        1
 93
        4
 72
     1
 10
335.5486603227369
 20
283.6736517155088
 11
335.5486603227369
 21
282.1736517155088
 72
     1
 10
335.5486603227369
 20
282.1736517155088
 11
335.3819936560703
 21
282.1736517155088
 72
     1
 10
335.3819936560703
 20
282.1736517155088
 11
335.3819936560703
 21
283.6736517155088
 72
     1
 10
335.3819936560703
 20
283.6736517155088
 11
335.5486603227369
 21
283.6736517155088
 97
        4
330
1236
330
1243
330
1235
330
122D
 75
     0
 76
     1
 98
        1
 10
243.2191036162566
 20
214.2615009083277
450
        0
451
        0
460
0.0
461
0.0
452
        0
462
0.0
453
        0
470

  0
LINE
  5
1229
102
{ACAD_REACTORS
330
122B
102
}
330
18
100
AcDbEntity
  8
外形線
100
AcDbLine
 10
332.2153269894037
 20
283.013235048842
 30
0.0
 11
333.2153269894036
 21
283.013235048842
 31
0.0
  0
LINE
  5
122A
102
{ACAD_REACTORS
330
122B
102
}
330
18
100
AcDbEntity
  8
外形線
100
AcDbLine
 10
332.2153269894037
 20
282.8340683821754
 30
0.0
 11
333.2153269894036
 21
282.8340683821754
 31
0.0
  0
HATCH
  5
122B
330
18
100
AcDbEntity
  8
外形線
100
AcDbHatch
 10
0.0
 20
0.0
 30
0.0
210
0.0
220
0.0
230
1.0
  2
SOLID
 70
     1
 71
     1
 91
        2
 92
        1
 93
        7
 72
     1
 10
334.3819936560704
 20
282.9236517155088
 11
333.2153269894036
 21
282.4990197755315
 72
     1
 10
333.2153269894036
 20
282.4990197755316
 11
333.2153269894036
 21
282.8340683821754
 72
     1
 10
333.2153269894036
 20
282.8340683821754
 11
332.2153269894037
 21
282.8340683821754
 72
     1
 10
332.2153269894037
 20
282.8340683821754
 11
332.2153269894037
 21
283.013235048842
 72
     1
 10
332.2153269894037
 20
283.013235048842
 11
333.2153269894036
 21
283.013235048842
 72
     1
 10
333.2153269894036
 20
283.013235048842
 11
333.2153269894036
 21
283.348283655486
 72
     1
 10
333.2153269894036
 20
283.348283655486
 11
334.3819936560704
 21
282.9236517155088
 97
        7
330
123F
330
123C
330
122A
330
122C
330
1229
330
1239
330
1240
 92
        1
 93
        4
 72
     1
 10
334.3819936560704
 20
283.6736517155088
 11
334.3819936560704
 21
282.1736517155088
 72
     1
 10
334.3819936560704
 20
282.1736517155088
 11
334.5486603227369
 21
282.1736517155088
 72
     1
 10
334.5486603227369
 20
282.1736517155088
 11
334.5486603227369
 21
283.6736517155088
 72
     1
 10
334.5486603227369
 20
283.6736517155088
 11
334.3819936560704
 21
283.6736517155088
 97
        4
330
1241
330
124C
330
1242
330
1238
 75
     0
 76
     1
 98
        1
 10
426.7115503625507
 20
214.2615009083277
450
        0
451
        0
460
0.0
461
0.0
452
        0
462
0.0
453
        0
470

  0
LINE
  5
122C
102
{ACAD_REACTORS
330
122B
102
}
330
18
100
AcDbEntity
  8
外形線
100
AcDbLine
 10
332.2153269894037
 20
283.013235048842
 30
0.0
 11
332.2153269894037
 21
282.8340683821754
 31
0.0
  0
LINE
  5
122D
102
{ACAD_REACTORS
330
1228
102
}
330
18
100
AcDbEntity
  8
外形線
100
AcDbLine
 10
335.3819936560703
 20
283.6736517155088
 30
0.0
 11
335.5486603227369
 21
283.6736517155088
 31
0.0
  0
POINT
  5
122E
330
18
100
AcDbEntity
  8
DEFPOINTS
  6
ByBlock
 62
     0
100
AcDbPoint
 10
336.7153269894036
 20
283.348283655486
 30
0.0
  0
POINT
  5
122F
330
18
100
AcDbEntity
  8
DEFPOINTS
  6
ByBlock
 62
     0
100
AcDbPoint
 10
336.7153269894036
 20
283.348283655486
 30
0.0
  0
LINE
  5
1230
102
{ACAD_REACTORS
330
1228
102
}
330
18
100
AcDbEntity
  8
外形線
100
AcDbLine
 10
336.7153269894036
 20
283.348283655486
 30
0.0
 11
336.7153269894036
 21
283.013235048842
 31
0.0
  0
LINE
  5
1231
102
{ACAD_REACTORS
330
1228
102
}
330
18
100
AcDbEntity
  8
外形線
100
AcDbLine
 10
335.5486603227369
 20
282.9236517155088
 30
0.0
 11
336.7153269894036
 21
282.4990197755315
 31
0.0
  0
POINT
  5
1232
330
18
100
AcDbEntity
  8
DEFPOINTS
  6
ByBlock
 62
     0
100
AcDbPoint
 10
336.7153269894036
 20
282.4990197755315
 30
0.0
  0
POINT
  5
1233
330
18
100
AcDbEntity
  8
DEFPOINTS
  6
ByBlock
 62
     0
100
AcDbPoint
 10
336.7153269894036
 20
282.4990197755315
 30
0.0
  0
LINE
  5
1234
102
{ACAD_REACTORS
330
1228
102
}
330
18
100
AcDbEntity
  8
外形線
100
AcDbLine
 10
336.7153269894036
 20
282.8340683821754
 30
0.0
 11
336.7153269894036
 21
282.4990197755316
 31
0.0
  0
LINE
  5
1235
102
{ACAD_REACTORS
330
1228
102
}
330
18
100
AcDbEntity
  8
外形線
100
AcDbLine
 10
335.3819936560703
 20
283.6736517155088
 30
0.0
 11
335.3819936560703
 21
282.1736517155088
 31
0.0
  0
LINE
  5
1236
102
{ACAD_REACTORS
330
1228
102
}
330
18
100
AcDbEntity
  8
外形線
100
AcDbLine
 10
335.5486603227369
 20
283.6736517155088
 30
0.0
 11
335.5486603227369
 21
282.1736517155088
 31
0.0
  0
LINE
  5
1237
102
{ACAD_REACTORS
330
1228
102
}
330
18
100
AcDbEntity
  8
外形線
100
AcDbLine
 10
335.5486603227369
 20
282.9236517155088
 30
0.0
 11
336.7153269894036
 21
283.348283655486
 31
0.0
  0
LINE
  5
1238
102
{ACAD_REACTORS
330
122B
102
}
330
18
100
AcDbEntity
  8
外形線
100
AcDbLine
 10
334.5486603227369
 20
283.6736517155088
 30
0.0
 11
334.3819936560704
 21
283.6736517155088
 31
0.0
  0
LINE
  5
1239
102
{ACAD_REACTORS
330
122B
102
}
330
18
100
AcDbEntity
  8
外形線
100
AcDbLine
 10
333.2153269894036
 20
283.348283655486
 30
0.0
 11
333.2153269894036
 21
283.013235048842
 31
0.0
  0
POINT
  5
123A
330
18
100
AcDbEntity
  8
DEFPOINTS
  6
ByBlock
 62
     0
100
AcDbPoint
 10
333.2153269894036
 20
283.348283655486
 30
0.0
  0
POINT
  5
123B
330
18
100
AcDbEntity
  8
DEFPOINTS
  6
ByBlock
 62
     0
100
AcDbPoint
 10
333.2153269894036
 20
283.348283655486
 30
0.0
  0
LINE
  5
123C
102
{ACAD_REACTORS
330
122B
102
}
330
18
100
AcDbEntity
  8
外形線
100
AcDbLine
 10
333.2153269894036
 20
282.8340683821754
 30
0.0
 11
333.2153269894036
 21
282.4990197755316
 31
0.0
  0
POINT
  5
123D
330
18
100
AcDbEntity
  8
DEFPOINTS
  6
ByBlock
 62
     0
100
AcDbPoint
 10
333.2153269894036
 20
282.4990197755315
 30
0.0
  0
POINT
  5
123E
330
18
100
AcDbEntity
  8
DEFPOINTS
  6
ByBlock
 62
     0
100
AcDbPoint
 10
333.2153269894036
 20
282.4990197755315
 30
0.0
  0
LINE
  5
123F
102
{ACAD_REACTORS
330
122B
102
}
330
18
100
AcDbEntity
  8
外形線
100
AcDbLine
 10
334.3819936560704
 20
282.9236517155088
 30
0.0
 11
333.2153269894036
 21
282.4990197755315
 31
0.0
  0
LINE
  5
1240
102
{ACAD_REACTORS
330
122B
102
}
330
18
100
AcDbEntity
  8
外形線
100
AcDbLine
 10
334.3819936560704
 20
282.9236517155088
 30
0.0
 11
333.2153269894036
 21
283.348283655486
 31
0.0
  0
LINE
  5
1241
102
{ACAD_REACTORS
330
122B
102
}
330
18
100
AcDbEntity
  8
外形線
100
AcDbLine
 10
334.3819936560704
 20
283.6736517155088
 30
0.0
 11
334.3819936560704
 21
282.1736517155088
 31
0.0
  0
LINE
  5
1242
102
{ACAD_REACTORS
330
122B
102
}
330
18
100
AcDbEntity
  8
外形線
100
AcDbLine
 10
334.5486603227369
 20
283.6736517155088
 30
0.0
 11
334.5486603227369
 21
282.1736517155088
 31
0.0
  0
LINE
  5
1243
102
{ACAD_REACTORS
330
1228
102
}
330
18
100
AcDbEntity
  8
外形線
100
AcDbLine
 10
335.3819936560703
 20
282.1736517155088
 30
0.0
 11
335.5486603227369
 21
282.1736517155088
 31
0.0
  0
POINT
  5
1244
330
18
100
AcDbEntity
  8
DEFPOINTS
  6
ByBlock
 62
     0
100
AcDbPoint
 10
335.5486603227369
 20
282.1736517155088
 30
0.0
  0
POINT
  5
1245
330
18
100
AcDbEntity
  8
DEFPOINTS
  6
ByBlock
 62
     0
100
AcDbPoint
 10
335.3819936560703
 20
282.1736517155088
 30
0.0
  0
POINT
  5
1246
330
18
100
AcDbEntity
  8
DEFPOINTS
  6
ByBlock
 62
     0
100
AcDbPoint
 10
335.5486603227369
 20
282.1736517155088
 30
0.0
  0
POINT
  5
1247
330
18
100
AcDbEntity
  8
DEFPOINTS
  6
ByBlock
 62
     0
100
AcDbPoint
 10
335.3819936560703
 20
282.1736517155088
 30
0.0
  0
POINT
  5
1248
330
18
100
AcDbEntity
  8
DEFPOINTS
  6
ByBlock
 62
     0
100
AcDbPoint
 10
334.5486603227369
 20
282.1736517155088
 30
0.0
  0
POINT
  5
1249
330
18
100
AcDbEntity
  8
DEFPOINTS
  6
ByBlock
 62
     0
100
AcDbPoint
 10
334.3819936560704
 20
282.1736517155088
 30
0.0
  0
POINT
  5
124A
330
18
100
AcDbEntity
  8
DEFPOINTS
  6
ByBlock
 62
     0
100
AcDbPoint
 10
334.5486603227369
 20
282.1736517155088
 30
0.0
  0
POINT
  5
124B
330
18
100
AcDbEntity
  8
DEFPOINTS
  6
ByBlock
 62
     0
100
AcDbPoint
 10
334.3819936560704
 20
282.1736517155088
 30
0.0
  0
LINE
  5
124C
102
{ACAD_REACTORS
330
122B
102
}
330
18
100
AcDbEntity
  8
外形線
100
AcDbLine
 10
334.5486603227369
 20
282.1736517155088
 30
0.0
 11
334.3819936560704
 21
282.1736517155088
 31
0.0
  0
LINE
  5
124D
102
{ACAD_REACTORS
330
1228
102
}
330
18
100
AcDbEntity
  8
外形線
100
AcDbLine
 10
337.7153269894037
 20
283.013235048842
 30
0.0
 11
337.7153269894037
 21
282.8340683821754
 31
0.0
  0
LINE
  5
124E
330
18
100
AcDbEntity
  8
ﾊｯﾁﾝｸ
100
AcDbLine
 10
323.376538051936
 20
224.8665228200291
 30
0.0
 11
323.7836669474157
 21
225.2736517155088
 31
0.0
  0
LINE
  5
124F
330
18
100
AcDbEntity
  8
ﾊｯﾁﾝｸ
100
AcDbLine
 10
323.376538051936
 20
223.5194844018687
 30
0.0
 11
325.1307053655761
 21
225.2736517155088
 31
0.0
  0
LINE
  5
1250
330
18
100
AcDbEntity
  8
ﾊｯﾁﾝｸ
100
AcDbLine
 10
323.3777437837364
 20
222.1736517155088
 30
0.0
 11
325.8765380519361
 21
224.6724459837084
 31
0.0
  0
LINE
  5
1251
330
18
100
AcDbEntity
  8
ﾊｯﾁﾝｸ
100
AcDbLine
 10
324.7247822018968
 20
222.1736517155088
 30
0.0
 11
325.876538051936
 21
223.325407565548
 31
0.0
  0
LINE
  5
1252
330
18
100
AcDbEntity
  8
ﾊｯﾁﾝｸ
100
AcDbLine
 10
323.4705859761215
 20
222.1736517155088
 30
0.0
 11
323.376538051936
 21
222.2676996396942
 31
0.0
  0
LINE
  5
1253
330
18
100
AcDbEntity
  8
ﾊｯﾁﾝｸ
100
AcDbLine
 10
324.8176243942819
 20
222.1736517155088
 30
0.0
 11
323.376538051936
 21
223.6147380578546
 31
0.0
  0
LINE
  5
1254
330
18
100
AcDbEntity
  8
ﾊｯﾁﾝｸ
100
AcDbLine
 10
325.876538051936
 20
222.4617764760149
 30
0.0
 11
323.376538051936
 21
224.9617764760149
 31
0.0
  0
LINE
  5
1255
330
18
100
AcDbEntity
  8
ﾊｯﾁﾝｸ
100
AcDbLine
 10
325.8765380519361
 20
223.8088148941753
 30
0.0
 11
324.4117012306026
 21
225.2736517155088
 31
0.0
  0
LINE
  5
1256
330
18
100
AcDbEntity
  8
ﾊｯﾁﾝｸ
100
AcDbLine
 10
325.876538051936
 20
225.1558533123357
 30
0.0
 11
325.758739648763
 21
225.2736517155088
 31
0.0
  0
HATCH
  5
1257
330
18
100
AcDbEntity
  8
針
100
AcDbHatch
 10
0.0
 20
0.0
 30
0.0
210
0.0
220
0.0
230
1.0
  2
SOLID
 70
     1
 71
     0
 91
        2
 92
        7
 72
     1
 73
     1
 93
        5
 10
321.6274494061129
 20
271.0689039245401
 42
0.31735696877887
 10
322.636782401445
 20
270.3003989531778
 42
0.0
 10
322.9109990968148
 20
270.6560648727006
 42
0.0
 10
322.9020674015642
 20
270.6843925909337
 42
-0.4142135623731173
 10
321.9612503388749
 20
271.1741509543667
 42
0.0
 97
        0
 92
        7
 72
     1
 73
     1
 93
        4
 10
321.6274494061129
 20
271.0689039245401
 42
0.0
 10
321.9612503388749
 20
271.1741509543667
 42
-0.4142135623730728
 10
322.4510087023078
 20
272.114968017056
 42
0.0
 10
322.3457616724813
 20
272.4487689498179
 42
0.4142135623730844
 97
        0
 75
     0
 76
     1
 47
0.0161501285364394
 98
        2
 10
321.9665065708708
 20
270.7528612114598
 10
321.7680592910277
 20
271.4359620639415
450
        0
451
        0
460
0.0
461
0.0
452
        0
462
0.0
453
        0
470

  0
HATCH
  5
1258
330
18
100
AcDbEntity
  8
針
100
AcDbHatch
 10
0.0
 20
0.0
 30
0.0
210
0.0
220
0.0
230
1.0
  2
SOLID
 70
     1
 71
     0
 91
        4
 92
        7
 72
     1
 73
     1
 93
        4
 10
322.8618763694576
 20
272.4839541199926
 42
0.0
 10
322.8029050866098
 20
272.1389579058115
 42
-0.4142135623730951
 10
323.4158156537526
 20
271.2733132693212
 42
0.0
 10
323.7608118679337
 20
271.2143419864734
 42
0.4142135623730996
 97
        0
 92
        7
 72
     1
 73
     1
 93
        5
 10
322.8029050866098
 20
272.1389579058115
 42
0.0
 10
322.8618763694576
 20
272.4839541199926
 42
0.3173569687788799
 10
321.7169914450939
 20
271.9375188571852
 42
0.0
 10
321.9079826543208
 20
271.5310518839542
 42
0.0
 10
321.9372604501193
 20
271.5260473386687
 42
-0.4142135623730839
 97
        0
 92
        7
 72
     1
 73
     1
 93
        4
 10
323.7608118679337
 20
271.2143419864734
 42
0.0
 10
323.4158156537526
 20
271.2733132693212
 42
-0.4142135623730951
 10
322.5501710172622
 20
270.6604027021782
 42
0.0
 10
322.4911997344145
 20
270.3154064879972
 42
0.4142135623730996
 97
        0
 92
        7
 72
     1
 73
     1
 93
        4
 10
322.5501710172622
 20
270.6604027021782
 42
-0.1036385141593389
 10
322.2640305260666
 20
270.7733117694235
 42
0.0
 10
322.4781012406587
 20
270.3177270554994
 42
0.003023315109616
 10
322.4911997344145
 20
270.3154064879972
 42
0.0
 97
        0
 75
     0
 76
     1
 47
0.0223982890607777
 98
        4
 10
323.5386625779629
 20
271.8857874425065
 10
322.4161267309984
 20
272.2367280138771
 10
323.5386002732007
 20
270.9541490734381
 10
322.4758361045905
 20
270.5904547059799
450
        0
451
        0
460
0.0
461
0.0
452
        0
462
0.0
453
        0
470

  0
CIRCLE
  5
1259
330
18
100
AcDbEntity
  8
針
100
AcDbCircle
 10
322.676538051936
 20
271.3996803039949
 30
0.0
 40
1.1
  0
CIRCLE
  5
125A
330
18
100
AcDbEntity
  8
針
100
AcDbCircle
 10
322.676538051936
 20
271.3996803039949
 30
0.0
 40
0.75
  0
HATCH
  5
125B
330
18
100
AcDbEntity
  8
針
100
AcDbHatch
 10
0.0
 20
0.0
 30
0.0
210
0.0
220
0.0
230
1.0
  2
SOLID
 70
     1
 71
     0
 91
        1
 92
        7
 72
     1
 73
     1
 93
        7
 10
327.3734130222795
 20
271.2012728621955
 42
0.0
 10
327.3755072642678
 20
271.3012509305431
 42
0.0
 10
327.3776015062562
 20
271.4012289988906
 42
0.0
 10
324.1366225037552
 20
271.5140360400807
 42
-0.2935495917910092
 10
323.6923035959223
 20
271.8218418366452
 42
-0.2104432563350663
 10
323.6737346202654
 20
270.9353539057446
 42
-0.2935491884945053
 10
324.1305530404146
 20
271.2242828863989
 42
0.0
 97
        0
 75
     0
 76
     1
 47
0.0140573597042523
 98
        1
 10
325.5692360106451
 20
271.2804723485759
450
        0
451
        0
460
0.0
461
0.0
452
        0
462
0.0
453
        0
470

  0
LINE
  5
125C
330
18
100
AcDbEntity
  8
針
100
AcDbLine
 10
324.1305530404147
 20
271.2242828863989
 30
0.0
 11
327.3734130222794
 21
271.2012728621956
 31
0.0
  0
LINE
  5
125D
330
18
100
AcDbEntity
  8
針
100
AcDbLine
 10
324.1366225037552
 20
271.5140360400807
 30
0.0
 11
327.3776015062561
 21
271.4012289988906
 31
0.0
  0
CIRCLE
  5
125E
330
18
100
AcDbEntity
  8
針
 62
     4
100
AcDbCircle
 10
322.676538051936
 20
271.3996803039949
 30
0.0
 40
0.4
  0
ARC
  5
125F
330
18
100
AcDbEntity
  8
針
100
AcDbCircle
 10
324.1270053317399
 20
270.7242954727943
 30
0.0
 40
0.5
100
AcDbArc
 50
89.59345912073466
 51
155.0317787024804
  0
ARC
  5
1260
330
18
100
AcDbEntity
  8
針
100
AcDbCircle
 10
324.1540152068248
 20
272.0137334423953
 30
0.0
 40
0.5
100
AcDbArc
 50
202.5682212975195
 51
268.0065408792652
  0
LINE
  5
1261
330
18
100
AcDbEntity
  8
文字
100
AcDbLine
 10
327.3734130222794
 20
271.2012728621956
 30
0.0
 11
327.3776015062561
 21
271.4012289988906
 31
0.0
  0
LINE
  5
1262
330
18
100
AcDbEntity
  8
ﾊｯﾁﾝｸ
  6
Continuous
100
AcDbLine
 10
321.8765380519361
 20
315.2401455118065
 30
0.0
 11
322.1100442556383
 21
315.4736517155086
 31
0.0
  0
LINE
  5
1263
330
18
100
AcDbEntity
  8
ﾊｯﾁﾝｸ
  6
Continuous
100
AcDbLine
 10
321.8765380519361
 20
313.4723785588401
 30
0.0
 11
323.8778112086046
 21
315.4736517155086
 31
0.0
  0
LINE
  5
1264
330
18
100
AcDbEntity
  8
ﾊｯﾁﾝｸ
  6
Continuous
100
AcDbLine
 10
321.8765380519361
 20
311.7046116058738
 30
0.0
 11
325.645578161571
 21
315.4736517155086
 31
0.0
  0
LINE
  5
1265
330
18
100
AcDbEntity
  8
ﾊｯﾁﾝｸ
  6
Continuous
100
AcDbLine
 10
321.8765380519361
 20
309.9368446529074
 30
0.0
 11
325.8765380519361
 21
313.9368446529074
 31
0.0
  0
LINE
  5
1266
330
18
100
AcDbEntity
  8
ﾊｯﾁﾝｸ
  6
Continuous
100
AcDbLine
 10
323.1811120675037
 20
309.4736517155086
 30
0.0
 11
325.8765380519361
 21
312.1690776999411
 31
0.0
  0
LINE
  5
1267
330
18
100
AcDbEntity
  8
ﾊｯﾁﾝｸ
  6
Continuous
100
AcDbLine
 10
324.9488790204702
 20
309.4736517155086
 30
0.0
 11
325.8765380519361
 21
310.4013107469746
 31
0.0
  0
LINE
  5
1268
330
18
100
AcDbEntity
  8
ﾊｯﾁﾝｸ
  6
Continuous
100
AcDbLine
 10
321.9280836982551
 20
309.4736517155086
 30
0.0
 11
321.8765380519361
 21
309.5251973618275
 31
0.0
  0
LINE
  5
1269
330
18
100
AcDbEntity
  8
ﾊｯﾁﾝｸ
  6
Continuous
100
AcDbLine
 10
323.6958506512214
 20
309.4736517155086
 30
0.0
 11
321.8765380519361
 21
311.292964314794
 31
0.0
  0
LINE
  5
126A
330
18
100
AcDbEntity
  8
ﾊｯﾁﾝｸ
  6
Continuous
100
AcDbLine
 10
325.4636176041878
 20
309.4736517155086
 30
0.0
 11
321.8765380519361
 21
313.0607312677603
 31
0.0
  0
LINE
  5
126B
330
18
100
AcDbEntity
  8
ﾊｯﾁﾝｸ
  6
Continuous
100
AcDbLine
 10
325.8765380519361
 20
310.8284982207266
 30
0.0
 11
321.8765380519361
 21
314.8284982207266
 31
0.0
  0
LINE
  5
126C
330
18
100
AcDbEntity
  8
ﾊｯﾁﾝｸ
  6
Continuous
100
AcDbLine
 10
325.876538051936
 20
312.5962651736931
 30
0.0
 11
322.9991515101205
 21
315.4736517155086
 31
0.0
  0
LINE
  5
126D
330
18
100
AcDbEntity
  8
ﾊｯﾁﾝｸ
  6
Continuous
100
AcDbLine
 10
325.876538051936
 20
314.3640321266594
 30
0.0
 11
324.7669184630869
 21
315.4736517155086
 31
0.0
  0
LINE
  5
1272
330
18
100
AcDbEntity
  8
ﾊｯﾁﾝｸ
100
AcDbLine
 10
413.9474889660834
 20
224.8665228200292
 30
0.0
 11
414.3546178615631
 21
225.2736517155088
 31
0.0
  0
LINE
  5
1273
330
18
100
AcDbEntity
  8
ﾊｯﾁﾝｸ
100
AcDbLine
 10
413.9474889660834
 20
223.5194844018688
 30
0.0
 11
415.7016562797235
 21
225.2736517155088
 31
0.0
  0
LINE
  5
1274
330
18
100
AcDbEntity
  8
ﾊｯﾁﾝｸ
100
AcDbLine
 10
413.9486946978839
 20
222.1736517155088
 30
0.0
 11
416.4474889660835
 21
224.6724459837084
 31
0.0
  0
LINE
  5
1275
330
18
100
AcDbEntity
  8
ﾊｯﾁﾝｸ
100
AcDbLine
 10
415.2957331160441
 20
222.1736517155088
 30
0.0
 11
416.4474889660835
 21
223.325407565548
 31
0.0
  0
LINE
  5
1276
330
18
100
AcDbEntity
  8
ﾊｯﾁﾝｸ
100
AcDbLine
 10
414.0415368902688
 20
222.1736517155088
 30
0.0
 11
413.9474889660834
 21
222.2676996396942
 31
0.0
  0
LINE
  5
1277
330
18
100
AcDbEntity
  8
ﾊｯﾁﾝｸ
100
AcDbLine
 10
415.3885753084293
 20
222.1736517155088
 30
0.0
 11
413.9474889660835
 21
223.6147380578545
 31
0.0
  0
LINE
  5
1278
330
18
100
AcDbEntity
  8
ﾊｯﾁﾝｸ
100
AcDbLine
 10
416.4474889660834
 20
222.4617764760149
 30
0.0
 11
413.9474889660834
 21
224.9617764760149
 31
0.0
  0
LINE
  5
1279
330
18
100
AcDbEntity
  8
ﾊｯﾁﾝｸ
100
AcDbLine
 10
416.4474889660835
 20
223.8088148941753
 30
0.0
 11
414.9826521447499
 21
225.2736517155088
 31
0.0
  0
LINE
  5
127A
330
18
100
AcDbEntity
  8
ﾊｯﾁﾝｸ
100
AcDbLine
 10
416.4474889660835
 20
225.1558533123357
 30
0.0
 11
416.3296905629104
 21
225.2736517155088
 31
0.0
  0
ARC
  5
12B7
330
18
100
AcDbEntity
  8
外形線
100
AcDbCircle
 10
325.876538051936
 20
217.6736517155088
 30
0.0
 40
1.199999999999999
100
AcDbArc
 50
189.59406822686
 51
350.4059317731399
  0
ARC
  5
12B8
330
18
100
AcDbEntity
  8
外形線
100
AcDbCircle
 10
416.4474889660835
 20
217.6736517155088
 30
0.0
 40
1.199999999999999
100
AcDbArc
 50
189.59406822686
 51
350.4059317731399
  0
TEXT
  5
1306
330
18
100
AcDbEntity
  8
0
100
AcDbText
 10
330.2545718781677
 20
356.1882357395691
 30
0.0
 40
4.0
  1
Model No.57B Dial Gauge
  7
STYLE3
100
AcDbText
  0
LINE
  5
1307
330
18
100
AcDbEntity
  8
外形線
100
AcDbLine
 10
330.0713028781677
 20
352.797693739569
 30
0.0
 11
404.3379578781676
 21
352.797693739569
 31
0.0
  0
INSERT
  5
1308
330
18
100
AcDbEntity
  8
針
100
AcDbBlockReference
  2
A$C58896626
 10
329.9695068781677
 20
353.938607739569
 30
0.0
  0
LINE
  5
1309
330
18
100
AcDbEntity
  8
外形線
100
AcDbLine
 10
350.3802478781677
 20
172.258388739569
 30
0.0
 11
350.3802478781677
 21
192.653372739569
 31
0.0
  0
TEXT
  5
130A
330
18
100
AcDbEntity
  8
0
  6
Continuous
100
AcDbText
 10
351.8377148781677
 20
183.771156739569
 30
0.0
 40
2.1
  1
Design and specifications are subject to change without notice for future improvement.
  7
STYLE3
100
AcDbText
  0
TEXT
  5
130B
330
18
100
AcDbEntity
  8
0
  6
Continuous
100
AcDbText
 10
395.1504918781677
 20
175.754672739569
 30
0.0
 40
2.399999999999999
  1
mm
  7
STYLE3
100
AcDbText
  0
LINE
  5
130C
330
18
100
AcDbEntity
  8
外形線
100
AcDbLine
 10
350.3802478781677
 20
181.873166739569
 30
0.0
 11
491.1716648781676
 21
181.873166739569
 31
0.0
  0
TEXT
  5
130D
330
18
100
AcDbEntity
  8
0
  6
Continuous
100
AcDbText
 10
354.1696658781677
 20
177.502811739569
 30
0.0
 40
3.0
  1
三　　角　　法
  7
STYLE3
100
AcDbText
  0
TEXT
  5
130E
330
18
100
AcDbEntity
  8
0
  6
Continuous
100
AcDbText
 10
351.5462228781677
 20
174.006528739569
 30
0.0
 40
2.1
  1
3RD Angle Projection
  7
STYLE3
100
AcDbText
  0
TEXT
  5
130F
330
18
100
AcDbEntity
  8
0
  6
Continuous
100
AcDbText
 10
387.2801648781677
 20
174.006529739569
 30
0.0
 40
2.1
  1
Unit
  7
STYLE3
100
AcDbText
  0
TEXT
  5
1310
330
18
100
AcDbEntity
  8
0
  6
Continuous
100
AcDbText
 10
387.1084438781677
 20
177.508766739569
 30
0.0
 40
3.0
  1
単位
  7
STYLE3
100
AcDbText
  0
LINE
  5
1311
330
18
100
AcDbEntity
  8
外形線
100
AcDbLine
 10
385.6509748781677
 20
181.873166739569
 30
0.0
 11
385.6509748781677
 21
172.258388739569
 31
0.0
  0
TEXT
  5
1312
330
18
100
AcDbEntity
  8
0
  6
Continuous
100
AcDbText
 10
454.6264558781676
 20
174.006529739569
 30
0.0
 40
2.1
  1
OZAKI MFG. CO., LTD.
  7
STYLE3
100
AcDbText
  0
TEXT
  5
1313
330
18
100
AcDbEntity
  8
0
  6
Continuous
100
AcDbText
 10
453.7519778781677
 20
177.794168739569
 30
0.0
 40
3.0
  1
株式会社　尾崎製作所
  7
STYLE3
100
AcDbText
  0
TEXT
  5
1314
330
18
100
AcDbEntity
  8
0
  6
Continuous
100
AcDbText
 10
433.3474228781676
 20
175.754671739569
 30
0.0
 40
2.1
  1
2010.06.07
  7
STYLE3
100
AcDbText
  0
TEXT
  5
1315
330
18
100
AcDbEntity
  8
0
  6
Continuous
100
AcDbText
 10
414.5088438781677
 20
176.046029739569
 30
0.0
 40
2.399999999999999
  1
1/1
  7
STYLE3
100
AcDbText
  0
TEXT
  5
1316
330
18
100
AcDbEntity
  8
0
  6
Continuous
100
AcDbText
 10
404.8895548781676
 20
174.297886739569
 30
0.0
 40
2.1
  1
Scale
  7
STYLE3
100
AcDbText
  0
TEXT
  5
1317
330
18
100
AcDbEntity
  8
0
  6
Continuous
100
AcDbText
 10
404.4263398781676
 20
177.217408739569
 30
0.0
 40
3.0
  1
尺 度
  7
STYLE3
100
AcDbText
  0
LINE
  5
1318
330
18
100
AcDbEntity
  8
外形線
100
AcDbLine
 10
403.1405928781676
 20
181.873166739569
 30
0.0
 11
403.1405928781676
 21
172.258388739569
 31
0.0
  0
TEXT
  5
1319
330
18
100
AcDbEntity
  8
0
  6
Continuous
100
AcDbText
 10
424.2192548781676
 20
177.339613739569
 30
0.0
 40
3.0
  1
日 付
  7
STYLE3
100
AcDbText
  0
TEXT
  5
131A
330
18
100
AcDbEntity
  8
0
  6
Continuous
100
AcDbText
 10
424.6026158781677
 20
174.006530739569
 30
0.0
 40
2.1
  1
Date
  7
STYLE3
100
AcDbText
  0
LINE
  5
131B
330
18
100
AcDbEntity
  8
外形線
100
AcDbLine
 10
422.6706648781677
 20
181.873166739569
 30
0.0
 11
422.6706648781677
 21
172.258388739569
 31
0.0
  0
LINE
  5
131C
330
18
100
AcDbEntity
  8
外形線
100
AcDbLine
 10
452.4030138781677
 20
181.873166739569
 30
0.0
 11
452.4030138781677
 21
172.258388739569
 31
0.0
  0
TEXT
  5
131D
330
18
100
AcDbEntity
  8
0
  6
Continuous
100
AcDbText
 10
352.1292088781677
 20
187.700304739569
 30
0.0
 40
3.5
  1
仕様及び外観は予告なく変更される場合がございますのでご了承下さい。
  7
STYLE3
100
AcDbText
  0
LINE
  5
131E
330
18
100
AcDbEntity
  8
外形線
100
AcDbLine
 10
350.3802478781677
 20
192.653372739569
 30
0.0
 11
491.1716648781676
 21
192.653372739569
 31
0.0
  0
ENDSEC
  0
SECTION
  2
OBJECTS
  0
DICTIONARY
  5
C
330
0
100
AcDbDictionary
281
     1
  3
ACAD_COLOR
350
12A3
  3
ACAD_GROUP
350
D
  3
ACAD_IMAGE_DICT
350
E58
  3
ACAD_LAYOUT
350
12A6
  3
ACAD_MATERIAL
350
12A2
  3
ACAD_MLINESTYLE
350
1B
  3
ACAD_PLOTSETTINGS
350
12A7
  3
ACAD_PLOTSTYLENAME
350
12A0
  3
ACAD_TABLESTYLE
350
12A4
  3
ACDBVARIABLEDICTIONARY
350
FCB
  0
DICTIONARY
  5
12A3
102
{ACAD_REACTORS
330
C
102
}
330
C
100
AcDbDictionary
281
     1
  0
DICTIONARY
  5
D
102
{ACAD_REACTORS
330
C
102
}
330
C
100
AcDbDictionary
281
     1
  0
DICTIONARY
  5
E58
102
{ACAD_REACTORS
330
C
102
}
330
C
100
AcDbDictionary
281
     1
  3
ROGO01
350
E59
  0
DICTIONARY
  5
12A6
102
{ACAD_REACTORS
330
C
102
}
330
C
100
AcDbDictionary
281
     1
  3
Model
350
12A8
  3
レイアウト1
350
12A9
  0
DICTIONARY
  5
12A2
102
{ACAD_REACTORS
330
C
102
}
330
C
100
AcDbDictionary
281
     1
  0
DICTIONARY
  5
1B
102
{ACAD_REACTORS
330
C
102
}
330
C
100
AcDbDictionary
281
     1
  3
STANDARD
350
1C
  0
DICTIONARY
  5
12A7
102
{ACAD_REACTORS
330
C
102
}
330
C
100
AcDbDictionary
281
     1
  0
ACDBDICTIONARYWDFLT
  5
12A0
102
{ACAD_REACTORS
330
C
102
}
330
C
100
AcDbDictionary
281
     1
  3
Normal
350
12A1
100
AcDbDictionaryWithDefault
340
12A1
  0
DICTIONARY
  5
12A4
102
{ACAD_REACTORS
330
C
102
}
330
C
100
AcDbDictionary
281
     1
  3
Standard
350
12A5
  0
DICTIONARY
  5
FCB
102
{ACAD_REACTORS
330
C
102
}
330
C
100
AcDbDictionary
281
     1
  3
CTABLESTYLE
350
12B6
  3
SORTENTS
350
FCC
  0
IMAGEDEF
  5
E59
102
{ACAD_REACTORS
330
E58
102
}
330
E58
100
AcDbRasterImageDef
 90
        0
  1
D:\ﾃｽﾄ\rogo01.TIF
 10
3388.0
 20
4668.0
 11
0.0635
 21
0.0635
280
     1
281
     5
  0
LAYOUT
  5
12A8
102
{ACAD_REACTORS
330
12A6
102
}
330
12A6
100
AcDbPlotSettings
  1

  2
WIDR Printer
  4

  6

 40
0.0
 41
0.0
 42
0.0
 43
0.0
 44
0.0
 45
0.0
 46
0.0
 47
0.0
 48
0.0
 49
0.0
140
0.0
141
0.0
142
1.0
143
1.0
 70
  1712
 72
     0
 73
     0
 74
     0
  7
AutoCad LT 98.ctb
 75
     0
147
1.0
 76
     0
 77
     2
 78
   300
148
0.0
149
0.0
100
AcDbLayout
  1
Model
 70
     1
 71
     0
 10
0.0
 20
0.0
 11
12.0
 21
9.0
 12
0.0
 22
0.0
 32
0.0
 14
0.0
 24
0.0
 34
0.0
 15
0.0
 25
0.0
 35
0.0
146
0.0
 13
0.0
 23
0.0
 33
0.0
 16
1.0
 26
0.0
 36
0.0
 17
0.0
 27
1.0
 37
0.0
 76
     0
330
18
  0
LAYOUT
  5
12A9
102
{ACAD_REACTORS
330
12A6
102
}
330
12A6
100
AcDbPlotSettings
  1

  2
WIDR Printer
  4

  6

 40
0.0
 41
0.0
 42
0.0
 43
0.0
 44
0.0
 45
0.0
 46
0.0
 47
0.0
 48
0.0
 49
0.0
140
0.0
141
0.0
142
1.0
143
1.0
 70
   688
 72
     0
 73
     0
 74
     5
  7
AutoCad LT 98.ctb
 75
    16
147
1.0
 76
     0
 77
     2
 78
   300
148
0.0
149
0.0
100
AcDbLayout
  1
レイアウト1
 70
     1
 71
     1
 10
0.0
 20
0.0
 11
420.0
 21
297.0
 12
0.0
 22
0.0
 32
0.0
 14
1.000000000000000E+20
 24
1.000000000000000E+20
 34
1.000000000000000E+20
 15
-1.000000000000000E+20
 25
-1.000000000000000E+20
 35
-1.000000000000000E+20
146
0.0
 13
0.0
 23
0.0
 33
0.0
 16
1.0
 26
0.0
 36
0.0
 17
0.0
 27
1.0
 37
0.0
 76
     0
330
15
  0
MLINESTYLE
  5
1C
102
{ACAD_REACTORS
330
1B
102
}
330
1B
100
AcDbMlineStyle
  2
STANDARD
 70
     0
  3

 62
   256
 51
90.0
 52
90.0
 71
     2
 49
0.5
 62
   256
  6
BYLAYER
 49
-0.5
 62
   256
  6
BYLAYER
  0
ACDBPLACEHOLDER
  5
12A1
102
{ACAD_REACTORS
330
12A0
102
}
330
12A0
  0
ACAD_PROXY_OBJECT
  5
12A5
102
{ACAD_REACTORS
330
12A4
102
}
330
12A4
100
AcDbProxyObject
 90
      499
 91
      505
 95
  2555929
 70
     0
 93
     1849
310
4214DD185B99185C992420000000000000F83F0000000000003E0FC00000000000004901028000000C1008070000C3001FDFF8000000C1003FBFF000000182007F7FE00000030400FEFFC00000060801FDFF8000000C1003FBFF000000182000000000000000C2020B0000001820100E000186003FBFF000000182007F7FE0
310
0000030400FEFFC00000060801FDFF8000000C1003FBFF000000182007F7FE0000003040000000000000012404160000003040201C00030C007F7FE00000030400FEFFC00000060801FDFF8000000C1003FBFF000000182007F7FE00000030400FEFFC000000608027
340
F
340
F
340
F
 94
        0
  0
DICTIONARYVAR
  5
12B6
102
{ACAD_REACTORS
330
FCB
102
}
330
FCB
100
DictionaryVariables
280
     0
  1
STANDARD
  0
DICTIONARYVAR
  5
FCC
102
{ACAD_REACTORS
330
FCB
102
}
330
FCB
100
DictionaryVariables
280
     0
  1
96
  0
ENDSEC
  0
EOF
