  0
SECTION
  2
HEADER
  9
$ACADVER
  1
AC1018
  9
$ACADMAINTVER
 70
     0
  9
$DWGCODEPAGE
  3
ANSI_932
  9
$INSBASE
 10
0.0
 20
0.0
 30
0.0
  9
$EXTMIN
 10
236.4549673629178
 20
171.6287515666504
 30
-0.0000000349181948
  9
$EXTMAX
 10
491.9145984195406
 20
367.0725802714662
 30
0.0000000814935746
  9
$LIMMIN
 10
0.0
 20
0.0
  9
$LIMMAX
 10
420.0
 20
297.0
  9
$ORTHOMODE
 70
     0
  9
$REGENMODE
 70
     1
  9
$FILLMODE
 70
     1
  9
$QTEXTMODE
 70
     0
  9
$MIRRTEXT
 70
     1
  9
$LTSCALE
 40
1.0
  9
$ATTMODE
 70
     1
  9
$TEXTSIZE
 40
2.5
  9
$TRACEWID
 40
1.0
  9
$TEXTSTYLE
  7
STYLE3
  9
$CLAYER
  8
針
  9
$CELTYPE
  6
BYLAYER
  9
$CECOLOR
 62
   256
  9
$CELTSCALE
 40
1.0
  9
$DISPSILH
 70
     0
  9
$DIMSCALE
 40
1.0
  9
$DIMASZ
 40
2.5
  9
$DIMEXO
 40
0.0
  9
$DIMDLI
 40
3.75
  9
$DIMRND
 40
0.0
  9
$DIMDLE
 40
0.0
  9
$DIMEXE
 40
1.25
  9
$DIMTP
 40
0.0
  9
$DIMTM
 40
0.0
  9
$DIMTXT
 40
2.5
  9
$DIMCEN
 40
2.5
  9
$DIMTSZ
 40
0.0
  9
$DIMTOL
 70
     0
  9
$DIMLIM
 70
     0
  9
$DIMTIH
 70
     0
  9
$DIMTOH
 70
     0
  9
$DIMSE1
 70
     0
  9
$DIMSE2
 70
     0
  9
$DIMTAD
 70
     1
  9
$DIMZIN
 70
     8
  9
$DIMBLK
  1

  9
$DIMASO
 70
     1
  9
$DIMSHO
 70
     1
  9
$DIMPOST
  1

  9
$DIMAPOST
  1

  9
$DIMALT
 70
     0
  9
$DIMALTD
 70
     4
  9
$DIMALTF
 40
0.0394
  9
$DIMLFAC
 40
1.0
  9
$DIMTOFL
 70
     1
  9
$DIMTVP
 40
0.0
  9
$DIMTIX
 70
     0
  9
$DIMSOXD
 70
     0
  9
$DIMSAH
 70
     1
  9
$DIMBLK1
  1
OPEN
  9
$DIMBLK2
  1
OPEN
  9
$DIMSTYLE
  2
STYLE2
  9
$DIMCLRD
 70
     2
  9
$DIMCLRE
 70
     2
  9
$DIMCLRT
 70
     6
  9
$DIMTFAC
 40
1.0
  9
$DIMGAP
 40
0.625
  9
$DIMJUST
 70
     0
  9
$DIMSD1
 70
     0
  9
$DIMSD2
 70
     0
  9
$DIMTOLJ
 70
     1
  9
$DIMTZIN
 70
     0
  9
$DIMALTZ
 70
     0
  9
$DIMALTTZ
 70
     0
  9
$DIMUPT
 70
     0
  9
$DIMDEC
 70
     1
  9
$DIMTDEC
 70
     4
  9
$DIMALTU
 70
     8
  9
$DIMALTTD
 70
     4
  9
$DIMTXSTY
  7
STYLE3
  9
$DIMAUNIT
 70
     0
  9
$DIMADEC
 70
     0
  9
$DIMALTRND
 40
0.0
  9
$DIMAZIN
 70
     0
  9
$DIMDSEP
 70
    46
  9
$DIMATFIT
 70
     3
  9
$DIMFRAC
 70
     0
  9
$DIMLDRBLK
  1

  9
$DIMLUNIT
 70
     2
  9
$DIMLWD
 70
    -2
  9
$DIMLWE
 70
    -2
  9
$DIMTMOVE
 70
     0
  9
$LUNITS
 70
     2
  9
$LUPREC
 70
     4
  9
$SKETCHINC
 40
1.0
  9
$FILLETRAD
 40
0.0
  9
$AUNITS
 70
     0
  9
$AUPREC
 70
     0
  9
$MENU
  1
.
  9
$ELEVATION
 40
0.0
  9
$PELEVATION
 40
0.0
  9
$THICKNESS
 40
0.0
  9
$LIMCHECK
 70
     0
  9
$CHAMFERA
 40
0.2
  9
$CHAMFERB
 40
0.2
  9
$CHAMFERC
 40
20.0
  9
$CHAMFERD
 40
0.0
  9
$SKPOLY
 70
     0
  9
$TDCREATE
 40
2450717.578556713
  9
$TDUCREATE
 40
2450717.203556713
  9
$TDUPDATE
 40
2455355.696274595
  9
$TDUUPDATE
 40
2455355.321274595
  9
$TDINDWG
 40
0.3307481019
  9
$TDUSRTIMER
 40
0.3307481019
  9
$USRTIMER
 70
     1
  9
$ANGBASE
 50
0.0
  9
$ANGDIR
 70
     0
  9
$PDMODE
 70
     0
  9
$PDSIZE
 40
0.0
  9
$PLINEWID
 40
0.0
  9
$SPLFRAME
 70
     0
  9
$SPLINETYPE
 70
     6
  9
$SPLINESEGS
 70
     8
  9
$HANDSEED
  5
12E0
  9
$SURFTAB1
 70
     6
  9
$SURFTAB2
 70
     6
  9
$SURFTYPE
 70
     6
  9
$SURFU
 70
     6
  9
$SURFV
 70
     6
  9
$UCSBASE
  2

  9
$UCSNAME
  2

  9
$UCSORG
 10
0.0
 20
0.0
 30
0.0
  9
$UCSXDIR
 10
1.0
 20
0.0
 30
0.0
  9
$UCSYDIR
 10
0.0
 20
1.0
 30
0.0
  9
$UCSORTHOREF
  2

  9
$UCSORTHOVIEW
 70
     0
  9
$UCSORGTOP
 10
0.0
 20
0.0
 30
0.0
  9
$UCSORGBOTTOM
 10
0.0
 20
0.0
 30
0.0
  9
$UCSORGLEFT
 10
0.0
 20
0.0
 30
0.0
  9
$UCSORGRIGHT
 10
0.0
 20
0.0
 30
0.0
  9
$UCSORGFRONT
 10
0.0
 20
0.0
 30
0.0
  9
$UCSORGBACK
 10
0.0
 20
0.0
 30
0.0
  9
$PUCSBASE
  2

  9
$PUCSNAME
  2

  9
$PUCSORG
 10
0.0
 20
0.0
 30
0.0
  9
$PUCSXDIR
 10
1.0
 20
0.0
 30
0.0
  9
$PUCSYDIR
 10
0.0
 20
1.0
 30
0.0
  9
$PUCSORTHOREF
  2

  9
$PUCSORTHOVIEW
 70
     0
  9
$PUCSORGTOP
 10
0.0
 20
0.0
 30
0.0
  9
$PUCSORGBOTTOM
 10
0.0
 20
0.0
 30
0.0
  9
$PUCSORGLEFT
 10
0.0
 20
0.0
 30
0.0
  9
$PUCSORGRIGHT
 10
0.0
 20
0.0
 30
0.0
  9
$PUCSORGFRONT
 10
0.0
 20
0.0
 30
0.0
  9
$PUCSORGBACK
 10
0.0
 20
0.0
 30
0.0
  9
$USERI1
 70
     0
  9
$USERI2
 70
     0
  9
$USERI3
 70
     0
  9
$USERI4
 70
     0
  9
$USERI5
 70
     0
  9
$USERR1
 40
0.0
  9
$USERR2
 40
0.0
  9
$USERR3
 40
0.0
  9
$USERR4
 40
0.0
  9
$USERR5
 40
0.0
  9
$WORLDVIEW
 70
     1
  9
$SHADEDGE
 70
     3
  9
$SHADEDIF
 70
    70
  9
$TILEMODE
 70
     1
  9
$MAXACTVP
 70
    48
  9
$PINSBASE
 10
0.0
 20
0.0
 30
0.0
  9
$PLIMCHECK
 70
     0
  9
$PEXTMIN
 10
1.000000000000000E+20
 20
1.000000000000000E+20
 30
1.000000000000000E+20
  9
$PEXTMAX
 10
-1.000000000000000E+20
 20
-1.000000000000000E+20
 30
-1.000000000000000E+20
  9
$PLIMMIN
 10
0.0
 20
0.0
  9
$PLIMMAX
 10
420.0
 20
297.0
  9
$UNITMODE
 70
     0
  9
$VISRETAIN
 70
     1
  9
$PLINEGEN
 70
     0
  9
$PSLTSCALE
 70
     1
  9
$TREEDEPTH
 70
  3020
  9
$CMLSTYLE
  2
STANDARD
  9
$CMLJUST
 70
     0
  9
$CMLSCALE
 40
20.0
  9
$PROXYGRAPHICS
 70
     1
  9
$MEASUREMENT
 70
     1
  9
$CELWEIGHT
370
    -1
  9
$ENDCAPS
280
     0
  9
$JOINSTYLE
280
     0
  9
$LWDISPLAY
290
     0
  9
$INSUNITS
 70
     0
  9
$HYPERLINKBASE
  1

  9
$STYLESHEET
  1

  9
$XEDIT
290
     1
  9
$CEPSNTYPE
380
     0
  9
$PSTYLEMODE
290
     1
  9
$FINGERPRINTGUID
  2
{048F5D48-B29C-41B9-8D1F-B6A5B99EB873}
  9
$VERSIONGUID
  2
{5A25BB18-A235-42D1-92D0-5043566584C7}
  9
$EXTNAMES
290
     1
  9
$PSVPSCALE
 40
0.0
  9
$OLESTARTUP
290
     0
  9
$SORTENTS
280
    96
  9
$INDEXCTL
280
     0
  9
$HIDETEXT
280
     0
  9
$XCLIPFRAME
290
     0
  9
$HALOGAP
280
     0
  9
$OBSCOLOR
 70
   257
  9
$OBSLTYPE
280
     0
  9
$INTERSECTIONDISPLAY
280
     0
  9
$INTERSECTIONCOLOR
 70
   257
  9
$DIMASSOC
280
     1
  9
$PROJECTNAME
  1

  0
ENDSEC
  0
SECTION
  2
CLASSES
  0
CLASS
  1
HATCH
  2
AcDbHatch
  3
ObjectDBX Classes
 90
        0
 91
       14
280
     0
281
     1
  0
CLASS
  1
LWPOLYLINE
  2
AcDbPolyline
  3
ObjectDBX Classes
 90
        0
 91
        1
280
     0
281
     1
  0
CLASS
  1
IMAGEDEF
  2
AcDbRasterImageDef
  3
ISM
 90
        0
 91
        1
280
     0
281
     0
  0
CLASS
  1
DICTIONARYVAR
  2
AcDbDictionaryVar
  3
ObjectDBX Classes
 90
        0
 91
        2
280
     0
281
     0
  0
CLASS
  1
ACDBDICTIONARYWDFLT
  2
AcDbDictionaryWithDefault
  3
ObjectDBX Classes
 90
        0
 91
        1
280
     0
281
     0
  0
CLASS
  1
TABLESTYLE
  2
AcDbTableStyle
  3
ObjectDBX Classes
 90
     2047
 91
        1
280
     0
281
     0
  0
ENDSEC
  0
SECTION
  2
TABLES
  0
TABLE
  2
VPORT
  5
8
330
0
100
AcDbSymbolTable
 70
     2
  0
VPORT
  5
12DF
330
8
100
AcDbSymbolTableRecord
100
AcDbViewportTableRecord
  2
*Active
 70
     0
 10
0.0
 20
0.0
 11
1.0
 21
1.0
 12
364.1847828912292
 22
269.3506659190583
 13
0.0
 23
0.0
 14
10.0
 24
10.0
 15
10.0
 25
10.0
 16
0.0
 26
0.0
 36
1.0
 17
0.0
 27
0.0
 37
0.0
 40
196.9300935618867
 41
1.530456852791878
 42
50.0
 43
0.0
 44
0.0
 50
0.0
 51
0.0
 71
     0
 72
   100
 73
     1
 74
     1
 75
     0
 76
     0
 77
     0
 78
     0
281
     0
 65
     1
110
0.0
120
0.0
130
0.0
111
1.0
121
0.0
131
0.0
112
0.0
122
1.0
132
0.0
 79
     0
146
0.0
  0
ENDTAB
  0
TABLE
  2
LTYPE
  5
5
330
0
100
AcDbSymbolTable
 70
     5
  0
LTYPE
  5
12
330
5
100
AcDbSymbolTableRecord
100
AcDbLinetypeTableRecord
  2
BYBLOCK
 70
     0
  3

 72
    65
 73
     0
 40
0.0
  0
LTYPE
  5
13
330
5
100
AcDbSymbolTableRecord
100
AcDbLinetypeTableRecord
  2
BYLAYER
 70
     0
  3

 72
    65
 73
     0
 40
0.0
  0
LTYPE
  5
14
330
5
100
AcDbSymbolTableRecord
100
AcDbLinetypeTableRecord
  2
CONTINUOUS
 70
     0
  3
Solid line
 72
    65
 73
     0
 40
0.0
  0
LTYPE
  5
22
330
5
100
AcDbSymbolTableRecord
100
AcDbLinetypeTableRecord
  2
CENTER2
 70
     0
  3
Center (.5x) ___ _ ___ _ ___ _ ___ _ ___ _ ___
 72
    65
 73
     4
 40
28.575
 49
19.05
 74
     0
 49
-3.174999999999999
 74
     0
 49
3.174999999999999
 74
     0
 49
-3.174999999999999
 74
     0
  0
ENDTAB
  0
TABLE
  2
LAYER
  5
2
330
0
100
AcDbSymbolTable
 70
    16
  0
LAYER
  5
E
330
2
100
AcDbSymbolTableRecord
100
AcDbLayerTableRecord
  2
0
 70
     0
 62
     7
  6
CONTINUOUS
370
    -3
390
1268
  0
LAYER
  5
25
330
2
100
AcDbSymbolTableRecord
100
AcDbLayerTableRecord
  2
外形線
 70
     0
 62
     7
  6
CONTINUOUS
370
    -3
390
1268
  0
LAYER
  5
27
330
2
100
AcDbSymbolTableRecord
100
AcDbLayerTableRecord
  2
中心線
 70
     0
 62
     4
  6
CENTER2
370
    -3
390
1268
  0
LAYER
  5
2A
330
2
100
AcDbSymbolTableRecord
100
AcDbLayerTableRecord
  2
ﾊｯﾁﾝｸ
 70
     0
 62
     6
  6
CONTINUOUS
370
    -3
390
1268
  0
LAYER
  5
2B
330
2
100
AcDbSymbolTableRecord
100
AcDbLayerTableRecord
  2
文字
 70
     0
 62
     6
  6
CONTINUOUS
370
    -3
390
1268
  0
LAYER
  5
2C
330
2
100
AcDbSymbolTableRecord
100
AcDbLayerTableRecord
  2
目盛
 70
     0
 62
    70
  6
CONTINUOUS
370
    -3
390
1268
  0
LAYER
  5
2D
330
2
100
AcDbSymbolTableRecord
100
AcDbLayerTableRecord
  2
針
 70
     0
 62
     5
  6
CONTINUOUS
370
    -3
390
1268
  0
LAYER
  5
53
330
2
100
AcDbSymbolTableRecord
100
AcDbLayerTableRecord
  2
DEFPOINTS
 70
     0
 62
     7
  6
CONTINUOUS
290
     0
370
    -3
390
1268
  0
LAYER
  5
A5
330
2
100
AcDbSymbolTableRecord
100
AcDbLayerTableRecord
  2
C
 70
     0
 62
     7
  6
CONTINUOUS
370
    -3
390
1268
  0
LAYER
  5
E00
330
2
100
AcDbSymbolTableRecord
100
AcDbLayerTableRecord
  2
ROGO
 70
     0
 62
     6
  6
CONTINUOUS
370
    -3
390
1268
  0
ENDTAB
  0
TABLE
  2
STYLE
  5
3
330
0
100
AcDbSymbolTable
 70
     3
  0
STYLE
  5
F
330
3
100
AcDbSymbolTableRecord
100
AcDbTextStyleTableRecord
  2
STANDARD
 70
     0
 40
0.0
 41
1.0
 50
0.0
 71
     0
 42
2.5
  3
txt
  4

  0
STYLE
  5
3F
330
3
100
AcDbSymbolTableRecord
100
AcDbTextStyleTableRecord
  2
STYLE3
 70
     0
 40
0.0
 41
1.0
 50
0.0
 71
     0
 42
2.5
  3
romans.shx
  4
bigfont.shx
  0
ENDTAB
  0
TABLE
  2
VIEW
  5
6
330
0
100
AcDbSymbolTable
 70
     0
  0
ENDTAB
  0
TABLE
  2
UCS
  5
7
330
0
100
AcDbSymbolTable
 70
     0
  0
ENDTAB
  0
TABLE
  2
APPID
  5
9
330
0
100
AcDbSymbolTable
 70
     1
  0
APPID
  5
10
330
9
100
AcDbSymbolTableRecord
100
AcDbRegAppTableRecord
  2
ACAD
 70
     0
  0
ENDTAB
  0
TABLE
  2
DIMSTYLE
  5
A
330
0
100
AcDbSymbolTable
 70
     3
100
AcDbDimStyleTable
 71
     0
  0
DIMSTYLE
105
1D
330
A
100
AcDbSymbolTableRecord
100
AcDbDimStyleTableRecord
  2
STANDARD
 70
     0
 41
2.5
 42
0.625
 43
3.75
 44
1.25
 73
     0
 74
     0
 77
     1
 78
     8
140
2.5
141
2.5
143
0.0394
147
0.625
171
     4
172
     1
273
     8
274
     4
277
     6
340
F
  0
DIMSTYLE
105
66
330
A
100
AcDbSymbolTableRecord
100
AcDbDimStyleTableRecord
  2
STYLE2
 70
     0
 41
2.5
 42
0.0
 43
3.75
 44
1.25
 73
     0
 74
     0
 77
     1
 78
     8
140
2.5
141
2.5
143
0.0394
147
0.625
171
     4
172
     1
173
     1
176
     2
177
     2
178
     6
271
     1
273
     8
274
     4
340
3F
341
45
343
45
344
45
  0
ENDTAB
  0
TABLE
  2
BLOCK_RECORD
  5
1
330
0
100
AcDbSymbolTable
 70
     3
  0
BLOCK_RECORD
  5
18
330
1
100
AcDbSymbolTableRecord
100
AcDbBlockTableRecord
  2
*MODEL_SPACE
340
126F
  0
BLOCK_RECORD
  5
15
330
1
100
AcDbSymbolTableRecord
100
AcDbBlockTableRecord
  2
*PAPER_SPACE
340
1270
  0
BLOCK_RECORD
  5
45
330
1
100
AcDbSymbolTableRecord
100
AcDbBlockTableRecord
  2
_OPEN
340
0
102
{BLKREFS
331
836
331
837
331
83E
331
83F
331
847
331
848
331
875
331
876
331
87E
331
87F
331
900
331
901
331
909
331
90A
331
912
331
913
331
1025
331
1026
331
1078
331
1079
331
1081
331
1082
331
11BC
331
11BD
331
11DD
331
11DE
331
11E6
331
11E7
102
}
  0
BLOCK_RECORD
  5
1284
330
1
100
AcDbSymbolTableRecord
100
AcDbBlockTableRecord
  2
A$C58896626
340
0
102
{BLKREFS
331
1289
331
12A5
102
}
  0
ENDTAB
  0
ENDSEC
  0
SECTION
  2
BLOCKS
  0
BLOCK
  5
19
330
18
100
AcDbEntity
  8
0
100
AcDbBlockBegin
  2
*MODEL_SPACE
 70
     0
 10
0.0
 20
0.0
 30
0.0
  3
*MODEL_SPACE
  1

  0
ENDBLK
  5
1A
330
18
100
AcDbEntity
  8
0
100
AcDbBlockEnd
  0
BLOCK
  5
16
330
15
100
AcDbEntity
 67
     1
  8
0
100
AcDbBlockBegin
  2
*PAPER_SPACE
 70
     0
 10
0.0
 20
0.0
 30
0.0
  3
*PAPER_SPACE
  1

  0
ENDBLK
  5
17
330
15
100
AcDbEntity
 67
     1
  8
0
100
AcDbBlockEnd
  0
BLOCK
  5
46
330
45
100
AcDbEntity
  8
0
100
AcDbBlockBegin
  2
_OPEN
 70
     0
 10
0.0
 20
0.0
 30
0.0
  3
_OPEN
  1

  0
LINE
  5
47
330
45
100
AcDbEntity
  8
0
  6
ByBlock
 62
     0
100
AcDbLine
 10
-1.0
 20
0.1666666666666666
 30
0.0
 11
0.0
 21
0.0
 31
0.0
  0
LINE
  5
48
330
45
100
AcDbEntity
  8
0
  6
ByBlock
 62
     0
100
AcDbLine
 10
0.0
 20
0.0
 30
0.0
 11
-1.0
 21
-0.1666666666666666
 31
0.0
  0
LINE
  5
49
330
45
100
AcDbEntity
  8
0
  6
ByBlock
 62
     0
100
AcDbLine
 10
0.0
 20
0.0
 30
0.0
 11
-1.0
 21
0.0
 31
0.0
  0
ENDBLK
  5
4A
330
45
100
AcDbEntity
  8
0
100
AcDbBlockEnd
  0
BLOCK
  5
1285
330
1284
100
AcDbEntity
  8
0
100
AcDbBlockBegin
  2
A$C58896626
 70
     0
 10
0.0
 20
0.0
 30
0.0
  3
A$C58896626
  1

  0
LINE
  5
1286
330
1284
100
AcDbEntity
  8
外形線
100
AcDbLine
 10
0.0
 20
0.0
 30
0.0
 11
74.266655
 21
0.0
 31
0.0
  0
ENDBLK
  5
1287
330
1284
100
AcDbEntity
  8
0
100
AcDbBlockEnd
  0
ENDSEC
  0
SECTION
  2
ENTITIES
  0
LINE
  5
244
330
18
100
AcDbEntity
  8
中心線
 48
0.5
100
AcDbLine
 10
290.0809495192604
 20
282.7216247705909
 30
0.0
 11
358.2619527564264
 21
282.7216247705907
 31
0.0
  0
LINE
  5
245
330
18
100
AcDbEntity
  8
中心線
 48
0.5
100
AcDbLine
 10
328.1238768146346
 20
327.3634337739746
 30
0.0
 11
328.1238768146348
 21
262.4216247705907
 31
0.0
  0
CIRCLE
  5
246
330
18
100
AcDbEntity
  8
外形線
100
AcDbCircle
 10
328.1238768146347
 20
282.7216247705907
 30
0.0
 40
15.5
  0
CIRCLE
  5
247
330
18
100
AcDbEntity
  8
外形線
100
AcDbCircle
 10
328.1238768146347
 20
282.7216247705907
 30
0.0
 40
23.0
  0
CIRCLE
  5
248
330
18
100
AcDbEntity
  8
外形線
100
AcDbCircle
 10
328.1238768146347
 20
282.7216247705907
 30
0.0
 40
26.4
  0
LINE
  5
249
330
18
100
AcDbEntity
  8
目盛
100
AcDbLine
 10
326.6796948654605
 20
305.676239524441
 30
0.0
 11
326.7864387486603
 21
303.9795940861129
 31
0.0
  0
LINE
  5
24A
330
18
100
AcDbEntity
  8
目盛
100
AcDbLine
 10
325.2412124426557
 20
305.5402629008237
 30
0.0
 11
325.4542789397149
 21
303.8536679085891
 31
0.0
  0
LINE
  5
24B
330
18
100
AcDbEntity
  8
目盛
100
AcDbLine
 10
323.814106579163
 20
305.3142315373506
 30
0.0
 11
324.1326548139587
 21
303.6443432111118
 31
0.0
  0
LINE
  5
24C
330
18
100
AcDbEntity
  8
目盛
100
AcDbLine
 10
322.404009409843
 20
304.9990374765493
 30
0.0
 11
322.8267822180233
 21
303.3524461026305
 31
0.0
  0
LINE
  5
24D
330
18
100
AcDbEntity
  8
目盛
100
AcDbLine
 10
321.0164859440109
 20
304.5959246453793
 30
0.0
 11
321.8508318288232
 21
302.0280720513823
 31
0.0
  0
LINE
  5
24E
330
18
100
AcDbEntity
  8
目盛
100
AcDbLine
 10
319.6570121028871
 20
304.1064839460205
 30
0.0
 11
320.282823842451
 21
302.5258639200105
 31
0.0
  0
LINE
  5
24F
330
18
100
AcDbEntity
  8
目盛
100
AcDbLine
 10
318.3309531086379
 20
303.5326469773091
 30
0.0
 11
319.0547779042986
 21
301.9944409881169
 31
0.0
  0
LINE
  5
250
330
18
100
AcDbEntity
  8
目盛
100
AcDbLine
 10
317.0435423102951
 20
302.8766784115996
 30
0.0
 11
317.8625235562681
 21
301.3869570555249
 31
0.0
  0
LINE
  5
251
330
18
100
AcDbEntity
  8
目盛
100
AcDbLine
 10
315.7998605301177
 20
302.141167057137
 30
0.0
 11
316.710766081582
 21
300.7058095837836
 31
0.0
  0
LINE
  5
252
330
18
100
AcDbEntity
  8
目盛
100
AcDbLine
 10
314.6048160119077
 20
301.3290156412145
 30
0.0
 11
316.3681717687852
 21
298.9019646580897
 31
0.0
  0
LINE
  5
253
330
18
100
AcDbEntity
  8
目盛
100
AcDbLine
 10
313.4631250504148
 20
300.4434293544339
 30
0.0
 11
314.5467458329875
 21
299.133556841715
 31
0.0
  0
LINE
  5
254
330
18
100
AcDbEntity
  8
目盛
100
AcDbLine
 10
312.3792933782749
 20
299.4879032012832
 30
0.0
 11
313.5430234583537
 21
298.2486565346668
 31
0.0
  0
LINE
  5
255
330
18
100
AcDbEntity
  8
目盛
100
AcDbLine
 10
311.3575983839421
 20
298.4662082069506
 30
0.0
 11
312.5968450505587
 21
297.3024781268718
 31
0.0
  0
LINE
  5
256
330
18
100
AcDbEntity
  8
目盛
100
AcDbLine
 10
310.4020722307916
 20
297.3823765348106
 30
0.0
 11
311.7119447435104
 21
296.2987557522378
 31
0.0
  0
LINE
  5
257
330
18
100
AcDbEntity
  8
目盛
100
AcDbLine
 10
309.5164859440107
 20
296.2406855733176
 30
0.0
 11
311.7008318288232
 21
294.6536653921279
 31
0.0
  0
LINE
  5
258
330
18
100
AcDbEntity
  8
目盛
100
AcDbLine
 10
308.7043345280883
 20
295.0456410551076
 30
0.0
 11
310.1396920014418
 21
294.1347355036433
 31
0.0
  0
LINE
  5
259
330
18
100
AcDbEntity
  8
目盛
100
AcDbLine
 10
307.9688231736258
 20
293.8019592749302
 30
0.0
 11
309.4585445297004
 21
292.9829780289572
 31
0.0
  0
LINE
  5
25A
330
18
100
AcDbEntity
  8
目盛
100
AcDbLine
 10
307.3128546079162
 20
292.5145484765874
 30
0.0
 11
308.8510605971085
 21
291.7907236809267
 31
0.0
  0
LINE
  5
25B
330
18
100
AcDbEntity
  8
目盛
100
AcDbLine
 10
306.7390176392048
 20
291.1884894823383
 30
0.0
 11
308.3196376652149
 21
290.5626777427743
 31
0.0
  0
LINE
  5
25C
330
18
100
AcDbEntity
  8
目盛
100
AcDbLine
 10
306.249576939846
 20
289.8290156412145
 30
0.0
 11
308.8174295338431
 21
288.9946697564022
 31
0.0
  0
LINE
  5
25D
330
18
100
AcDbEntity
  8
目盛
100
AcDbLine
 10
305.8464641086761
 20
288.4414921753824
 30
0.0
 11
307.4930554825949
 21
288.0187193672022
 31
0.0
  0
LINE
  5
25E
330
18
100
AcDbEntity
  8
目盛
100
AcDbLine
 10
305.5312700478748
 20
287.0313950060624
 30
0.0
 11
307.2011583741137
 21
286.7128467712666
 31
0.0
  0
LINE
  5
25F
330
18
100
AcDbEntity
  8
目盛
100
AcDbLine
 10
305.3052386844017
 20
285.6042891425697
 30
0.0
 11
306.9918336766364
 21
285.3912226455104
 31
0.0
  0
LINE
  5
260
330
18
100
AcDbEntity
  8
目盛
100
AcDbLine
 10
305.1692620607843
 20
284.1658067197649
 30
0.0
 11
306.8659074991126
 21
284.0590628365651
 31
0.0
  0
LINE
  5
261
330
18
100
AcDbEntity
  8
目盛
100
AcDbLine
 10
305.1692620607843
 20
281.2774428214165
 30
0.0
 11
306.8659074991126
 21
281.3841867046164
 31
0.0
  0
LINE
  5
262
330
18
100
AcDbEntity
  8
目盛
100
AcDbLine
 10
305.3052386844017
 20
279.8389603986117
 30
0.0
 11
306.9918336766364
 21
280.0520268956709
 31
0.0
  0
LINE
  5
263
330
18
100
AcDbEntity
  8
目盛
100
AcDbLine
 10
305.5312700478748
 20
278.4118545351191
 30
0.0
 11
307.2011583741137
 21
278.7304027699149
 31
0.0
  0
LINE
  5
264
330
18
100
AcDbEntity
  8
目盛
100
AcDbLine
 10
305.8464641086761
 20
277.0017573657991
 30
0.0
 11
307.4930554825949
 21
277.4245301739794
 31
0.0
  0
LINE
  5
265
330
18
100
AcDbEntity
  8
目盛
100
AcDbLine
 10
306.2495769398462
 20
275.6142338999669
 30
0.0
 11
308.817429533843
 21
276.4485797847793
 31
0.0
  0
LINE
  5
266
330
18
100
AcDbEntity
  8
目盛
100
AcDbLine
 10
306.7390176392049
 20
274.2547600588431
 30
0.0
 11
308.319637665215
 21
274.8805717984071
 31
0.0
  0
LINE
  5
267
330
18
100
AcDbEntity
  8
目盛
100
AcDbLine
 10
307.3128546079162
 20
272.9287010645941
 30
0.0
 11
308.8510605971085
 21
273.6525258602547
 31
0.0
  0
LINE
  5
268
330
18
100
AcDbEntity
  8
目盛
100
AcDbLine
 10
307.9688231736258
 20
271.6412902662512
 30
0.0
 11
309.4585445297004
 21
272.4602715122242
 31
0.0
  0
LINE
  5
269
330
18
100
AcDbEntity
  8
目盛
100
AcDbLine
 10
308.7043345280883
 20
270.3976084860738
 30
0.0
 11
310.1396920014418
 21
271.3085140375381
 31
0.0
  0
LINE
  5
26A
330
18
100
AcDbEntity
  8
目盛
100
AcDbLine
 10
309.5164859440109
 20
269.2025639678638
 30
0.0
 11
311.7008318288232
 21
270.7895841490535
 31
0.0
  0
LINE
  5
26B
330
18
100
AcDbEntity
  8
目盛
100
AcDbLine
 10
310.4020722307915
 20
268.0608730063708
 30
0.0
 11
311.7119447435104
 21
269.1444937889437
 31
0.0
  0
LINE
  5
26C
330
18
100
AcDbEntity
  8
目盛
100
AcDbLine
 10
311.3575983839423
 20
266.9770413342308
 30
0.0
 11
312.5968450505587
 21
268.1407714143097
 31
0.0
  0
LINE
  5
26D
330
18
100
AcDbEntity
  8
目盛
100
AcDbLine
 10
312.3792933782748
 20
265.9553463398982
 30
0.0
 11
313.5430234583536
 21
267.1945930065147
 31
0.0
  0
LINE
  5
26E
330
18
100
AcDbEntity
  8
目盛
100
AcDbLine
 10
313.4631250504148
 20
264.9998201867475
 30
0.0
 11
314.5467458329876
 21
266.3096926994664
 31
0.0
  0
LINE
  5
26F
330
18
100
AcDbEntity
  8
目盛
100
AcDbLine
 10
314.6048160119077
 20
264.1142338999669
 30
0.0
 11
316.1918361930974
 21
266.2985797847793
 31
0.0
  0
LINE
  5
270
330
18
100
AcDbEntity
  8
目盛
100
AcDbLine
 10
315.7998605301177
 20
263.3020824840443
 30
0.0
 11
316.710766081582
 21
264.7374399573978
 31
0.0
  0
LINE
  5
271
330
18
100
AcDbEntity
  8
目盛
100
AcDbLine
 10
317.0435423102953
 20
262.5665711295819
 30
0.0
 11
317.8625235562682
 21
264.0562924856564
 31
0.0
  0
LINE
  5
272
330
18
100
AcDbEntity
  8
目盛
100
AcDbLine
 10
318.3309531086381
 20
261.9106025638723
 30
0.0
 11
319.0547779042987
 21
263.4488085530645
 31
0.0
  0
LINE
  5
273
330
18
100
AcDbEntity
  8
目盛
100
AcDbLine
 10
319.6570121028871
 20
261.3367655951609
 30
0.0
 11
320.282823842451
 21
262.917385621171
 31
0.0
  0
LINE
  5
274
330
18
100
AcDbEntity
  8
目盛
100
AcDbLine
 10
321.0164859440109
 20
260.8473248958022
 30
0.0
 11
321.8508318288233
 21
263.4151774897991
 31
0.0
  0
LINE
  5
275
330
18
100
AcDbEntity
  8
目盛
100
AcDbLine
 10
322.4040094098431
 20
260.4442120646322
 30
0.0
 11
322.8267822180232
 21
262.0908034385509
 31
0.0
  0
LINE
  5
276
330
18
100
AcDbEntity
  8
目盛
100
AcDbLine
 10
323.814106579163
 20
260.1290180038309
 30
0.0
 11
324.1326548139588
 21
261.7989063300697
 31
0.0
  0
LINE
  5
277
330
18
100
AcDbEntity
  8
目盛
100
AcDbLine
 10
325.2412124426557
 20
259.9029866403577
 30
0.0
 11
325.4542789397151
 21
261.5895816325923
 31
0.0
  0
LINE
  5
278
330
18
100
AcDbEntity
  8
目盛
100
AcDbLine
 10
326.6796948654605
 20
259.7670100167405
 30
0.0
 11
326.7864387486603
 21
261.4636554550685
 31
0.0
  0
LINE
  5
279
330
18
100
AcDbEntity
  8
目盛
100
AcDbLine
 10
329.5680587638089
 20
259.7670100167405
 30
0.0
 11
329.461314880609
 21
261.4636554550685
 31
0.0
  0
LINE
  5
27A
330
18
100
AcDbEntity
  8
目盛
100
AcDbLine
 10
331.0065411866137
 20
259.9029866403577
 30
0.0
 11
330.7934746895544
 21
261.5895816325923
 31
0.0
  0
LINE
  5
27B
330
18
100
AcDbEntity
  8
目盛
100
AcDbLine
 10
332.4336470501064
 20
260.1290180038309
 30
0.0
 11
332.1150988153107
 21
261.7989063300697
 31
0.0
  0
LINE
  5
27C
330
18
100
AcDbEntity
  8
目盛
100
AcDbLine
 10
333.8437442194262
 20
260.4442120646322
 30
0.0
 11
333.4209714112461
 21
262.0908034385509
 31
0.0
  0
LINE
  5
27D
330
18
100
AcDbEntity
  8
目盛
100
AcDbLine
 10
335.2312676852585
 20
260.8473248958022
 30
0.0
 11
334.3969218004462
 21
263.4151774897991
 31
0.0
  0
LINE
  5
27E
330
18
100
AcDbEntity
  8
目盛
100
AcDbLine
 10
336.5907415263823
 20
261.336765595161
 30
0.0
 11
335.9649297868184
 21
262.917385621171
 31
0.0
  0
LINE
  5
27F
330
18
100
AcDbEntity
  8
目盛
100
AcDbLine
 10
337.9168005206313
 20
261.9106025638723
 30
0.0
 11
337.1929757249707
 21
263.4488085530645
 31
0.0
  0
LINE
  5
280
330
18
100
AcDbEntity
  8
目盛
100
AcDbLine
 10
339.2042113189741
 20
262.5665711295819
 30
0.0
 11
338.3852300730012
 21
264.0562924856564
 31
0.0
  0
LINE
  5
281
330
18
100
AcDbEntity
  8
目盛
100
AcDbLine
 10
340.4478930991516
 20
263.3020824840444
 30
0.0
 11
339.5369875476874
 21
264.7374399573978
 31
0.0
  0
LINE
  5
282
330
18
100
AcDbEntity
  8
目盛
100
AcDbLine
 10
341.6429376173616
 20
264.1142338999669
 30
0.0
 11
340.0559174361718
 21
266.2985797847792
 31
0.0
  0
LINE
  5
283
330
18
100
AcDbEntity
  8
目盛
100
AcDbLine
 10
342.7846285788545
 20
264.9998201867476
 30
0.0
 11
341.7010077962818
 21
266.3096926994664
 31
0.0
  0
LINE
  5
284
330
18
100
AcDbEntity
  8
目盛
100
AcDbLine
 10
343.8684602509945
 20
265.9553463398983
 30
0.0
 11
342.7047301709158
 21
267.1945930065147
 31
0.0
  0
LINE
  5
285
330
18
100
AcDbEntity
  8
目盛
100
AcDbLine
 10
344.8901552453271
 20
266.9770413342309
 30
0.0
 11
343.6509085787108
 21
268.1407714143097
 31
0.0
  0
LINE
  5
286
330
18
100
AcDbEntity
  8
目盛
100
AcDbLine
 10
345.8456813984778
 20
268.0608730063708
 30
0.0
 11
344.535808885759
 21
269.1444937889436
 31
0.0
  0
LINE
  5
287
330
18
100
AcDbEntity
  8
目盛
100
AcDbLine
 10
346.7312676852584
 20
269.2025639678639
 30
0.0
 11
344.5469218004461
 21
270.7895841490536
 31
0.0
  0
LINE
  5
288
330
18
100
AcDbEntity
  8
目盛
100
AcDbLine
 10
347.5434191011811
 20
270.3976084860739
 30
0.0
 11
346.1080616278276
 21
271.308514037538
 31
0.0
  0
LINE
  5
289
330
18
100
AcDbEntity
  8
目盛
100
AcDbLine
 10
348.2789304556435
 20
271.6412902662514
 30
0.0
 11
346.789209099569
 21
272.4602715122243
 31
0.0
  0
LINE
  5
28A
330
18
100
AcDbEntity
  8
目盛
100
AcDbLine
 10
348.9348990213532
 20
272.9287010645941
 30
0.0
 11
347.3966930321609
 21
273.6525258602546
 31
0.0
  0
LINE
  5
28B
330
18
100
AcDbEntity
  8
目盛
100
AcDbLine
 10
349.5087359900644
 20
274.2547600588431
 30
0.0
 11
347.9281159640545
 21
274.880571798407
 31
0.0
  0
LINE
  5
28C
330
18
100
AcDbEntity
  8
目盛
100
AcDbLine
 10
349.9981766894231
 20
275.614233899967
 30
0.0
 11
347.4303240954263
 21
276.4485797847793
 31
0.0
  0
LINE
  5
28D
330
18
100
AcDbEntity
  8
目盛
100
AcDbLine
 10
350.4012895205931
 20
277.0017573657991
 30
0.0
 11
348.7546981466746
 21
277.4245301739793
 31
0.0
  0
LINE
  5
28E
330
18
100
AcDbEntity
  8
目盛
100
AcDbLine
 10
350.7164835813945
 20
278.4118545351191
 30
0.0
 11
349.0465952551558
 21
278.7304027699148
 31
0.0
  0
LINE
  5
28F
330
18
100
AcDbEntity
  8
目盛
100
AcDbLine
 10
350.9425149448677
 20
279.8389603986118
 30
0.0
 11
349.2559199526331
 21
280.052026895671
 31
0.0
  0
LINE
  5
290
330
18
100
AcDbEntity
  8
目盛
100
AcDbLine
 10
351.0784915684848
 20
281.2774428214165
 30
0.0
 11
349.3818461301569
 21
281.3841867046163
 31
0.0
  0
LINE
  5
291
330
18
100
AcDbEntity
  8
目盛
100
AcDbLine
 10
351.0784915684848
 20
284.1658067197649
 30
0.0
 11
349.3818461301569
 21
284.0590628365651
 31
0.0
  0
LINE
  5
292
330
18
100
AcDbEntity
  8
目盛
100
AcDbLine
 10
350.9425149448677
 20
285.6042891425698
 30
0.0
 11
349.2559199526331
 21
285.3912226455104
 31
0.0
  0
LINE
  5
293
330
18
100
AcDbEntity
  8
目盛
100
AcDbLine
 10
350.7164835813945
 20
287.0313950060623
 30
0.0
 11
349.0465952551558
 21
286.7128467712666
 31
0.0
  0
LINE
  5
294
330
18
100
AcDbEntity
  8
目盛
100
AcDbLine
 10
350.4012895205932
 20
288.4414921753823
 30
0.0
 11
348.7546981466746
 21
288.0187193672021
 31
0.0
  0
LINE
  5
295
330
18
100
AcDbEntity
  8
目盛
100
AcDbLine
 10
349.9981766894231
 20
289.8290156412145
 30
0.0
 11
347.4303240954262
 21
288.9946697564022
 31
0.0
  0
LINE
  5
296
330
18
100
AcDbEntity
  8
目盛
100
AcDbLine
 10
349.5087359900644
 20
291.1884894823383
 30
0.0
 11
347.9281159640545
 21
290.5626777427744
 31
0.0
  0
LINE
  5
297
330
18
100
AcDbEntity
  8
目盛
100
AcDbLine
 10
348.9348990213532
 20
292.5145484765874
 30
0.0
 11
347.3966930321609
 21
291.7907236809268
 31
0.0
  0
LINE
  5
298
330
18
100
AcDbEntity
  8
目盛
100
AcDbLine
 10
348.2789304556435
 20
293.8019592749301
 30
0.0
 11
346.789209099569
 21
292.9829780289573
 31
0.0
  0
LINE
  5
299
330
18
100
AcDbEntity
  8
目盛
100
AcDbLine
 10
347.5434191011811
 20
295.0456410551076
 30
0.0
 11
346.1080616278277
 21
294.1347355036434
 31
0.0
  0
LINE
  5
29A
330
18
100
AcDbEntity
  8
目盛
100
AcDbLine
 10
346.7312676852584
 20
296.2406855733176
 30
0.0
 11
344.5469218004461
 21
294.6536653921279
 31
0.0
  0
LINE
  5
29B
330
18
100
AcDbEntity
  8
目盛
100
AcDbLine
 10
345.8456813984778
 20
297.3823765348105
 30
0.0
 11
344.535808885759
 21
296.2987557522378
 31
0.0
  0
LINE
  5
29C
330
18
100
AcDbEntity
  8
目盛
100
AcDbLine
 10
344.8901552453271
 20
298.4662082069505
 30
0.0
 11
343.6509085787108
 21
297.3024781268719
 31
0.0
  0
LINE
  5
29D
330
18
100
AcDbEntity
  8
目盛
100
AcDbLine
 10
343.8684602509945
 20
299.4879032012832
 30
0.0
 11
342.7047301709158
 21
298.2486565346668
 31
0.0
  0
LINE
  5
29E
330
18
100
AcDbEntity
  8
目盛
100
AcDbLine
 10
342.7846285788545
 20
300.4434293544337
 30
0.0
 11
341.7010077962818
 21
299.133556841715
 31
0.0
  0
LINE
  5
29F
330
18
100
AcDbEntity
  8
目盛
100
AcDbLine
 10
341.6429376173616
 20
301.3290156412144
 30
0.0
 11
340.0559174361719
 21
299.1446697564021
 31
0.0
  0
LINE
  5
2A0
330
18
100
AcDbEntity
  8
目盛
100
AcDbLine
 10
340.4478930991517
 20
302.141167057137
 30
0.0
 11
339.5369875476874
 21
300.7058095837836
 31
0.0
  0
LINE
  5
2A1
330
18
100
AcDbEntity
  8
目盛
100
AcDbLine
 10
339.2042113189743
 20
302.8766784115995
 30
0.0
 11
338.3852300730013
 21
301.386957055525
 31
0.0
  0
LINE
  5
2A2
330
18
100
AcDbEntity
  8
目盛
100
AcDbLine
 10
337.9168005206315
 20
303.5326469773091
 30
0.0
 11
337.1929757249709
 21
301.9944409881169
 31
0.0
  0
LINE
  5
2A3
330
18
100
AcDbEntity
  8
目盛
100
AcDbLine
 10
336.5907415263824
 20
304.1064839460204
 30
0.0
 11
335.9649297868184
 21
302.5258639200105
 31
0.0
  0
LINE
  5
2A4
330
18
100
AcDbEntity
  8
目盛
100
AcDbLine
 10
335.2312676852586
 20
304.5959246453792
 30
0.0
 11
334.3969218004462
 21
302.0280720513823
 31
0.0
  0
LINE
  5
2A5
330
18
100
AcDbEntity
  8
目盛
100
AcDbLine
 10
333.8437442194265
 20
304.9990374765492
 30
0.0
 11
333.4209714112462
 21
303.3524461026305
 31
0.0
  0
LINE
  5
2A6
330
18
100
AcDbEntity
  8
目盛
100
AcDbLine
 10
332.4336470501064
 20
305.3142315373505
 30
0.0
 11
332.1150988153108
 21
303.6443432111118
 31
0.0
  0
LINE
  5
2A7
330
18
100
AcDbEntity
  8
目盛
100
AcDbLine
 10
331.0065411866139
 20
305.5402629008237
 30
0.0
 11
330.7934746895546
 21
303.8536679085891
 31
0.0
  0
LINE
  5
2A8
330
18
100
AcDbEntity
  8
目盛
100
AcDbLine
 10
329.5680587638091
 20
305.676239524441
 30
0.0
 11
329.4613148806092
 21
303.9795940861129
 31
0.0
  0
LINE
  5
2A9
330
18
100
AcDbEntity
  8
目盛
100
AcDbLine
 10
348.1238768146347
 20
282.7216247705907
 30
0.0
 11
351.1238768146347
 21
282.7216247705907
 31
0.0
  0
LINE
  5
2AA
330
18
100
AcDbEntity
  8
目盛
100
AcDbLine
 10
328.1238768146347
 20
262.4216247705907
 30
0.0
 11
328.1238768146347
 21
259.7216247705907
 31
0.0
  0
LINE
  5
2AB
330
18
100
AcDbEntity
  8
目盛
100
AcDbLine
 10
305.1238768146347
 20
282.7216247705907
 30
0.0
 11
307.8238768146346
 21
282.7216247705907
 31
0.0
  0
LINE
  5
2AC
330
18
100
AcDbEntity
  8
目盛
100
AcDbLine
 10
328.1238768146347
 20
305.7216247705907
 30
0.0
 11
328.1238768146347
 21
303.0216247705908
 31
0.0
  0
TEXT
  5
2AD
330
18
100
AcDbEntity
  8
文字
100
AcDbText
 10
326.9439263306295
 20
300.0167749827952
 30
0.0
 40
2.5
  1
0
  7
STYLE3
100
AcDbText
  0
TEXT
  5
2AE
330
18
100
AcDbEntity
  8
文字
100
AcDbText
 10
336.8372859869035
 20
296.2841467872049
 30
0.0
 40
2.5
  1
10
  7
STYLE3
100
AcDbText
  0
TEXT
  5
2AF
330
18
100
AcDbEntity
  8
文字
100
AcDbText
 10
342.8571216157931
 20
286.9940003379772
 30
0.0
 40
2.5
  1
20
  7
STYLE3
100
AcDbText
  0
TEXT
  5
2B0
330
18
100
AcDbEntity
  8
文字
100
AcDbText
 10
342.6877009718674
 20
275.4545890809074
 30
0.0
 40
2.5
  1
30
  7
STYLE3
100
AcDbText
  0
TEXT
  5
2B1
330
18
100
AcDbEntity
  8
文字
100
AcDbText
 10
336.9153623318039
 20
266.9825374932052
 30
0.0
 40
2.5
  1
40
  7
STYLE3
100
AcDbText
  0
TEXT
  5
2B2
330
18
100
AcDbEntity
  8
文字
100
AcDbText
 10
325.7398222752741
 20
262.9792402605557
 30
0.0
 40
2.5
  1
50
  7
STYLE3
100
AcDbText
  0
TEXT
  5
2B3
330
18
100
AcDbEntity
  8
文字
100
AcDbText
 10
314.4117997724117
 20
266.6576398715668
 30
0.0
 40
2.5
  1
60
  7
STYLE3
100
AcDbText
  0
TEXT
  5
2B4
330
18
100
AcDbEntity
  8
文字
100
AcDbText
 10
308.5895630091226
 20
275.2984635530572
 30
0.0
 40
2.5
  1
70
  7
STYLE3
100
AcDbText
  0
TEXT
  5
2B5
330
18
100
AcDbEntity
  8
文字
100
AcDbText
 10
308.6952461889822
 20
287.4916245753049
 30
0.0
 40
2.5
  1
80
  7
STYLE3
100
AcDbText
  0
TEXT
  5
2B6
330
18
100
AcDbEntity
  8
文字
100
AcDbText
 10
314.9058340231281
 20
296.2002647645782
 30
0.0
 40
2.5
  1
90
  7
STYLE3
100
AcDbText
  0
LINE
  5
2B7
330
18
100
AcDbEntity
  8
中心線
 48
0.2
100
AcDbLine
 10
324.9238768146347
 20
280.5108607777985
 30
0.0
 11
324.9238768146347
 21
268.5290630010209
 31
0.0
  0
ARC
  5
2B8
330
18
100
AcDbEntity
  8
外形線
100
AcDbCircle
 10
324.9238768146347
 20
272.6476533590768
 30
0.0
 40
4.75
100
AcDbArc
 50
0.0
 51
180.0
  0
LINE
  5
2B9
330
18
100
AcDbEntity
  8
中心線
 48
0.2
100
AcDbLine
 10
318.8331014847143
 20
272.6476533590768
 30
0.0
 11
331.3872262055028
 21
272.6476533590768
 31
0.0
  0
LINE
  5
2BA
330
18
100
AcDbEntity
  8
目盛
100
AcDbLine
 10
323.4560460913536
 20
277.1651718114788
 30
0.0
 11
323.6105545885411
 21
276.6896435533312
 31
0.0
  0
LINE
  5
2BB
330
18
100
AcDbEntity
  8
目盛
100
AcDbLine
 10
321.0810460913535
 20
275.439633307466
 30
0.0
 11
321.4855545885411
 21
275.1457406813198
 31
0.0
  0
LINE
  5
2BC
330
18
100
AcDbEntity
  8
目盛
100
AcDbLine
 10
320.1738768146345
 20
272.6476533590767
 30
0.0
 11
320.6738768146347
 21
272.6476533590768
 31
0.0
  0
LINE
  5
2C1
330
18
100
AcDbEntity
  8
目盛
100
AcDbLine
 10
329.6738768146345
 20
272.6476533590768
 30
0.0
 11
329.1738768146346
 21
272.6476533590768
 31
0.0
  0
LINE
  5
2C2
330
18
100
AcDbEntity
  8
目盛
100
AcDbLine
 10
328.7667075379155
 20
275.439633307466
 30
0.0
 11
328.3621990407281
 21
275.1457406813198
 31
0.0
  0
LINE
  5
2C3
330
18
100
AcDbEntity
  8
目盛
100
AcDbLine
 10
326.3917075379156
 20
277.1651718114787
 30
0.0
 11
326.2371990407281
 21
276.6896435533312
 31
0.0
  0
TEXT
  5
2C5
330
18
100
AcDbEntity
  8
文字
100
AcDbText
 10
328.1370817513243
 20
272.1646289055877
 30
0.0
 40
1.0
  1
0
  7
STYLE3
100
AcDbText
  0
TEXT
  5
2C6
330
18
100
AcDbEntity
  8
文字
100
AcDbText
 10
327.4797368646539
 20
274.2120491729749
 30
0.0
 40
1.0
  1
1
  7
STYLE3
100
AcDbText
  0
TEXT
  5
2C7
330
18
100
AcDbEntity
  8
文字
100
AcDbText
 10
325.4679451787975
 20
275.5293012659247
 30
0.0
 40
1.0
  1
2
  7
STYLE3
100
AcDbText
  0
TEXT
  5
2CD
330
18
100
AcDbEntity
  8
文字
100
AcDbText
 10
321.5810540189603
 20
274.1031843422008
 30
0.0
 40
1.0
  1
4
  7
STYLE3
100
AcDbText
  0
TEXT
  5
2CE
330
18
100
AcDbEntity
  8
文字
100
AcDbText
 10
323.2742980872801
 20
275.3693557111937
 30
0.0
 40
1.0
  1
3
  7
STYLE3
100
AcDbText
  0
LINE
  5
2D3
330
18
100
AcDbEntity
  8
外形線
100
AcDbLine
 10
324.7238768146346
 20
237.7216247705907
 30
0.0
 11
331.5238768146347
 21
237.7216247705907
 31
0.0
  0
LINE
  5
2D4
330
18
100
AcDbEntity
  8
外形線
100
AcDbLine
 10
325.8738768146347
 20
226.7216247705907
 30
0.0
 11
330.3738768146347
 21
226.7216247705907
 31
0.0
  0
LINE
  5
2D5
330
18
100
AcDbEntity
  8
外形線
100
AcDbLine
 10
332.1238768146347
 20
256.6264144821106
 30
0.0
 11
332.1238768146347
 21
242.2216247705907
 31
0.0
  0
LINE
  5
2D6
330
18
100
AcDbEntity
  8
外形線
100
AcDbLine
 10
324.1238768146347
 20
256.6264144821106
 30
0.0
 11
324.1238768146347
 21
242.2216247705907
 31
0.0
  0
LINE
  5
2D9
330
18
100
AcDbEntity
  8
外形線
100
AcDbLine
 10
330.1238768146346
 20
237.7216247705907
 30
0.0
 11
330.1238768146346
 21
226.7216247705907
 31
0.0
  0
LINE
  5
2DA
330
18
100
AcDbEntity
  8
外形線
100
AcDbLine
 10
326.1238768146347
 20
237.7216247705907
 30
0.0
 11
326.1238768146347
 21
226.7216247705907
 31
0.0
  0
LINE
  5
2DB
330
18
100
AcDbEntity
  8
外形線
100
AcDbLine
 10
330.6238768146347
 20
226.5216247705907
 30
0.0
 11
330.6238768146346
 21
223.4216247705907
 31
0.0
  0
LINE
  5
2DC
330
18
100
AcDbEntity
  8
外形線
100
AcDbLine
 10
325.6238768146347
 20
226.5216247705907
 30
0.0
 11
325.6238768146347
 21
223.4216247705907
 31
0.0
  0
LINE
  5
2DD
330
18
100
AcDbEntity
  8
外形線
100
AcDbLine
 10
325.8738768146347
 20
223.2216247705907
 30
0.0
 11
330.3738768146346
 21
223.2216247705907
 31
0.0
  0
LINE
  5
2DE
330
18
100
AcDbEntity
  8
外形線
100
AcDbLine
 10
325.6238768146346
 20
226.5216247705907
 30
0.0
 11
330.6238768146347
 21
226.5216247705907
 31
0.0
  0
LINE
  5
2DF
330
18
100
AcDbEntity
  8
外形線
100
AcDbLine
 10
325.6238768146346
 20
223.4216247705907
 30
0.0
 11
330.6238768146347
 21
223.4216247705907
 31
0.0
  0
LINE
  5
2E0
330
18
100
AcDbEntity
  8
外形線
100
AcDbLine
 10
330.3738768146347
 20
226.7216247705907
 30
0.0
 11
330.6238768146347
 21
226.5216247705907
 31
0.0
  0
LINE
  5
2E1
330
18
100
AcDbEntity
  8
外形線
100
AcDbLine
 10
325.8738768146347
 20
226.7216247705907
 30
0.0
 11
325.6238768146347
 21
226.5216247705907
 31
0.0
  0
LINE
  5
2E2
330
18
100
AcDbEntity
  8
外形線
100
AcDbLine
 10
330.6238768146347
 20
223.4216247705907
 30
0.0
 11
330.3738768146347
 21
223.2216247705907
 31
0.0
  0
LINE
  5
2E3
330
18
100
AcDbEntity
  8
外形線
100
AcDbLine
 10
325.6238768146347
 20
223.4216247705907
 30
0.0
 11
325.8738768146347
 21
223.2216247705907
 31
0.0
  0
LINE
  5
2E5
330
18
100
AcDbEntity
  8
外形線
100
AcDbLine
 10
326.8238768146346
 20
218.7216247705907
 30
0.0
 11
329.4238768146346
 21
218.7216247705907
 31
0.0
  0
LINE
  5
2E6
330
18
100
AcDbEntity
  8
外形線
100
AcDbLine
 10
330.3738768146347
 20
223.2216247705907
 30
0.0
 11
329.4238768146346
 21
218.7216247705907
 31
0.0
  0
LINE
  5
2E7
330
18
100
AcDbEntity
  8
外形線
100
AcDbLine
 10
325.8738768146347
 20
223.2216247705907
 30
0.0
 11
326.8238768146346
 21
218.7216247705907
 31
0.0
  0
LINE
  5
5CF
330
18
100
AcDbEntity
  8
外形線
  6
Continuous
100
AcDbLine
 10
331.8238768146347
 20
323.2216247705906
 30
0.0
 11
331.8238768146347
 21
316.7216247705906
 31
0.0
  0
LINE
  5
5D0
330
18
100
AcDbEntity
  8
外形線
  6
Continuous
100
AcDbLine
 10
324.4238768146347
 20
323.2216247705906
 30
0.0
 11
324.4238768146347
 21
316.7216247705906
 31
0.0
  0
LINE
  5
5D1
330
18
100
AcDbEntity
  8
外形線
  6
Continuous
100
AcDbLine
 10
324.4238768146347
 20
323.2216247705906
 30
0.0
 11
331.8238768146347
 21
323.2216247705906
 31
0.0
  0
LINE
  5
5D2
330
18
100
AcDbEntity
  8
外形線
  6
Continuous
100
AcDbLine
 10
324.1238768146347
 20
316.7216247705906
 30
0.0
 11
332.1238768146346
 21
316.7216247705906
 31
0.0
  0
LINE
  5
5D3
330
18
100
AcDbEntity
  8
外形線
  6
Continuous
100
AcDbLine
 10
324.1238768146346
 20
310.7216247705906
 30
0.0
 11
332.1238768146346
 21
310.7216247705906
 31
0.0
  0
LINE
  5
5D4
330
18
100
AcDbEntity
  8
外形線
  6
Continuous
100
AcDbLine
 10
332.1238768146346
 20
316.7216247705906
 30
0.0
 11
332.1238768146346
 21
310.7216247705906
 31
0.0
  0
LINE
  5
5D5
330
18
100
AcDbEntity
  8
外形線
  6
Continuous
100
AcDbLine
 10
324.1238768146347
 20
316.7216247705906
 30
0.0
 11
324.1238768146347
 21
310.7216247705906
 31
0.0
  0
LINE
  5
5D6
330
18
100
AcDbEntity
  8
外形線
  6
Continuous
100
AcDbLine
 10
331.8238768146347
 20
310.7216247705906
 30
0.0
 11
331.8238768146347
 21
308.8610585823626
 31
0.0
  0
LINE
  5
5D7
330
18
100
AcDbEntity
  8
外形線
  6
Continuous
100
AcDbLine
 10
324.4238768146347
 20
310.7216247705906
 30
0.0
 11
324.4238768146347
 21
308.8610585823626
 31
0.0
  0
ARC
  5
5D9
330
18
100
AcDbEntity
  8
外形線
  6
Continuous
100
AcDbCircle
 10
328.1238768146346
 20
316.8766247705908
 30
0.0
 40
7.344999999999885
100
AcDbArc
 50
59.75198538337817
 51
120.2480146166212
  0
TEXT
  5
661
330
18
100
AcDbEntity
  8
文字
  6
Continuous
 62
     4
100
AcDbText
 10
327.6486253338008
 20
298.4989998267778
 30
0.0
 40
1.0
  1
0
  7
STYLE3
100
AcDbText
  0
TEXT
  5
662
330
18
100
AcDbEntity
  8
文字
  6
Continuous
 62
     4
100
AcDbText
 10
338.1113154724449
 20
294.8124500978296
 30
0.0
 40
1.0
  1
90
  7
STYLE3
100
AcDbText
  0
TEXT
  5
663
330
18
100
AcDbEntity
  8
文字
  6
Continuous
 62
     4
100
AcDbText
 10
343.3029783315185
 20
285.4749482246173
 30
0.0
 40
1.0
  1
80
  7
STYLE3
100
AcDbText
  0
TEXT
  5
664
330
18
100
AcDbEntity
  8
文字
  6
Continuous
 62
     4
100
AcDbText
 10
343.4572803288211
 20
278.4921236190581
 30
0.0
 40
1.0
  1
70
  7
STYLE3
100
AcDbText
  0
TEXT
  5
665
330
18
100
AcDbEntity
  8
文字
  6
Continuous
 62
     4
100
AcDbText
 10
338.2909344836428
 20
269.9038477734315
 30
0.0
 40
1.0
  1
60
  7
STYLE3
100
AcDbText
  0
TEXT
  5
666
330
18
100
AcDbEntity
  8
文字
  6
Continuous
 62
     4
100
AcDbText
 10
327.159538172648
 20
265.9722628275964
 30
0.0
 40
1.0
  1
50
  7
STYLE3
100
AcDbText
  0
TEXT
  5
667
330
18
100
AcDbEntity
  8
文字
  6
Continuous
 62
     4
100
AcDbText
 10
316.2744597934122
 20
269.6919179543962
 30
0.0
 40
1.0
  1
40
  7
STYLE3
100
AcDbText
  0
TEXT
  5
668
330
18
100
AcDbEntity
  8
文字
  6
Continuous
 62
     4
100
AcDbText
 10
310.9346143181194
 20
278.2942918453666
 30
0.0
 40
1.0
  1
30
  7
STYLE3
100
AcDbText
  0
TEXT
  5
669
330
18
100
AcDbEntity
  8
文字
  6
Continuous
 62
     4
100
AcDbText
 10
310.8991648339604
 20
286.0060457622163
 30
0.0
 40
1.0
  1
20
  7
STYLE3
100
AcDbText
  0
TEXT
  5
66A
330
18
100
AcDbEntity
  8
文字
  6
Continuous
 62
     4
100
AcDbText
 10
316.1709672245603
 20
294.6609089290303
 30
0.0
 40
1.0
  1
10
  7
STYLE3
100
AcDbText
  0
ARC
  5
692
330
18
100
AcDbEntity
  8
外形線
  6
Continuous
100
AcDbCircle
 10
509.8614943954483
 20
282.7216247705907
 30
0.0
 40
105.6666666666664
100
AcDbArc
 50
166.3144531747381
 51
193.685546825262
  0
LINE
  5
693
330
18
100
AcDbEntity
  8
外形線
  6
Continuous
100
AcDbLine
 10
407.1948277287821
 20
307.7216247705907
 30
0.0
 11
407.1948277287821
 21
257.7216247705907
 31
0.0
  0
LINE
  5
694
330
18
100
AcDbEntity
  8
外形線
  6
Continuous
100
AcDbLine
 10
408.3948277287821
 20
309.1216247705907
 30
0.0
 11
408.3948277287821
 21
256.3216247705907
 31
0.0
  0
LINE
  5
695
330
18
100
AcDbEntity
  8
外形線
  6
Continuous
100
AcDbLine
 10
412.194827728782
 20
309.1216247705907
 30
0.0
 11
412.194827728782
 21
256.3216247705907
 31
0.0
  0
LINE
  5
696
330
18
100
AcDbEntity
  8
外形線
  6
Continuous
100
AcDbLine
 10
413.694827728782
 20
307.7216247705907
 30
0.0
 11
413.694827728782
 21
257.7216247705907
 31
0.0
  0
LINE
  5
69C
330
18
100
AcDbEntity
  8
外形線
  6
Continuous
100
AcDbLine
 10
408.3948277287821
 20
257.2216247705907
 30
0.0
 11
407.1948277287821
 21
257.7216247705907
 31
0.0
  0
LINE
  5
6AD
330
18
100
AcDbEntity
  8
外形線
  6
CENTER2
100
AcDbLine
 10
413.694827728782
 20
257.7216247705907
 30
0.0
 11
412.194827728782
 21
257.7216247705907
 31
0.0
  0
LINE
  5
6AE
330
18
100
AcDbEntity
  8
外形線
  6
Continuous
100
AcDbLine
 10
408.3948277287821
 20
256.3216247705907
 30
0.0
 11
412.194827728782
 21
256.3216247705907
 31
0.0
  0
LINE
  5
6AF
330
18
100
AcDbEntity
  8
外形線
  6
Continuous
100
AcDbLine
 10
408.3948277287821
 20
260.3216247705907
 30
0.0
 11
412.194827728782
 21
260.3216247705907
 31
0.0
  0
LINE
  5
6B0
330
18
100
AcDbEntity
  8
外形線
  6
Continuous
100
AcDbLine
 10
408.3948277287821
 20
259.3216247705907
 30
0.0
 11
412.194827728782
 21
259.3216247705907
 31
0.0
  0
LINE
  5
6B1
330
18
100
AcDbEntity
  8
外形線
  6
Continuous
100
AcDbLine
 10
408.3948277287821
 20
258.3216247705907
 30
0.0
 11
412.194827728782
 21
258.3216247705907
 31
0.0
  0
LINE
  5
6B2
330
18
100
AcDbEntity
  8
外形線
  6
Continuous
100
AcDbLine
 10
408.3948277287821
 20
257.3216247705907
 30
0.0
 11
412.194827728782
 21
257.3216247705907
 31
0.0
  0
ARC
  5
6B8
330
18
100
AcDbEntity
  8
外形線
  6
Continuous
100
AcDbCircle
 10
418.694827728782
 20
316.8766247705909
 30
0.0
 40
7.344999999999885
100
AcDbArc
 50
59.75198538337879
 51
120.2480146166218
  0
LINE
  5
6B9
330
18
100
AcDbEntity
  8
外形線
  6
Continuous
100
AcDbLine
 10
408.3948277287821
 20
308.2216247705907
 30
0.0
 11
407.1948277287821
 21
307.7216247705907
 31
0.0
  0
LINE
  5
6BA
330
18
100
AcDbEntity
  8
外形線
  6
Continuous
100
AcDbLine
 10
408.3948277287821
 20
261.3216247705907
 30
0.0
 11
412.194827728782
 21
261.3216247705907
 31
0.0
  0
LINE
  5
6BB
330
18
100
AcDbEntity
  8
外形線
  6
Continuous
100
AcDbLine
 10
412.194827728782
 20
280.7216247705907
 30
0.0
 11
408.3948277287821
 21
280.7216247705907
 31
0.0
  0
LINE
  5
6BC
330
18
100
AcDbEntity
  8
外形線
  6
Continuous
100
AcDbLine
 10
412.194827728782
 20
281.7216247705907
 30
0.0
 11
408.3948277287821
 21
281.7216247705907
 31
0.0
  0
LINE
  5
6BD
330
18
100
AcDbEntity
  8
外形線
  6
Continuous
100
AcDbLine
 10
412.194827728782
 20
282.7216247705907
 30
0.0
 11
408.3948277287821
 21
282.7216247705907
 31
0.0
  0
LINE
  5
6BE
330
18
100
AcDbEntity
  8
外形線
  6
Continuous
100
AcDbLine
 10
412.194827728782
 20
283.7216247705907
 30
0.0
 11
408.3948277287821
 21
283.7216247705907
 31
0.0
  0
LINE
  5
6BF
330
18
100
AcDbEntity
  8
外形線
  6
Continuous
100
AcDbLine
 10
412.194827728782
 20
285.7216247705907
 30
0.0
 11
408.3948277287821
 21
285.7216247705907
 31
0.0
  0
LINE
  5
6C0
330
18
100
AcDbEntity
  8
外形線
  6
Continuous
100
AcDbLine
 10
412.194827728782
 20
284.7216247705907
 30
0.0
 11
408.3948277287821
 21
284.7216247705907
 31
0.0
  0
LINE
  5
6C1
330
18
100
AcDbEntity
  8
外形線
  6
Continuous
100
AcDbLine
 10
408.3948277287821
 20
304.1216247705907
 30
0.0
 11
412.194827728782
 21
304.1216247705907
 31
0.0
  0
LINE
  5
6C2
330
18
100
AcDbEntity
  8
外形線
  6
Continuous
100
AcDbLine
 10
408.3948277287821
 20
305.1216247705907
 30
0.0
 11
412.194827728782
 21
305.1216247705907
 31
0.0
  0
LINE
  5
6C3
330
18
100
AcDbEntity
  8
外形線
  6
Continuous
100
AcDbLine
 10
408.3948277287821
 20
306.1216247705907
 30
0.0
 11
412.194827728782
 21
306.1216247705907
 31
0.0
  0
LINE
  5
6C4
330
18
100
AcDbEntity
  8
外形線
  6
Continuous
100
AcDbLine
 10
408.3948277287821
 20
307.1216247705907
 30
0.0
 11
412.194827728782
 21
307.1216247705907
 31
0.0
  0
LINE
  5
6C5
330
18
100
AcDbEntity
  8
外形線
  6
Continuous
100
AcDbLine
 10
422.394827728782
 20
323.2216247705907
 30
0.0
 11
414.9948277287819
 21
323.2216247705907
 31
0.0
  0
LINE
  5
6C6
330
18
100
AcDbEntity
  8
外形線
  6
Continuous
100
AcDbLine
 10
422.694827728782
 20
316.7216247705907
 30
0.0
 11
414.694827728782
 21
316.7216247705907
 31
0.0
  0
LINE
  5
6C7
330
18
100
AcDbEntity
  8
外形線
  6
Continuous
100
AcDbLine
 10
422.694827728782
 20
310.7216247705907
 30
0.0
 11
414.694827728782
 21
310.7216247705907
 31
0.0
  0
LINE
  5
6C9
330
18
100
AcDbEntity
  8
外形線
  6
Continuous
100
AcDbLine
 10
422.694827728782
 20
316.7216247705907
 30
0.0
 11
422.694827728782
 21
310.7216247705907
 31
0.0
  0
LINE
  5
6CA
330
18
100
AcDbEntity
  8
外形線
  6
Continuous
100
AcDbLine
 10
422.394827728782
 20
310.7216247705907
 30
0.0
 11
422.394827728782
 21
307.1216247705907
 31
0.0
  0
LINE
  5
6CB
330
18
100
AcDbEntity
  8
外形線
  6
Continuous
100
AcDbLine
 10
422.394827728782
 20
323.2216247705907
 30
0.0
 11
422.394827728782
 21
316.7216247705907
 31
0.0
  0
LINE
  5
6CC
330
18
100
AcDbEntity
  8
外形線
  6
Continuous
100
AcDbLine
 10
414.694827728782
 20
316.7216247705907
 30
0.0
 11
414.694827728782
 21
310.7216247705907
 31
0.0
  0
LINE
  5
6CD
330
18
100
AcDbEntity
  8
外形線
  6
CENTER2
100
AcDbLine
 10
413.694827728782
 20
307.7216247705907
 30
0.0
 11
412.194827728782
 21
307.7216247705907
 31
0.0
  0
LINE
  5
6CE
330
18
100
AcDbEntity
  8
外形線
  6
Continuous
100
AcDbLine
 10
414.9948277287819
 20
310.7216247705907
 30
0.0
 11
414.9948277287819
 21
307.1216247705907
 31
0.0
  0
LINE
  5
6CF
330
18
100
AcDbEntity
  8
外形線
  6
Continuous
100
AcDbLine
 10
408.3948277287821
 20
308.1216247705907
 30
0.0
 11
412.194827728782
 21
308.1216247705907
 31
0.0
  0
LINE
  5
6D0
330
18
100
AcDbEntity
  8
外形線
  6
Continuous
100
AcDbLine
 10
408.3948277287821
 20
309.1216247705907
 30
0.0
 11
412.194827728782
 21
309.1216247705907
 31
0.0
  0
LINE
  5
6D1
330
18
100
AcDbEntity
  8
外形線
  6
Continuous
100
AcDbLine
 10
414.9948277287819
 20
323.2216247705907
 30
0.0
 11
414.9948277287819
 21
316.7216247705907
 31
0.0
  0
LINE
  5
71D
330
18
100
AcDbEntity
  8
外形線
  6
Continuous
100
AcDbLine
 10
426.294827728782
 20
306.0216247705908
 30
0.0
 11
425.194827728782
 21
306.0216247705908
 31
0.0
  0
LINE
  5
71E
330
18
100
AcDbEntity
  8
外形線
  6
Continuous
100
AcDbLine
 10
426.294827728782
 20
259.4216247705908
 30
0.0
 11
425.1948277287821
 21
259.4216247705908
 31
0.0
  0
MTEXT
  5
778
330
18
100
AcDbEntity
  8
DEFPOINTS
  6
Continuous
100
AcDbMText
 10
735.8166661286731
 20
235.565234348894
 30
0.0
 40
1.0
 41
0.0
 71
     4
 72
     1
  1
\A1;
 73
     1
 44
1.0
  0
LINE
  5
789
330
18
100
AcDbEntity
  8
中心線
 48
0.5
100
AcDbLine
 10
418.694827728782
 20
335.7404302993438
 30
0.0
 11
418.6948277287822
 21
215.5545508585782
 31
0.0
  0
LINE
  5
795
330
18
100
AcDbEntity
  8
外形線
100
AcDbLine
 10
324.1238768146347
 20
242.2216247705907
 30
0.0
 11
332.1238768146347
 21
242.2216247705907
 31
0.0
  0
LINE
  5
796
330
18
100
AcDbEntity
  8
外形線
100
AcDbLine
 10
324.5238768146347
 20
239.7216247705907
 30
0.0
 11
331.7238768146347
 21
239.7216247705908
 31
0.0
  0
LINE
  5
797
330
18
100
AcDbEntity
  8
外形線
100
AcDbLine
 10
324.2738768146347
 20
240.7216247705907
 30
0.0
 11
331.9738768146347
 21
240.7216247705907
 31
0.0
  0
LINE
  5
79F
330
18
100
AcDbEntity
  8
外形線
100
AcDbLine
 10
324.5238768146347
 20
239.7216247705907
 30
0.0
 11
324.5238768146347
 21
237.9216247705907
 31
0.0
  0
LINE
  5
7A0
330
18
100
AcDbEntity
  8
外形線
100
AcDbLine
 10
331.7238768146347
 20
237.9216247705907
 30
0.0
 11
331.7238768146347
 21
239.7216247705907
 31
0.0
  0
LINE
  5
7A1
330
18
100
AcDbEntity
  8
外形線
100
AcDbLine
 10
331.7238768146347
 20
237.9216247705907
 30
0.0
 11
331.5238768146347
 21
237.7216247705907
 31
0.0
  0
LINE
  5
7A2
330
18
100
AcDbEntity
  8
外形線
100
AcDbLine
 10
324.5238768146347
 20
237.9216247705907
 30
0.0
 11
324.7238768146346
 21
237.7216247705907
 31
0.0
  0
LINE
  5
7A5
330
18
100
AcDbEntity
  8
外形線
100
AcDbLine
 10
324.2738768146347
 20
242.2216247705907
 30
0.0
 11
324.2738768146347
 21
240.7216247705907
 31
0.0
  0
LINE
  5
7A6
330
18
100
AcDbEntity
  8
外形線
100
AcDbLine
 10
331.9738768146347
 20
242.2216247705907
 30
0.0
 11
331.9738768146347
 21
240.7216247705907
 31
0.0
  0
ARC
  5
7AC
330
18
100
AcDbEntity
  8
外形線
100
AcDbCircle
 10
331.8488768146347
 20
240.2216247705907
 30
0.0
 40
0.5153882032022076
100
AcDbArc
 50
75.96375653207353
 51
255.9637565320735
  0
ARC
  5
7AD
330
18
100
AcDbEntity
  8
外形線
100
AcDbCircle
 10
324.3988768146347
 20
240.2216247705907
 30
0.0
 40
0.5153882032022076
100
AcDbArc
 50
284.0362434679264
 51
104.0362434679264
  0
LINE
  5
7B0
330
18
100
AcDbEntity
  8
外形線
100
AcDbLine
 10
420.6948277287819
 20
237.7216247705907
 30
0.0
 11
420.6948277287819
 21
226.7216247705907
 31
0.0
  0
LINE
  5
7B1
330
18
100
AcDbEntity
  8
外形線
100
AcDbLine
 10
416.694827728782
 20
237.7216247705907
 30
0.0
 11
416.694827728782
 21
226.7216247705907
 31
0.0
  0
LINE
  5
7B2
330
18
100
AcDbEntity
  8
外形線
100
AcDbLine
 10
421.1948277287821
 20
226.5216247705907
 30
0.0
 11
421.1948277287819
 21
223.4216247705907
 31
0.0
  0
LINE
  5
7B3
330
18
100
AcDbEntity
  8
外形線
100
AcDbLine
 10
416.194827728782
 20
226.5216247705907
 30
0.0
 11
416.194827728782
 21
223.4216247705907
 31
0.0
  0
LINE
  5
7B5
330
18
100
AcDbEntity
  8
外形線
100
AcDbLine
 10
417.394827728782
 20
218.7216247705907
 30
0.0
 11
419.9948277287821
 21
218.7216247705907
 31
0.0
  0
LINE
  5
7B7
330
18
100
AcDbEntity
  8
外形線
100
AcDbLine
 10
416.4448277287821
 20
223.2216247705907
 30
0.0
 11
420.944827728782
 21
223.2216247705907
 31
0.0
  0
LINE
  5
7B8
330
18
100
AcDbEntity
  8
外形線
100
AcDbLine
 10
416.194827728782
 20
223.4216247705907
 30
0.0
 11
421.1948277287821
 21
223.4216247705907
 31
0.0
  0
LINE
  5
7B9
330
18
100
AcDbEntity
  8
外形線
100
AcDbLine
 10
416.4448277287821
 20
223.2216247705907
 30
0.0
 11
417.394827728782
 21
218.7216247705907
 31
0.0
  0
LINE
  5
7BA
330
18
100
AcDbEntity
  8
外形線
100
AcDbLine
 10
416.194827728782
 20
223.4216247705907
 30
0.0
 11
416.4448277287821
 21
223.2216247705907
 31
0.0
  0
LINE
  5
7BB
330
18
100
AcDbEntity
  8
外形線
100
AcDbLine
 10
420.9448277287821
 20
223.2216247705907
 30
0.0
 11
419.9948277287821
 21
218.7216247705907
 31
0.0
  0
LINE
  5
7BC
330
18
100
AcDbEntity
  8
外形線
100
AcDbLine
 10
421.1948277287821
 20
223.4216247705907
 30
0.0
 11
420.9448277287821
 21
223.2216247705907
 31
0.0
  0
LINE
  5
7BD
330
18
100
AcDbEntity
  8
外形線
100
AcDbLine
 10
416.4448277287821
 20
226.7216247705907
 30
0.0
 11
420.9448277287821
 21
226.7216247705907
 31
0.0
  0
LINE
  5
7BE
330
18
100
AcDbEntity
  8
外形線
100
AcDbLine
 10
416.194827728782
 20
226.5216247705907
 30
0.0
 11
421.1948277287821
 21
226.5216247705907
 31
0.0
  0
LINE
  5
7BF
330
18
100
AcDbEntity
  8
外形線
100
AcDbLine
 10
416.4448277287821
 20
226.7216247705907
 30
0.0
 11
416.194827728782
 21
226.5216247705907
 31
0.0
  0
LINE
  5
7C0
330
18
100
AcDbEntity
  8
外形線
100
AcDbLine
 10
420.9448277287821
 20
226.7216247705907
 30
0.0
 11
421.1948277287821
 21
226.5216247705907
 31
0.0
  0
LINE
  5
7C1
330
18
100
AcDbEntity
  8
外形線
100
AcDbLine
 10
422.6948277287821
 20
258.3216247705907
 30
0.0
 11
422.6948277287821
 21
242.2216247705907
 31
0.0
  0
LINE
  5
7C2
330
18
100
AcDbEntity
  8
外形線
100
AcDbLine
 10
414.6948277287823
 20
258.3216247705908
 30
0.0
 11
414.6948277287821
 21
242.2216247705907
 31
0.0
  0
LINE
  5
7C3
330
18
100
AcDbEntity
  8
外形線
100
AcDbLine
 10
415.094827728782
 20
239.7216247705907
 30
0.0
 11
415.094827728782
 21
237.9216247705907
 31
0.0
  0
LINE
  5
7C4
330
18
100
AcDbEntity
  8
外形線
100
AcDbLine
 10
422.2948277287821
 20
237.9216247705907
 30
0.0
 11
422.2948277287821
 21
239.7216247705907
 31
0.0
  0
LINE
  5
7C5
330
18
100
AcDbEntity
  8
外形線
100
AcDbLine
 10
415.294827728782
 20
237.7216247705907
 30
0.0
 11
422.0948277287821
 21
237.7216247705907
 31
0.0
  0
LINE
  5
7C6
330
18
100
AcDbEntity
  8
外形線
100
AcDbLine
 10
415.094827728782
 20
237.9216247705907
 30
0.0
 11
415.294827728782
 21
237.7216247705907
 31
0.0
  0
LINE
  5
7C7
330
18
100
AcDbEntity
  8
外形線
100
AcDbLine
 10
422.2948277287821
 20
237.9216247705907
 30
0.0
 11
422.0948277287821
 21
237.7216247705907
 31
0.0
  0
LINE
  5
7C8
330
18
100
AcDbEntity
  8
外形線
100
AcDbLine
 10
414.8448277287821
 20
240.7216247705907
 30
0.0
 11
422.5448277287821
 21
240.7216247705907
 31
0.0
  0
LINE
  5
7C9
330
18
100
AcDbEntity
  8
外形線
100
AcDbLine
 10
415.0948277287821
 20
239.7216247705907
 30
0.0
 11
422.2948277287821
 21
239.7216247705908
 31
0.0
  0
LINE
  5
7CA
330
18
100
AcDbEntity
  8
外形線
100
AcDbLine
 10
414.6948277287821
 20
242.2216247705907
 30
0.0
 11
422.6948277287821
 21
242.2216247705907
 31
0.0
  0
ARC
  5
7CB
330
18
100
AcDbEntity
  8
外形線
100
AcDbCircle
 10
414.9698277287821
 20
240.2216247705907
 30
0.0
 40
0.5153882032022076
100
AcDbArc
 50
284.0362434679264
 51
104.0362434679264
  0
LINE
  5
7CC
330
18
100
AcDbEntity
  8
外形線
100
AcDbLine
 10
414.8448277287821
 20
242.2216247705907
 30
0.0
 11
414.8448277287821
 21
240.7216247705907
 31
0.0
  0
ARC
  5
7CD
330
18
100
AcDbEntity
  8
外形線
100
AcDbCircle
 10
422.4198277287821
 20
240.2216247705907
 30
0.0
 40
0.5153882032022076
100
AcDbArc
 50
75.96375653207353
 51
255.9637565320735
  0
LINE
  5
7CE
330
18
100
AcDbEntity
  8
外形線
100
AcDbLine
 10
422.5448277287821
 20
242.2216247705907
 30
0.0
 11
422.5448277287821
 21
240.7216247705907
 31
0.0
  0
LINE
  5
7D6
330
18
100
AcDbEntity
  8
中心線
 48
0.5
100
AcDbLine
 10
398.9806859691219
 20
282.7216247705907
 30
0.0
 11
430.438863662319
 21
282.7216247705907
 31
0.0
  0
LINE
  5
833
330
18
100
AcDbEntity
  8
0
  6
ByBlock
 62
     2
100
AcDbLine
 10
328.1238768146346
 20
324.2216247705907
 30
0.0
 11
282.9859129098583
 21
324.2216247705907
 31
0.0
  0
LINE
  5
835
330
18
100
AcDbEntity
  8
0
  6
ByBlock
 62
     2
100
AcDbLine
 10
291.3309495192605
 20
321.7216247705907
 30
0.0
 11
291.3309495192605
 21
285.2216247705907
 31
0.0
  0
INSERT
  5
836
330
18
100
AcDbEntity
  8
0
  6
ByBlock
 62
     2
100
AcDbBlockReference
  2
_OPEN
 10
291.3309495192605
 20
324.2216247705907
 30
0.0
 41
2.5
 42
2.5
 43
2.5
 50
90.0
  0
INSERT
  5
837
330
18
100
AcDbEntity
  8
0
  6
ByBlock
 62
     2
100
AcDbBlockReference
  2
_OPEN
 10
291.3309495192605
 20
282.7216247705907
 30
0.0
 41
2.5
 42
2.5
 43
2.5
 50
270.0
  0
MTEXT
  5
838
330
18
100
AcDbEntity
  8
0
  6
ByBlock
 62
     6
100
AcDbMText
 10
289.4559495192605
 20
303.4716247705907
 30
0.0
 40
2.5
 41
0.0
 71
     5
 72
     1
  1
\A1;41.5
  7
STYLE3
 11
0.0000000000000001
 21
1.0
 31
0.0
 73
     1
 44
1.0
  0
POINT
  5
839
330
18
100
AcDbEntity
  8
DEFPOINTS
  6
ByBlock
 62
     0
100
AcDbPoint
 10
328.1238768146346
 20
324.2216247705907
 30
0.0
  0
POINT
  5
83A
330
18
100
AcDbEntity
  8
DEFPOINTS
  6
ByBlock
 62
     0
100
AcDbPoint
 10
328.1238768146346
 20
282.7216247705907
 30
0.0
  0
POINT
  5
83B
330
18
100
AcDbEntity
  8
DEFPOINTS
  6
ByBlock
 62
     0
100
AcDbPoint
 10
291.3309495192605
 20
282.7216247705907
 30
0.0
  0
LINE
  5
83C
330
18
100
AcDbEntity
  8
0
  6
ByBlock
 62
     2
100
AcDbLine
 10
328.1238768146347
 20
217.7216247705907
 30
0.0
 11
282.9859129098584
 21
217.7216247705907
 31
0.0
  0
LINE
  5
83D
330
18
100
AcDbEntity
  8
0
  6
ByBlock
 62
     2
100
AcDbLine
 10
291.3309495192605
 20
280.2216247705907
 30
0.0
 11
291.3309495192605
 21
220.2216247705907
 31
0.0
  0
INSERT
  5
83E
330
18
100
AcDbEntity
  8
0
  6
ByBlock
 62
     2
100
AcDbBlockReference
  2
_OPEN
 10
291.3309495192605
 20
282.7216247705907
 30
0.0
 41
2.5
 42
2.5
 43
2.5
 50
90.0
  0
INSERT
  5
83F
330
18
100
AcDbEntity
  8
0
  6
ByBlock
 62
     2
100
AcDbBlockReference
  2
_OPEN
 10
291.3309495192605
 20
217.7216247705907
 30
0.0
 41
2.5
 42
2.5
 43
2.5
 50
270.0
  0
MTEXT
  5
840
330
18
100
AcDbEntity
  8
0
  6
ByBlock
 62
     6
100
AcDbMText
 10
289.4559495192605
 20
250.2216247705907
 30
0.0
 40
2.5
 41
0.0
 71
     5
 72
     1
  1
\A1;65
  7
STYLE3
 11
0.0000000000000001
 21
1.0
 31
0.0
 73
     1
 44
1.0
  0
POINT
  5
841
330
18
100
AcDbEntity
  8
DEFPOINTS
  6
ByBlock
 62
     0
100
AcDbPoint
 10
328.1238768146346
 20
282.7216247705907
 30
0.0
  0
POINT
  5
843
330
18
100
AcDbEntity
  8
DEFPOINTS
  6
ByBlock
 62
     0
100
AcDbPoint
 10
291.3309495192605
 20
217.7216247705907
 30
0.0
  0
LINE
  5
846
330
18
100
AcDbEntity
  8
0
  6
ByBlock
 62
     2
100
AcDbLine
 10
284.2359129098582
 20
321.7216247705907
 30
0.0
 11
284.2359129098582
 21
220.2216247705907
 31
0.0
  0
INSERT
  5
847
330
18
100
AcDbEntity
  8
0
  6
ByBlock
 62
     2
100
AcDbBlockReference
  2
_OPEN
 10
284.2359129098582
 20
324.2216247705907
 30
0.0
 41
2.5
 42
2.5
 43
2.5
 50
90.0
  0
INSERT
  5
848
330
18
100
AcDbEntity
  8
0
  6
ByBlock
 62
     2
100
AcDbBlockReference
  2
_OPEN
 10
284.2359129098582
 20
217.7216247705907
 30
0.0
 41
2.5
 42
2.5
 43
2.5
 50
270.0
  0
MTEXT
  5
849
330
18
100
AcDbEntity
  8
0
  6
ByBlock
 62
     6
100
AcDbMText
 10
282.3609129098583
 20
270.9716247705907
 30
0.0
 40
2.5
 41
0.0
 71
     5
 72
     1
  1
\A1;106.5
  7
STYLE3
 11
0.0000000000000001
 21
1.0
 31
0.0
 73
     1
 44
1.0
  0
POINT
  5
84A
330
18
100
AcDbEntity
  8
DEFPOINTS
  6
ByBlock
 62
     0
100
AcDbPoint
 10
290.0809495192604
 20
324.2216247705907
 30
0.0
  0
POINT
  5
84B
330
18
100
AcDbEntity
  8
DEFPOINTS
  6
ByBlock
 62
     0
100
AcDbPoint
 10
290.0809495192604
 20
217.7216247705907
 30
0.0
  0
POINT
  5
84C
330
18
100
AcDbEntity
  8
DEFPOINTS
  6
ByBlock
 62
     0
100
AcDbPoint
 10
284.2359129098582
 20
217.7216247705907
 30
0.0
  0
LINE
  5
874
330
18
100
AcDbEntity
  8
0
  6
ByBlock
 62
     2
100
AcDbLine
 10
326.6238768146347
 20
248.0713970661619
 30
0.0
 11
329.6238768146347
 21
248.0713970661619
 31
0.0
  0
INSERT
  5
875
330
18
100
AcDbEntity
  8
0
  6
ByBlock
 62
     2
100
AcDbBlockReference
  2
_OPEN
 10
324.1238768146347
 20
248.0713970661619
 30
0.0
 41
2.5
 42
2.5
 43
2.5
 50
180.0
  0
INSERT
  5
876
330
18
100
AcDbEntity
  8
0
  6
ByBlock
 62
     2
100
AcDbBlockReference
  2
_OPEN
 10
332.1238768146347
 20
248.0713970661619
 30
0.0
 41
2.5
 42
2.5
 43
2.5
  0
MTEXT
  5
877
330
18
100
AcDbEntity
  8
0
  6
ByBlock
 62
     6
100
AcDbMText
 10
328.9349793047758
 20
249.9463970661619
 30
0.0
 40
2.5
 41
0.0
 71
     5
 72
     1
  1
8.0
  7
STYLE3
 73
     1
 44
1.0
  0
POINT
  5
878
330
18
100
AcDbEntity
  8
DEFPOINTS
  6
ByBlock
 62
     0
100
AcDbPoint
 10
324.1238768146347
 20
247.5040941888931
 30
0.0
  0
POINT
  5
879
330
18
100
AcDbEntity
  8
DEFPOINTS
  6
ByBlock
 62
     0
100
AcDbPoint
 10
332.1238768146347
 20
247.3420078475474
 30
0.0
  0
POINT
  5
87A
330
18
100
AcDbEntity
  8
DEFPOINTS
  6
ByBlock
 62
     0
100
AcDbPoint
 10
332.1238768146347
 20
248.0713970661619
 30
0.0
  0
LINE
  5
87B
330
18
100
AcDbEntity
  8
0
  6
ByBlock
 62
     2
100
AcDbLine
 10
323.6238768146347
 20
230.8091782783269
 30
0.0
 11
322.7460809916509
 21
230.8091782783269
 31
0.0
  0
LINE
  5
87C
330
18
100
AcDbEntity
  8
0
  6
ByBlock
 62
     2
100
AcDbLine
 10
332.6238768146346
 20
230.8091782783269
 30
0.0
 11
337.1516330399872
 21
230.8091782783269
 31
0.0
  0
LINE
  5
87D
330
18
100
AcDbEntity
  8
0
  6
ByBlock
 62
     2
100
AcDbLine
 10
326.1238768146347
 20
230.8091782783269
 30
0.0
 11
330.1238768146346
 21
230.8091782783269
 31
0.0
  0
INSERT
  5
87E
330
18
100
AcDbEntity
  8
0
  6
ByBlock
 62
     2
100
AcDbBlockReference
  2
_OPEN
 10
326.1238768146347
 20
230.8091782783269
 30
0.0
 41
2.5
 42
2.5
 43
2.5
  0
INSERT
  5
87F
330
18
100
AcDbEntity
  8
0
  6
ByBlock
 62
     2
100
AcDbBlockReference
  2
_OPEN
 10
330.1238768146346
 20
230.8091782783269
 30
0.0
 41
2.5
 42
2.5
 43
2.5
 50
180.0
  0
MTEXT
  5
880
330
18
100
AcDbEntity
  8
0
  6
ByBlock
 62
     6
100
AcDbMText
 10
335.586020366545
 20
232.6841782783269
 30
0.0
 40
2.5
 41
0.0
 71
     5
 72
     1
  1
\A1;4
  7
STYLE3
 73
     1
 44
1.0
  0
POINT
  5
881
330
18
100
AcDbEntity
  8
DEFPOINTS
  6
ByBlock
 62
     0
100
AcDbPoint
 10
326.1238768146347
 20
231.4575245537881
 30
0.0
  0
POINT
  5
882
330
18
100
AcDbEntity
  8
DEFPOINTS
  6
ByBlock
 62
     0
100
AcDbPoint
 10
330.1238768146346
 20
231.3764811555956
 30
0.0
  0
POINT
  5
883
330
18
100
AcDbEntity
  8
DEFPOINTS
  6
ByBlock
 62
     0
100
AcDbPoint
 10
330.1238768146346
 20
230.8091782783269
 30
0.0
  0
TEXT
  5
884
330
18
100
AcDbEntity
  8
文字
100
AcDbText
 10
332.3918881088582
 20
232.1869142274417
 30
0.0
 40
2.5
  1
φ
  7
STYLE3
100
AcDbText
  0
TEXT
  5
885
330
18
100
AcDbEntity
  8
文字
100
AcDbText
 10
324.027689232112
 20
250.2585880794482
 30
0.0
 40
2.5
  1
φ
  7
STYLE3
100
AcDbText
  0
MTEXT
  5
887
330
18
100
AcDbEntity
  8
文字
100
AcDbMText
 10
302.9558756866726
 20
261.6432165871282
 30
0.0
 40
1.0
 41
6.927999999999999
 71
     1
 72
     5
  1

  7
STYLE3
 73
     1
 44
1.0
  0
LINE
  5
8FD
330
18
100
AcDbEntity
  8
0
  6
ByBlock
 62
     2
100
AcDbLine
 10
416.4448277287821
 20
226.7216247705907
 30
0.0
 11
391.9157818636396
 21
226.7216247705907
 31
0.0
  0
LINE
  5
8FF
330
18
100
AcDbEntity
  8
0
  6
ByBlock
 62
     2
100
AcDbLine
 10
393.1657818636395
 20
224.2216247705907
 30
0.0
 11
393.1657818636395
 21
220.2216247705907
 31
0.0
  0
INSERT
  5
900
330
18
100
AcDbEntity
  8
0
  6
ByBlock
 62
     2
100
AcDbBlockReference
  2
_OPEN
 10
393.1657818636395
 20
226.7216247705907
 30
0.0
 41
2.5
 42
2.5
 43
2.5
 50
90.0
  0
INSERT
  5
901
330
18
100
AcDbEntity
  8
0
  6
ByBlock
 62
     2
100
AcDbBlockReference
  2
_OPEN
 10
393.1657818636395
 20
217.7216247705907
 30
0.0
 41
2.5
 42
2.5
 43
2.5
 50
270.0
  0
MTEXT
  5
902
330
18
100
AcDbEntity
  8
0
  6
ByBlock
 62
     6
100
AcDbMText
 10
391.2907818636396
 20
222.2216247705907
 30
0.0
 40
2.5
 41
0.0
 71
     5
 72
     1
  1
\A1;9
  7
STYLE3
 11
0.0000000000000001
 21
1.0
 31
0.0
 73
     1
 44
1.0
  0
POINT
  5
903
330
18
100
AcDbEntity
  8
DEFPOINTS
  6
ByBlock
 62
     0
100
AcDbPoint
 10
416.4448277287821
 20
226.7216247705907
 30
0.0
  0
LINE
  5
907
330
18
100
AcDbEntity
  8
0
  6
ByBlock
 62
     2
100
AcDbLine
 10
414.6948277287821
 20
242.2216247705907
 30
0.0
 11
403.1506295376683
 21
242.2216247705907
 31
0.0
  0
LINE
  5
908
330
18
100
AcDbEntity
  8
0
  6
ByBlock
 62
     2
100
AcDbLine
 10
404.4006295376682
 20
253.8216247705908
 30
0.0
 11
404.4006295376682
 21
244.7216247705907
 31
0.0
  0
INSERT
  5
909
330
18
100
AcDbEntity
  8
0
  6
ByBlock
 62
     2
100
AcDbBlockReference
  2
_OPEN
 10
404.4006295376682
 20
256.3216247705907
 30
0.0
 41
2.5
 42
2.5
 43
2.5
 50
90.0
  0
INSERT
  5
90A
330
18
100
AcDbEntity
  8
0
  6
ByBlock
 62
     2
100
AcDbBlockReference
  2
_OPEN
 10
404.4006295376682
 20
242.2216247705907
 30
0.0
 41
2.5
 42
2.5
 43
2.5
 50
270.0
  0
MTEXT
  5
90B
330
18
100
AcDbEntity
  8
0
  6
ByBlock
 62
     6
100
AcDbMText
 10
402.5256295376682
 20
249.2716247705907
 30
0.0
 40
2.5
 41
0.0
 71
     5
 72
     1
  1
14
  7
STYLE3
 11
0.0000000000000001
 21
1.0
 31
0.0
 73
     1
 44
1.0
  0
POINT
  5
90D
330
18
100
AcDbEntity
  8
DEFPOINTS
  6
ByBlock
 62
     0
100
AcDbPoint
 10
414.6948277287821
 20
242.2216247705907
 30
0.0
  0
POINT
  5
90E
330
18
100
AcDbEntity
  8
DEFPOINTS
  6
ByBlock
 62
     0
100
AcDbPoint
 10
404.4006295376682
 20
242.2216247705907
 30
0.0
  0
LINE
  5
910
330
18
100
AcDbEntity
  8
0
  6
ByBlock
 62
     2
100
AcDbLine
 10
415.294827728782
 20
237.7216247705907
 30
0.0
 11
391.9157818636396
 21
237.7216247705907
 31
0.0
  0
LINE
  5
911
330
18
100
AcDbEntity
  8
0
  6
ByBlock
 62
     2
100
AcDbLine
 10
393.1657818636395
 20
253.8216247705908
 30
0.0
 11
393.1657818636395
 21
240.2216247705907
 31
0.0
  0
INSERT
  5
912
330
18
100
AcDbEntity
  8
0
  6
ByBlock
 62
     2
100
AcDbBlockReference
  2
_OPEN
 10
393.1657818636395
 20
256.3216247705907
 30
0.0
 41
2.5
 42
2.5
 43
2.5
 50
90.0
  0
INSERT
  5
913
330
18
100
AcDbEntity
  8
0
  6
ByBlock
 62
     2
100
AcDbBlockReference
  2
_OPEN
 10
393.1657818636395
 20
237.7216247705907
 30
0.0
 41
2.5
 42
2.5
 43
2.5
 50
270.0
  0
MTEXT
  5
914
330
18
100
AcDbEntity
  8
0
  6
ByBlock
 62
     6
100
AcDbMText
 10
391.2907818636396
 20
247.0216247705907
 30
0.0
 40
2.5
 41
0.0
 71
     5
 72
     1
  1
18.5
  7
STYLE3
 11
0.0000000000000001
 21
1.0
 31
0.0
 73
     1
 44
1.0
  0
POINT
  5
916
330
18
100
AcDbEntity
  8
DEFPOINTS
  6
ByBlock
 62
     0
100
AcDbPoint
 10
415.294827728782
 20
237.7216247705907
 30
0.0
  0
POINT
  5
917
330
18
100
AcDbEntity
  8
DEFPOINTS
  6
ByBlock
 62
     0
100
AcDbPoint
 10
393.1657818636395
 20
237.7216247705907
 30
0.0
  0
TEXT
  5
93E
330
18
100
AcDbEntity
  8
文字
100
AcDbText
 10
440.8488761047991
 20
276.7196222297971
 30
0.0
 40
2.5
  1
φ
 50
90.0
  7
STYLE3
100
AcDbText
  0
LWPOLYLINE
  5
96E
330
18
100
AcDbEntity
  8
C
100
AcDbPolyline
 90
        5
 70
     0
 43
0.4
 10
236.6915604445414
 20
366.8501752555372
 10
491.6915604445414
 20
366.8501752555372
 10
491.6915604445414
 20
171.8501752555372
 10
236.6915604445414
 20
171.8501752555372
 10
236.6915604445414
 20
366.8501752555372
  0
MTEXT
  5
EB4
330
18
100
AcDbEntity
  8
DEFPOINTS
  6
Continuous
100
AcDbMText
 10
624.6916853418142
 20
184.890767874579
 30
0.0
 40
0.35
 41
0.0
 71
     4
 72
     1
  1
\A1;
 73
     1
 44
1.0
  0
LINE
  5
EB5
102
{ACAD_REACTORS
330
EF3
102
}
330
18
100
AcDbEntity
  8
ROGO
 62
     4
100
AcDbLine
 10
321.4565006997929
 20
292.0865914116972
 30
0.0
 11
323.068999012778
 21
292.0865914116972
 31
0.0
  0
LINE
  5
EB6
102
{ACAD_REACTORS
330
EF2
330
EF3
102
}
330
18
100
AcDbEntity
  8
ROGO
 62
     4
100
AcDbLine
 10
320.4412501597002
 20
290.0347126267913
 30
0.0
 11
334.330427426724
 21
290.0347126267913
 31
0.0
  0
LINE
  5
EB7
102
{ACAD_REACTORS
330
EF3
102
}
330
18
100
AcDbEntity
  8
ROGO
 62
     4
100
AcDbLine
 10
321.4565006997929
 20
292.0865914116972
 30
0.0
 11
320.4412501597002
 21
290.0347126267912
 31
0.0
  0
SPLINE
  5
EB8
102
{ACAD_REACTORS
330
EF3
102
}
330
18
100
AcDbEntity
  8
ROGO
 62
     4
100
AcDbSpline
210
0.0
220
0.0
230
1.0
 70
     8
 71
     3
 72
    18
 73
    14
 74
     0
 42
0.0000000001
 43
0.0000000001
 40
0.1087402787915014
 40
0.1087402787915014
 40
0.1087402787915014
 40
0.1087402787915014
 40
0.5992371417938475
 40
1.083176791562496
 40
1.448211145705696
 40
1.714037220764907
 40
2.164002567013297
 40
2.740236056362883
 40
3.395137510199602
 40
4.071816045172726
 40
4.784906178399433
 40
5.506895915094292
 40
6.060470601257719
 40
6.060470601257719
 40
6.060470601257719
 40
6.060470601257719
 10
323.068999012778
 20
292.0865914116973
 30
0.0
 10
323.1206585504141
 20
292.0676590568496
 30
0.0
 10
323.2222464982645
 20
292.0276331655342
 30
0.0
 10
323.3462317338117
 20
291.9362808557429
 30
0.0
 10
323.4138479277365
 20
291.8308220785701
 30
0.0
 10
323.4788871362795
 20
291.7269113362673
 30
0.0
 10
323.4879892547904
 20
291.5778338021108
 30
0.0
 10
323.4730793697433
 20
291.3893636665391
 30
0.0
 10
323.3768224988673
 20
291.1927145290184
 30
0.0
 10
323.2223245597858
 20
291.0207174982166
 30
0.0
 10
323.0305045866928
 20
290.8830533178748
 30
0.0
 10
322.8282238085856
 20
290.7749904813794
 30
0.0
 10
322.683633451532
 20
290.7739137607709
 30
0.0
 10
322.6208835346373
 20
290.7734464811397
 30
0.0
  0
LINE
  5
EB9
102
{ACAD_REACTORS
330
EF3
102
}
330
18
100
AcDbEntity
  8
ROGO
 62
     4
100
AcDbLine
 10
322.6208835349464
 20
290.7734464811397
 30
0.0
 11
321.7292752664651
 21
290.7734464811397
 31
0.0
  0
LINE
  5
EBA
102
{ACAD_REACTORS
330
EF3
102
}
330
18
100
AcDbEntity
  8
ROGO
 62
     4
100
AcDbLine
 10
322.0936375551327
 20
291.5787945004839
 30
0.0
 11
321.9356397587753
 21
291.2295728155985
 31
0.0
  0
SPLINE
  5
EBB
102
{ACAD_REACTORS
330
EF3
102
}
330
18
100
AcDbEntity
  8
ROGO
 62
     4
100
AcDbSpline
210
0.0
220
0.0
230
1.0
 70
     8
 71
     3
 72
    15
 73
    11
 74
     9
 42
0.0000000001
 43
0.0000000001
 44
0.0000000001
 40
0.0
 40
0.0
 40
0.0
 40
0.0
 40
0.1539705029175028
 40
0.2241725832587281
 40
0.3038566179396687
 40
0.3581410872474193
 40
0.443992538467216
 40
0.4954152125469665
 40
0.5836396705646186
 40
0.6130478420065743
 40
0.6130478420065743
 40
0.6130478420065743
 40
0.6130478420065743
 10
322.4996245542302
 20
291.5787945004839
 30
0.0
 10
322.5574528892894
 20
291.5790593851263
 30
0.0
 10
322.6416477643475
 20
291.5794450425959
 30
0.0
 10
322.687688520712
 20
291.4752957386665
 30
0.0
 10
322.6670508584785
 20
291.4082398340291
 30
0.0
 10
322.6411076350544
 20
291.3393943197812
 30
0.0
 10
322.595260083512
 20
291.292612754512
 30
0.0
 10
322.533725953917
 20
291.2475542208749
 30
0.0
 10
322.4755732608612
 20
291.2420996836154
 30
0.0
 10
322.4377514618886
 20
291.2320781901613
 30
0.0
 10
322.4282960076193
 20
291.2295728155985
 30
0.0
 11
322.4996245542302
 21
291.5787945004839
 31
0.0
 11
322.649414625159
 21
291.5431595398439
 31
0.0
 11
322.677946125834
 21
291.4790168430386
 31
0.0
 11
322.6636805805731
 21
291.4006201619772
 31
0.0
 11
322.6422820576053
 21
291.3507312170813
 31
0.0
 11
322.5852190562552
 21
291.2865885202759
 31
0.0
 11
322.5424220103193
 21
291.258080551764
 31
0.0
 11
322.4568275082944
 21
291.2366998077264
 31
0.0
 11
322.4282960076193
 21
291.2295728155985
 31
0.0
  0
LINE
  5
EBC
102
{ACAD_REACTORS
330
EF3
102
}
330
18
100
AcDbEntity
  8
ROGO
 62
     4
100
AcDbLine
 10
322.4996245542302
 20
291.5787945004839
 30
0.0
 11
322.0936375551327
 21
291.5787945004839
 31
0.0
  0
LINE
  5
EBD
102
{ACAD_REACTORS
330
EF3
102
}
330
18
100
AcDbEntity
  8
ROGO
 62
     4
100
AcDbLine
 10
322.4282960076194
 20
291.2295728155985
 30
0.0
 11
321.9356397587753
 21
291.2295728155985
 31
0.0
  0
LINE
  5
EBE
102
{ACAD_REACTORS
330
EF3
102
}
330
18
100
AcDbEntity
  8
ROGO
 62
     4
100
AcDbLine
 10
321.7292752664651
 20
290.7734464811397
 30
0.0
 11
321.3950511156367
 21
290.0347126267913
 31
0.0
  0
LINE
  5
EBF
102
{ACAD_REACTORS
330
EEE
102
}
330
18
100
AcDbEntity
  8
ROGO
 62
     4
100
AcDbLine
 10
324.0216230059836
 20
292.0865914116972
 30
0.0
 11
323.3718911067235
 21
290.7734464811397
 31
0.0
  0
LINE
  5
EC0
102
{ACAD_REACTORS
330
EEE
102
}
330
18
100
AcDbEntity
  8
ROGO
 62
     4
100
AcDbLine
 10
325.7977061544675
 20
292.0865914116972
 30
0.0
 11
325.648871958733
 21
291.7857890810051
 31
0.0
  0
LINE
  5
EC1
102
{ACAD_REACTORS
330
EEE
102
}
330
18
100
AcDbEntity
  8
ROGO
 62
     4
100
AcDbLine
 10
323.3718911067235
 20
290.7734464811397
 30
0.0
 11
325.1479742552074
 21
290.7734464811397
 31
0.0
  0
LINE
  5
EC2
102
{ACAD_REACTORS
330
EEE
102
}
330
18
100
AcDbEntity
  8
ROGO
 62
     4
100
AcDbLine
 10
324.715407536515
 20
291.7857890810051
 30
0.0
 11
324.5990376904385
 21
291.550599037821
 31
0.0
  0
LINE
  5
EC3
102
{ACAD_REACTORS
330
EEE
102
}
330
18
100
AcDbEntity
  8
ROGO
 62
     4
100
AcDbLine
 10
324.715407536515
 20
291.7857890810051
 30
0.0
 11
325.648871958733
 21
291.7857890810051
 31
0.0
  0
LINE
  5
EC4
102
{ACAD_REACTORS
330
EEE
102
}
330
18
100
AcDbEntity
  8
ROGO
 62
     4
100
AcDbLine
 10
324.5990376904385
 20
291.550599037821
 30
0.0
 11
325.5325021126564
 21
291.550599037821
 31
0.0
  0
LINE
  5
EC5
102
{ACAD_REACTORS
330
EEE
102
}
330
18
100
AcDbEntity
  8
ROGO
 62
     4
100
AcDbLine
 10
324.3633365421983
 20
291.0742336811398
 30
0.0
 11
325.2968009644163
 21
291.0742336811398
 31
0.0
  0
LINE
  5
EC6
102
{ACAD_REACTORS
330
EEE
102
}
330
18
100
AcDbEntity
  8
ROGO
 62
     4
100
AcDbLine
 10
324.4797113148147
 20
291.3094336811397
 30
0.0
 11
325.4131757370326
 21
291.3094336811397
 31
0.0
  0
LINE
  5
EC7
102
{ACAD_REACTORS
330
EEE
102
}
330
18
100
AcDbEntity
  8
ROGO
 62
     4
100
AcDbLine
 10
325.5325021126564
 20
291.550599037821
 30
0.0
 11
325.4131757370326
 21
291.3094336811397
 31
0.0
  0
LINE
  5
EC8
102
{ACAD_REACTORS
330
EEE
102
}
330
18
100
AcDbEntity
  8
ROGO
 62
     4
100
AcDbLine
 10
325.2968009644163
 20
291.0742336811398
 30
0.0
 11
325.1479742552074
 21
290.7734464811397
 31
0.0
  0
LINE
  5
EC9
102
{ACAD_REACTORS
330
EEE
102
}
330
18
100
AcDbEntity
  8
ROGO
 62
     4
100
AcDbLine
 10
324.4797113148147
 20
291.3094336811397
 30
0.0
 11
324.3633365421983
 21
291.0742336811398
 31
0.0
  0
LINE
  5
ECA
102
{ACAD_REACTORS
330
EF7
102
}
330
18
100
AcDbEntity
  8
ROGO
 62
     4
100
AcDbLine
 10
326.3122004196652
 20
292.0865914116972
 30
0.0
 11
325.3652660895661
 21
290.7734464811397
 31
0.0
  0
LINE
  5
ECB
102
{ACAD_REACTORS
330
EF7
102
}
330
18
100
AcDbEntity
  8
ROGO
 62
     4
100
AcDbLine
 10
326.7863282762969
 20
291.7355824347455
 30
0.0
 11
326.4629615399837
 21
291.2871591629265
 31
0.0
  0
LINE
  5
ECC
102
{ACAD_REACTORS
330
EF7
102
}
330
18
100
AcDbEntity
  8
ROGO
 62
     4
100
AcDbLine
 10
326.2728037788386
 20
291.0234611512306
 30
0.0
 11
327.1026807676229
 21
291.0234611512306
 31
0.0
  0
LINE
  5
ECD
102
{ACAD_REACTORS
330
EF7
102
}
330
18
100
AcDbEntity
  8
ROGO
 62
     4
100
AcDbLine
 10
326.4629615399837
 20
291.2871591629266
 30
0.0
 11
326.9855356620224
 21
291.2871591629266
 31
0.0
  0
LINE
  5
ECE
102
{ACAD_REACTORS
330
EF7
102
}
330
18
100
AcDbEntity
  8
ROGO
 62
     4
100
AcDbLine
 10
326.2728037788386
 20
291.0234611512306
 30
0.0
 11
326.0925133412577
 21
290.7734464811398
 31
0.0
  0
LINE
  5
ECF
102
{ACAD_REACTORS
330
EF7
102
}
330
18
100
AcDbEntity
  8
ROGO
 62
     4
100
AcDbLine
 10
325.3652660895661
 20
290.7734464811397
 30
0.0
 11
326.0925133412576
 21
290.7734464811397
 31
0.0
  0
LINE
  5
ED0
102
{ACAD_REACTORS
330
EF7
102
}
330
18
100
AcDbEntity
  8
ROGO
 62
     4
100
AcDbLine
 10
326.3122004196652
 20
292.0865914116972
 30
0.0
 11
327.3626039024366
 21
292.0865914116973
 31
0.0
  0
LINE
  5
ED1
102
{ACAD_REACTORS
330
EF7
102
}
330
18
100
AcDbEntity
  8
ROGO
 62
     4
100
AcDbLine
 10
327.9459549128199
 20
290.7734464811398
 30
0.0
 11
327.2137471906918
 21
290.7734464811397
 31
0.0
  0
LINE
  5
ED2
102
{ACAD_REACTORS
330
EEF
102
}
330
18
100
AcDbEntity
  8
ROGO
 62
     4
100
AcDbLine
 10
328.3055743278258
 20
290.7734464811397
 30
0.0
 11
329.4366033428304
 21
290.7734464811397
 31
0.0
  0
LINE
  5
ED3
102
{ACAD_REACTORS
330
EEF
102
}
330
18
100
AcDbEntity
  8
ROGO
 62
     4
100
AcDbLine
 10
330.0913798158396
 20
292.0865914116972
 30
0.0
 11
329.847760515299
 21
291.5980163594804
 31
0.0
  0
LINE
  5
ED4
102
{ACAD_REACTORS
330
EEF
102
}
330
18
100
AcDbEntity
  8
ROGO
 62
     4
100
AcDbLine
 10
329.0259935919479
 20
291.5980163594804
 30
0.0
 11
329.847760515299
 21
291.5980163594804
 31
0.0
  0
LINE
  5
ED5
102
{ACAD_REACTORS
330
EEF
102
}
330
18
100
AcDbEntity
  8
ROGO
 62
     4
100
AcDbLine
 10
328.840539042637
 20
291.2620163594803
 30
0.0
 11
329.6802200635092
 21
291.2620163594803
 31
0.0
  0
SPLINE
  5
ED6
102
{ACAD_REACTORS
330
EEF
102
}
330
18
100
AcDbEntity
  8
ROGO
 62
     4
100
AcDbSpline
210
0.0
220
0.0
230
1.0
 70
     8
 71
     3
 72
    26
 73
    22
 74
    20
 42
0.0000000001
 43
0.0000000001
 44
0.0000000001
 40
0.0
 40
0.0
 40
0.0
 40
0.0
 40
0.2382195346591896
 40
0.397689067266058
 40
0.5126795869787669
 40
0.5985392873135731
 40
0.7099038249249733
 40
0.7911890807494741
 40
0.9379713068543702
 40
1.057449928673087
 40
1.138714535893316
 40
1.218398644003506
 40
1.36093802187036
 40
1.461730374800257
 40
1.516014844108008
 40
1.593124329220501
 40
1.648806818593631
 40
1.729472362005518
 40
1.775122082164342
 40
1.874460993765092
 40
1.919820003751207
 40
1.919820003751207
 40
1.919820003751207
 40
1.919820003751207
 10
328.7763434737333
 20
292.0865914116972
 30
0.0
 10
328.6954880829747
 20
292.0817674404321
 30
0.0
 10
328.5605062689088
 20
292.0737141939353
 30
0.0
 10
328.412297058197
 20
291.983678690077
 30
0.0
 10
328.3037103137867
 20
291.9313360047346
 30
0.0
 10
328.2262663793625
 20
291.860180583315
 30
0.0
 10
328.169499661495
 20
291.7866822307937
 30
0.0
 10
328.0979345567974
 20
291.6991094826684
 30
0.0
 10
328.0395752588916
 20
291.5971345612037
 30
0.0
 10
328.0098564163584
 20
291.4847404201405
 30
0.0
 10
327.9835317477047
 20
291.3951616375814
 30
0.0
 10
327.9640089327316
 20
291.2953377746891
 30
0.0
 10
327.9689760895447
 20
291.1874928865668
 30
0.0
 10
327.9760892854291
 20
291.087332075563
 30
0.0
 10
328.0078479753532
 20
291.0158322526363
 30
0.0
 10
328.0440154977432
 20
290.9649293057069
 30
0.0
 10
328.088302133598
 20
290.9088653530083
 30
0.0
 10
328.1367613979156
 20
290.871734378678
 30
0.0
 10
328.176841165026
 20
290.8044691235373
 30
0.0
 10
328.2469994452885
 20
290.7958855918612
 30
0.0
 10
328.2915948393644
 20
290.7788018019843
 30
0.0
 10
328.3055743278258
 20
290.7734464811397
 30
0.0
 11
328.7763434737333
 21
292.0865914116972
 31
0.0
 11
328.5409589007795
 21
292.0499492296035
 31
0.0
 11
328.3983013974045
 21
291.9786795406701
 31
0.0
 11
328.2984413501186
 21
291.9216638359927
 31
0.0
 11
328.2342457812149
 21
291.8646478989688
 31
0.0
 11
328.1629172346042
 21
291.7791242257795
 31
0.0
 11
328.1129872109612
 21
291.7149815289741
 31
0.0
 11
328.041658254197
 21
291.5866959030168
 31
0.0
 11
328.0059941859682
 21
291.4726642613156
 31
0.0
 11
327.9845956630004
 21
291.3942675802541
 31
0.0
 11
327.9703297075861
 21
291.3158708991928
 31
0.0
 11
327.9703297075861
 21
291.173331521326
 31
0.0
 11
327.9845956630004
 21
291.0735538638807
 31
0.0
 11
328.0059941859682
 21
291.0236649189849
 31
0.0
 11
328.048791231904
 21
290.9595222221794
 31
0.0
 11
328.0844557102862
 21
290.9167602694116
 31
0.0
 11
328.1415183014827
 21
290.8597445647341
 31
0.0
 11
328.1700498021578
 21
290.8241096040942
 31
0.0
 11
328.26277728189
 21
290.7884748758007
 31
0.0
 11
328.3055743278258
 21
290.7734464811397
 31
0.0
  0
SPLINE
  5
ED7
102
{ACAD_REACTORS
330
EEF
102
}
330
18
100
AcDbEntity
  8
ROGO
 62
     4
100
AcDbSpline
210
0.0
220
0.0
230
1.0
 70
     8
 71
     3
 72
    16
 73
    12
 74
    10
 42
0.0000000001
 43
0.0000000001
 44
0.0000000001
 40
0.0
 40
0.0
 40
0.0
 40
0.0
 40
0.1255907025629711
 40
0.1869327038470372
 40
0.2171823804790188
 40
0.2490606136884497
 40
0.2947101524738226
 40
0.3362763310931653
 40
0.3796288870083566
 40
0.452312579561098
 40
0.5242542460842631
 40
0.5242542460842631
 40
0.5242542460842631
 40
0.5242542460842631
 10
329.0259935919479
 20
291.5980163594804
 30
0.0
 10
328.9834628843265
 20
291.5915322661764
 30
0.0
 10
328.9201589931153
 20
291.5818811608909
 30
0.0
 10
328.862913241724
 20
291.5365660539151
 30
0.0
 10
328.8306306126
 20
291.5096065815987
 30
0.0
 10
328.8196479183483
 20
291.4739045874164
 30
0.0
 10
328.7901518504877
 20
291.4464909363809
 30
0.0
 10
328.7658387006104
 20
291.4088157556647
 30
0.0
 10
328.7600332715488
 20
291.3570682847056
 30
0.0
 10
328.7642945893963
 20
291.2844485955683
 30
0.0
 10
328.8152113039654
 20
291.2694681515689
 30
0.0
 10
328.8405390426371
 20
291.2620163594803
 30
0.0
 11
329.0259935919479
 21
291.5980163594804
 31
0.0
 11
328.9047350216941
 21
291.5653149266329
 31
0.0
 11
328.8548049980513
 21
291.5296801983394
 31
0.0
 11
328.8334064750834
 21
291.5082992219554
 31
0.0
 11
328.8191405196692
 21
291.4797912534435
 31
0.0
 11
328.7906090189941
 21
291.44415652515
 31
0.0
 11
328.7692104960262
 21
291.4085215645102
 31
0.0
 11
328.7620775183191
 21
291.3657598440886
 31
0.0
 11
328.7763434737333
 21
291.2944899228089
 31
0.0
 11
328.8405390426371
 21
291.2620163594803
 31
0.0
  0
LINE
  5
ED8
102
{ACAD_REACTORS
330
EEF
102
}
330
18
100
AcDbEntity
  8
ROGO
 62
     4
100
AcDbLine
 10
329.6802200635092
 20
291.2620163594803
 30
0.0
 11
329.4366033428304
 21
290.7734464811397
 31
0.0
  0
LINE
  5
ED9
102
{ACAD_REACTORS
330
EEF
102
}
330
18
100
AcDbEntity
  8
ROGO
 62
     4
100
AcDbLine
 10
328.7763434737337
 20
292.0865914116973
 30
0.0
 11
330.0913798158396
 21
292.0865914116973
 31
0.0
  0
LINE
  5
EDA
102
{ACAD_REACTORS
330
EF0
102
}
330
18
100
AcDbEntity
  8
ROGO
 62
     4
100
AcDbLine
 10
332.5366440987536
 20
290.7734464811397
 30
0.0
 11
333.6676731137583
 21
290.7734464811397
 31
0.0
  0
LINE
  5
EDB
102
{ACAD_REACTORS
330
EF0
102
}
330
18
100
AcDbEntity
  8
ROGO
 62
     4
100
AcDbLine
 10
333.0074132446615
 20
292.0865914116972
 30
0.0
 11
334.3224495867675
 21
292.0865914116972
 31
0.0
  0
SPLINE
  5
EDC
102
{ACAD_REACTORS
330
EF0
102
}
330
18
100
AcDbEntity
  8
ROGO
 62
     4
100
AcDbSpline
210
0.0
220
0.0
230
1.0
 70
     8
 71
     3
 72
    16
 73
    12
 74
    10
 42
0.0000000001
 43
0.0000000001
 44
0.0000000001
 40
0.0
 40
0.0
 40
0.0
 40
0.0
 40
0.1255907025629163
 40
0.1869327038470616
 40
0.217182380479003
 40
0.2490606136884339
 40
0.2947101524738157
 40
0.3362763310931585
 40
0.3796288870082937
 40
0.4523125795610796
 40
0.5242542460842448
 40
0.5242542460842448
 40
0.5242542460842448
 40
0.5242542460842448
 10
333.2570633628757
 20
291.5980163594804
 30
0.0
 10
333.2145326552543
 20
291.5915322661764
 30
0.0
 10
333.1512287640429
 20
291.5818811608908
 30
0.0
 10
333.0939830126518
 20
291.5365660539151
 30
0.0
 10
333.0617003835278
 20
291.5096065815987
 30
0.0
 10
333.050717689276
 20
291.4739045874165
 30
0.0
 10
333.0212216214156
 20
291.4464909363808
 30
0.0
 10
332.9969084715383
 20
291.4088157556647
 30
0.0
 10
332.9911030424765
 20
291.3570682847055
 30
0.0
 10
332.9953643603241
 20
291.2844485955682
 30
0.0
 10
333.0462810748932
 20
291.2694681515689
 30
0.0
 10
333.0716088135649
 20
291.2620163594803
 30
0.0
 11
333.2570633628757
 21
291.5980163594804
 31
0.0
 11
333.135804792622
 21
291.5653149266329
 31
0.0
 11
333.0858747689791
 21
291.5296801983394
 31
0.0
 11
333.0644762460112
 21
291.5082992219554
 31
0.0
 11
333.050210290597
 21
291.4797912534435
 31
0.0
 11
333.021678789922
 21
291.44415652515
 31
0.0
 11
333.000280266954
 21
291.4085215645101
 31
0.0
 11
332.993147289247
 21
291.3657598440886
 31
0.0
 11
333.0074132446612
 21
291.2944899228088
 31
0.0
 11
333.0716088135649
 21
291.2620163594803
 31
0.0
  0
SPLINE
  5
EDD
102
{ACAD_REACTORS
330
EF0
102
}
330
18
100
AcDbEntity
  8
ROGO
 62
     4
100
AcDbSpline
210
0.0
220
0.0
230
1.0
 70
     8
 71
     3
 72
    26
 73
    22
 74
    20
 42
0.0000000001
 43
0.0000000001
 44
0.0000000001
 40
0.0
 40
0.0
 40
0.0
 40
0.0
 40
0.2382195346591896
 40
0.397689067266058
 40
0.5126795869787176
 40
0.5985392873135238
 40
0.7099038249250041
 40
0.7911890807494602
 40
0.9379713068544059
 40
1.057449928673177
 40
1.138714535893296
 40
1.218398644003487
 40
1.36093802187034
 40
1.461730374800238
 40
1.51601484410804
 40
1.593124329220486
 40
1.648806818593696
 40
1.729472362005543
 40
1.775122082164332
 40
1.874460993765135
 40
1.919820003751196
 40
1.919820003751196
 40
1.919820003751196
 40
1.919820003751196
 10
333.0074132446612
 20
292.0865914116972
 30
0.0
 10
332.9265578539025
 20
292.0817674404321
 30
0.0
 10
332.7915760398366
 20
292.0737141939355
 30
0.0
 10
332.6433668291248
 20
291.983678690077
 30
0.0
 10
332.5347800847146
 20
291.9313360047346
 30
0.0
 10
332.4573361502904
 20
291.860180583315
 30
0.0
 10
332.4005694324229
 20
291.7866822307937
 30
0.0
 10
332.3290043277252
 20
291.6991094826682
 30
0.0
 10
332.2706450298194
 20
291.5971345612037
 30
0.0
 10
332.2409261872862
 20
291.4847404201403
 30
0.0
 10
332.2146015186326
 20
291.3951616375816
 30
0.0
 10
332.1950787036595
 20
291.295337774689
 30
0.0
 10
332.2000458604724
 20
291.1874928865669
 30
0.0
 10
332.2071590563571
 20
291.087332075563
 30
0.0
 10
332.2389177462809
 20
291.0158322526362
 30
0.0
 10
332.2750852686711
 20
290.964929305707
 30
0.0
 10
332.3193719045258
 20
290.9088653530082
 30
0.0
 10
332.3678311688434
 20
290.871734378678
 30
0.0
 10
332.407910935954
 20
290.8044691235374
 30
0.0
 10
332.4780692162165
 20
290.7958855918613
 30
0.0
 10
332.5226646102922
 20
290.7788018019842
 30
0.0
 10
332.5366440987536
 20
290.7734464811397
 30
0.0
 11
333.0074132446612
 21
292.0865914116972
 31
0.0
 11
332.7720286717073
 21
292.0499492296035
 31
0.0
 11
332.6293711683323
 21
291.9786795406701
 31
0.0
 11
332.5295111210465
 21
291.9216638359927
 31
0.0
 11
332.4653155521428
 21
291.8646478989688
 31
0.0
 11
332.393987005532
 21
291.7791242257794
 31
0.0
 11
332.344056981889
 21
291.7149815289741
 31
0.0
 11
332.2727280251248
 21
291.5866959030168
 31
0.0
 11
332.2370639568961
 21
291.4726642613155
 31
0.0
 11
332.2156654339282
 21
291.3942675802541
 31
0.0
 11
332.201399478514
 21
291.3158708991928
 31
0.0
 11
332.201399478514
 21
291.173331521326
 31
0.0
 11
332.2156654339282
 21
291.0735538638807
 31
0.0
 11
332.2370639568961
 21
291.0236649189848
 31
0.0
 11
332.2798610028319
 21
290.9595222221794
 31
0.0
 11
332.3155254812141
 21
290.9167602694115
 31
0.0
 11
332.3725880724106
 21
290.8597445647341
 31
0.0
 11
332.4011195730857
 21
290.8241096040942
 31
0.0
 11
332.4938470528179
 21
290.7884748758007
 31
0.0
 11
332.5366440987536
 21
290.7734464811397
 31
0.0
  0
LINE
  5
EDE
102
{ACAD_REACTORS
330
EF0
102
}
330
18
100
AcDbEntity
  8
ROGO
 62
     4
100
AcDbLine
 10
333.9112898344371
 20
291.2620163594803
 30
0.0
 11
333.6676731137582
 21
290.7734464811397
 31
0.0
  0
LINE
  5
EDF
102
{ACAD_REACTORS
330
EF0
102
}
330
18
100
AcDbEntity
  8
ROGO
 62
     4
100
AcDbLine
 10
333.0716088135649
 20
291.2620163594803
 30
0.0
 11
333.9112898344371
 21
291.2620163594803
 31
0.0
  0
LINE
  5
EE0
102
{ACAD_REACTORS
330
EF0
102
}
330
18
100
AcDbEntity
  8
ROGO
 62
     4
100
AcDbLine
 10
333.2570633628757
 20
291.5980163594804
 30
0.0
 11
334.0788302862269
 21
291.5980163594804
 31
0.0
  0
LINE
  5
EE1
102
{ACAD_REACTORS
330
EF0
102
}
330
18
100
AcDbEntity
  8
ROGO
 62
     4
100
AcDbLine
 10
334.3224495867675
 20
292.0865914116972
 30
0.0
 11
334.0788302862269
 21
291.5980163594804
 31
0.0
  0
LINE
  5
EE2
102
{ACAD_REACTORS
330
EF2
102
}
330
18
100
AcDbEntity
  8
ROGO
 62
     4
100
AcDbLine
 10
334.5974767158896
 20
292.0865914116972
 30
0.0
 11
335.3535604583938
 21
292.0865914116972
 31
0.0
  0
LINE
  5
EE3
102
{ACAD_REACTORS
330
EF2
102
}
330
18
100
AcDbEntity
  8
ROGO
 62
     4
100
AcDbLine
 10
334.5974767158896
 20
292.0865914116972
 30
0.0
 11
333.5743436842197
 21
290.0347126267913
 31
0.0
  0
LINE
  5
EE4
102
{ACAD_REACTORS
330
EF2
102
}
330
18
100
AcDbEntity
  8
ROGO
 62
     4
100
AcDbLine
 10
335.3535604583938
 20
292.0865914116972
 30
0.0
 11
335.2418551514728
 21
291.8625680028756
 31
0.0
  0
LINE
  5
EE5
102
{ACAD_REACTORS
330
EF2
102
}
330
18
100
AcDbEntity
  8
ROGO
 62
     4
100
AcDbLine
 10
335.2418551514728
 20
291.8625680028756
 30
0.0
 11
335.5958682345516
 21
292.0865914116972
 31
0.0
  0
LINE
  5
EE6
102
{ACAD_REACTORS
330
EF2
102
}
330
18
100
AcDbEntity
  8
ROGO
 62
     4
100
AcDbLine
 10
334.5974767158896
 20
290.5702761889108
 30
0.0
 11
334.8645260050553
 21
290.0347126267913
 31
0.0
  0
LINE
  5
EE7
102
{ACAD_REACTORS
330
EF2
102
}
330
18
100
AcDbEntity
  8
ROGO
 62
     4
100
AcDbLine
 10
335.1090266892204
 20
291.0606520192443
 30
0.0
 11
335.6205932050553
 21
290.0347126267913
 31
0.0
  0
LINE
  5
EE8
102
{ACAD_REACTORS
330
EF2
102
}
330
18
100
AcDbEntity
  8
ROGO
 62
     4
100
AcDbLine
 10
334.5974767158896
 20
290.5702761889108
 30
0.0
 11
334.330427426724
 21
290.0347126267913
 31
0.0
  0
LINE
  5
EE9
102
{ACAD_REACTORS
330
EF2
102
}
330
18
100
AcDbEntity
  8
ROGO
 62
     4
100
AcDbLine
 10
335.1090266892204
 20
291.0606520192443
 30
0.0
 11
336.3519354345517
 21
292.0865914116972
 31
0.0
  0
LINE
  5
EEA
102
{ACAD_REACTORS
330
EF2
102
}
330
18
100
AcDbEntity
  8
ROGO
 62
     4
100
AcDbLine
 10
335.5958682345516
 20
292.0865914116972
 30
0.0
 11
336.3519354345517
 21
292.0865914116972
 31
0.0
  0
LINE
  5
EEB
102
{ACAD_REACTORS
330
EF2
102
}
330
18
100
AcDbEntity
  8
ROGO
 62
     4
100
AcDbLine
 10
334.8645260050553
 20
290.0347126267913
 30
0.0
 11
335.6205932050553
 21
290.0347126267913
 31
0.0
  0
LINE
  5
EEC
102
{ACAD_REACTORS
330
EEE
102
}
330
18
100
AcDbEntity
  8
ROGO
 62
     4
100
AcDbLine
 10
324.0216230059836
 20
292.0865914116972
 30
0.0
 11
325.7977061544675
 21
292.0865914116973
 31
0.0
  0
LINE
  5
EED
330
18
100
AcDbEntity
  8
ROGO
 62
     4
100
AcDbLine
 10
321.473838704142
 20
290.2403828330825
 30
0.0
 11
333.6768974916059
 21
290.2403828330825
 31
0.0
  0
HATCH
  5
EEE
330
18
100
AcDbEntity
  8
ROGO
 62
     4
100
AcDbHatch
 10
0.0
 20
0.0
 30
0.0
210
0.0
220
0.0
230
1.0
  2
SOLID
 70
     1
 71
     1
 91
        1
 92
        1
 93
       12
 72
     1
 10
324.0216230059836
 20
292.0865914116972
 11
325.7977061544675
 21
292.0865914116973
 72
     1
 10
325.7977061544675
 20
292.0865914116972
 11
325.648871958733
 21
291.7857890810051
 72
     1
 10
325.648871958733
 20
291.7857890810051
 11
324.715407536515
 21
291.7857890810051
 72
     1
 10
324.715407536515
 20
291.7857890810051
 11
324.5990376904385
 21
291.550599037821
 72
     1
 10
324.5990376904385
 20
291.550599037821
 11
325.5325021126564
 21
291.550599037821
 72
     1
 10
325.5325021126564
 20
291.550599037821
 11
325.4131757370326
 21
291.3094336811397
 72
     1
 10
325.4131757370326
 20
291.3094336811397
 11
324.4797113148147
 21
291.3094336811397
 72
     1
 10
324.4797113148147
 20
291.3094336811397
 11
324.3633365421983
 21
291.0742336811398
 72
     1
 10
324.3633365421983
 20
291.0742336811398
 11
325.2968009644163
 21
291.0742336811398
 72
     1
 10
325.2968009644163
 20
291.0742336811398
 11
325.1479742552074
 21
290.7734464811397
 72
     1
 10
325.1479742552074
 20
290.7734464811397
 11
323.3718911067235
 21
290.7734464811397
 72
     1
 10
323.3718911067235
 20
290.7734464811397
 11
324.0216230059836
 21
292.0865914116972
 97
       12
330
EEC
330
EC0
330
EC3
330
EC2
330
EC4
330
EC7
330
EC6
330
EC9
330
EC5
330
EC8
330
EC1
330
EBF
 75
     0
 76
     1
 98
        1
 10
251.3714940272747
 20
201.2884953635859
450
        0
451
        0
460
0.0
461
0.0
452
        0
462
0.0
453
        0
470

  0
HATCH
  5
EEF
330
18
100
AcDbEntity
  8
ROGO
 62
     4
100
AcDbHatch
 10
0.0
 20
0.0
 30
0.0
210
0.0
220
0.0
230
1.0
  2
SOLID
 70
     1
 71
     1
 91
        1
 92
        5
 93
        8
 72
     1
 10
329.847760515299
 20
291.5980163594804
 11
330.0913798158396
 21
292.0865914116973
 72
     1
 10
330.0913798158396
 20
292.0865914116973
 11
328.7763434737335
 21
292.0865914116973
 72
     4
 94
        3
 73
     0
 74
     0
 95
       26
 96
       22
 40
0.0
 40
0.0
 40
0.0
 40
0.0
 40
0.2382195346591896
 40
0.397689067266058
 40
0.5126795869787669
 40
0.5985392873135731
 40
0.7099038249249733
 40
0.7911890807494741
 40
0.9379713068543702
 40
1.057449928673087
 40
1.138714535893316
 40
1.218398644003506
 40
1.36093802187036
 40
1.461730374800257
 40
1.516014844108008
 40
1.593124329220501
 40
1.648806818593631
 40
1.729472362005518
 40
1.775122082164342
 40
1.874460993765092
 40
1.919820003751207
 40
1.919820003751207
 40
1.919820003751207
 40
1.919820003751207
 10
328.7763434737333
 20
292.0865914116972
 10
328.6954880829747
 20
292.0817674404321
 10
328.5605062689088
 20
292.0737141939353
 10
328.412297058197
 20
291.983678690077
 10
328.3037103137867
 20
291.9313360047346
 10
328.2262663793625
 20
291.860180583315
 10
328.169499661495
 20
291.7866822307937
 10
328.0979345567974
 20
291.6991094826684
 10
328.0395752588916
 20
291.5971345612037
 10
328.0098564163584
 20
291.4847404201405
 10
327.9835317477047
 20
291.3951616375814
 10
327.9640089327316
 20
291.2953377746891
 10
327.9689760895447
 20
291.1874928865668
 10
327.9760892854291
 20
291.087332075563
 10
328.0078479753532
 20
291.0158322526363
 10
328.0440154977432
 20
290.9649293057069
 10
328.088302133598
 20
290.9088653530083
 10
328.1367613979156
 20
290.871734378678
 10
328.176841165026
 20
290.8044691235373
 10
328.2469994452885
 20
290.7958855918612
 10
328.2915948393644
 20
290.7788018019843
 10
328.3055743278258
 20
290.7734464811397
 72
     1
 10
328.3055743278257
 20
290.7734464811397
 11
329.4366033428304
 21
290.7734464811397
 72
     1
 10
329.4366033428304
 20
290.7734464811397
 11
329.6802200635092
 21
291.2620163594804
 72
     1
 10
329.6802200635092
 20
291.2620163594804
 11
328.840539042637
 21
291.2620163594803
 72
     4
 94
        3
 73
     0
 74
     0
 95
       16
 96
       12
 40
0.0
 40
0.0
 40
0.0
 40
0.0
 40
0.0719416665231651
 40
0.1446253590759065
 40
0.1879779149910977
 40
0.2295440936104405
 40
0.2751936323958134
 40
0.3070718656052443
 40
0.3373215422372259
 40
0.3986635435212919
 40
0.5242542460842631
 40
0.5242542460842631
 40
0.5242542460842631
 40
0.5242542460842631
 10
328.8405390426371
 20
291.2620163594803
 10
328.8152113039654
 20
291.2694681515689
 10
328.7642945893963
 20
291.2844485955683
 10
328.7600332715488
 20
291.3570682847056
 10
328.7658387006104
 20
291.4088157556647
 10
328.7901518504877
 20
291.4464909363809
 10
328.8196479183483
 20
291.4739045874164
 10
328.8306306126
 20
291.5096065815987
 10
328.862913241724
 20
291.5365660539151
 10
328.9201589931153
 20
291.5818811608909
 10
328.9834628843265
 20
291.5915322661764
 10
329.0259935919479
 20
291.5980163594804
 72
     1
 10
329.0259935919479
 20
291.5980163594804
 11
329.847760515299
 21
291.5980163594804
 97
        8
330
ED9
330
ED6
330
ED2
330
ED8
330
ED5
330
ED7
330
ED4
330
ED3
 75
     0
 76
     1
 47
0.0514683685270805
 98
        1
 10
329.2362603709403
 20
291.7942699553503
450
        0
451
        0
460
0.0
461
0.0
452
        0
462
0.0
453
        0
470

  0
HATCH
  5
EF0
330
18
100
AcDbEntity
  8
ROGO
 62
     4
100
AcDbHatch
 10
0.0
 20
0.0
 30
0.0
210
0.0
220
0.0
230
1.0
  2
SOLID
 70
     1
 71
     1
 91
        1
 92
        5
 93
        8
 72
     4
 94
        3
 73
     0
 74
     0
 95
       26
 96
       22
 40
0.0
 40
0.0
 40
0.0
 40
0.0
 40
0.2382195346591896
 40
0.397689067266058
 40
0.5126795869787176
 40
0.5985392873135238
 40
0.7099038249250041
 40
0.7911890807494602
 40
0.9379713068544059
 40
1.057449928673177
 40
1.138714535893296
 40
1.218398644003487
 40
1.36093802187034
 40
1.461730374800238
 40
1.51601484410804
 40
1.593124329220486
 40
1.648806818593696
 40
1.729472362005543
 40
1.775122082164332
 40
1.874460993765135
 40
1.919820003751196
 40
1.919820003751196
 40
1.919820003751196
 40
1.919820003751196
 10
333.0074132446612
 20
292.0865914116972
 10
332.9265578539025
 20
292.0817674404321
 10
332.7915760398366
 20
292.0737141939355
 10
332.6433668291248
 20
291.983678690077
 10
332.5347800847146
 20
291.9313360047346
 10
332.4573361502904
 20
291.860180583315
 10
332.4005694324229
 20
291.7866822307937
 10
332.3290043277252
 20
291.6991094826682
 10
332.2706450298194
 20
291.5971345612037
 10
332.2409261872862
 20
291.4847404201403
 10
332.2146015186326
 20
291.3951616375816
 10
332.1950787036595
 20
291.295337774689
 10
332.2000458604724
 20
291.1874928865669
 10
332.2071590563571
 20
291.087332075563
 10
332.2389177462809
 20
291.0158322526362
 10
332.2750852686711
 20
290.964929305707
 10
332.3193719045258
 20
290.9088653530082
 10
332.3678311688434
 20
290.871734378678
 10
332.407910935954
 20
290.8044691235374
 10
332.4780692162165
 20
290.7958855918613
 10
332.5226646102922
 20
290.7788018019842
 10
332.5366440987536
 20
290.7734464811397
 72
     1
 10
332.5366440987535
 20
290.7734464811397
 11
333.6676731137583
 21
290.7734464811398
 72
     1
 10
333.6676731137583
 20
290.7734464811398
 11
333.9112898344371
 21
291.2620163594803
 72
     1
 10
333.9112898344371
 20
291.2620163594803
 11
333.0716088135649
 21
291.2620163594803
 72
     4
 94
        3
 73
     0
 74
     0
 95
       16
 96
       12
 40
0.0
 40
0.0
 40
0.0
 40
0.0
 40
0.0719416665231652
 40
0.1446253590759511
 40
0.1879779149910863
 40
0.229544093610429
 40
0.2751936323958108
 40
0.3070718656052417
 40
0.3373215422371831
 40
0.3986635435213285
 40
0.5242542460842448
 40
0.5242542460842448
 40
0.5242542460842448
 40
0.5242542460842448
 10
333.0716088135649
 20
291.2620163594803
 10
333.0462810748932
 20
291.2694681515689
 10
332.9953643603241
 20
291.2844485955682
 10
332.9911030424765
 20
291.3570682847055
 10
332.9969084715383
 20
291.4088157556647
 10
333.0212216214156
 20
291.4464909363808
 10
333.050717689276
 20
291.4739045874165
 10
333.0617003835278
 20
291.5096065815987
 10
333.0939830126518
 20
291.5365660539151
 10
333.1512287640429
 20
291.5818811608908
 10
333.2145326552543
 20
291.5915322661764
 10
333.2570633628757
 20
291.5980163594804
 72
     1
 10
333.2570633628758
 20
291.5980163594804
 11
334.0788302862269
 21
291.5980163594804
 72
     1
 10
334.0788302862269
 20
291.5980163594804
 11
334.3224495867675
 21
292.0865914116972
 72
     1
 10
334.3224495867675
 20
292.0865914116972
 11
333.0074132446612
 21
292.0865914116972
 97
        8
330
EDB
330
EDD
330
EDA
330
EDE
330
EDF
330
EDC
330
EE0
330
EE1
 75
     0
 76
     1
 47
0.0514683685270805
 98
        1
 10
333.2343306743461
 20
291.8461501085181
450
        0
451
        0
460
0.0
461
0.0
452
        0
462
0.0
453
        0
470

  0
HATCH
  5
EF1
330
18
100
AcDbEntity
  8
ROGO
 62
     4
100
AcDbHatch
 10
0.0
 20
0.0
 30
0.0
210
0.0
220
0.0
230
1.0
  2
SOLID
 70
     1
 71
     0
 91
        1
 92
        7
 72
     0
 73
     1
 93
        4
 10
321.4881021510587
 20
290.2403828330825
 10
321.3950511156367
 20
290.0347126267913
 10
333.5743436842197
 20
290.0347126267912
 10
333.6768974916059
 20
290.2403828330825
 97
        0
 75
     0
 76
     1
 47
0.0514683685270805
 98
        1
 10
329.184337411947
 20
290.1859863688777
450
        0
451
        0
460
0.0
461
0.0
452
        0
462
0.0
453
        0
470

  0
HATCH
  5
EF2
330
18
100
AcDbEntity
  8
ROGO
 62
     4
100
AcDbHatch
 10
0.0
 20
0.0
 30
0.0
210
0.0
220
0.0
230
1.0
  2
SOLID
 70
     1
 71
     1
 91
        1
 92
        7
 72
     0
 73
     1
 93
       11
 10
333.5743436842197
 20
290.0347126267913
 10
334.330427426724
 20
290.0347126267913
 10
334.5974767158897
 20
290.5702761889108
 10
334.8645260050554
 20
290.0347126267913
 10
335.6205932050552
 20
290.0347126267913
 10
335.1090266892204
 20
291.0606520192443
 10
336.3519354345517
 20
292.0865914116972
 10
335.5958682345516
 20
292.0865914116972
 10
335.2418551514728
 20
291.8625680028755
 10
335.3535604583939
 20
292.0865914116972
 10
334.5974767158897
 20
292.0865914116972
 97
       11
330
EEA
330
EE5
330
EE4
330
EE2
330
EE3
330
EB6
330
EE8
330
EE6
330
EEB
330
EE7
330
EE9
 75
     0
 76
     1
 47
0.0514683685270805
 98
        1
 10
334.5324054694858
 20
291.2062954282557
450
        0
451
        0
460
0.0
461
0.0
452
        0
462
0.0
453
        0
470

  0
HATCH
  5
EF3
330
18
100
AcDbEntity
  8
ROGO
 62
     4
100
AcDbHatch
 10
0.0
 20
0.0
 30
0.0
210
0.0
220
0.0
230
1.0
  2
SOLID
 70
     1
 71
     1
 91
        2
 92
        5
 93
        6
 72
     1
 10
320.4412501597002
 20
290.0347126267913
 11
321.3950511156367
 21
290.0347126267913
 72
     1
 10
321.3950511156367
 20
290.0347126267913
 11
321.7292752664651
 21
290.7734464811397
 72
     1
 10
321.7292752664651
 20
290.7734464811397
 11
322.6208835346373
 21
290.7734464811397
 72
     4
 94
        3
 73
     0
 74
     0
 95
       18
 96
       14
 40
0.108740278791501
 40
0.108740278791501
 40
0.108740278791501
 40
0.108740278791501
 40
0.6623149649549278
 40
1.384304701649787
 40
2.097394834876493
 40
2.774073369849618
 40
3.428974823686337
 40
4.005208313035923
 40
4.455173659284313
 40
4.720999734343524
 40
5.086034088486724
 40
5.569973738255373
 40
6.060470601257719
 40
6.060470601257719
 40
6.060470601257719
 40
6.060470601257719
 10
322.6208835346373
 20
290.7734464811397
 10
322.683633451532
 20
290.7739137607709
 10
322.8282238085856
 20
290.7749904813794
 10
323.0305045866928
 20
290.8830533178748
 10
323.2223245597858
 20
291.0207174982166
 10
323.3768224988673
 20
291.1927145290184
 10
323.4730793697433
 20
291.3893636665391
 10
323.4879892547904
 20
291.5778338021108
 10
323.4788871362795
 20
291.7269113362673
 10
323.4138479277365
 20
291.8308220785701
 10
323.3462317338117
 20
291.9362808557429
 10
323.2222464982645
 20
292.0276331655342
 10
323.1206585504141
 20
292.0676590568496
 10
323.068999012778
 20
292.0865914116973
 72
     1
 10
323.068999012778
 20
292.0865914116972
 11
321.4565006997929
 21
292.0865914116972
 72
     1
 10
321.4565006997929
 20
292.0865914116972
 11
320.4412501597002
 21
290.0347126267913
 97
        6
330
EB8
330
EB5
330
EB7
330
EB6
330
EBE
330
EB9
 92
       20
 93
        4
 72
     1
 10
321.9356397587754
 20
291.2295728155985
 11
322.0936375551328
 21
291.5787945004839
 72
     1
 10
322.0936375551328
 20
291.5787945004839
 11
322.4996245542302
 21
291.5787945004839
 72
     4
 94
        3
 73
     0
 74
     0
 95
       15
 96
       11
 40
0.0
 40
0.0
 40
0.0
 40
0.0
 40
0.1539705029175028
 40
0.2241725832587281
 40
0.3038566179396687
 40
0.3581410872474193
 40
0.443992538467216
 40
0.4954152125469665
 40
0.5836396705646186
 40
0.6130478420065743
 40
0.6130478420065743
 40
0.6130478420065743
 40
0.6130478420065743
 10
322.4996245542302
 20
291.5787945004839
 10
322.5574528892894
 20
291.5790593851263
 10
322.6416477643475
 20
291.5794450425959
 10
322.687688520712
 20
291.4752957386665
 10
322.6670508584785
 20
291.4082398340291
 10
322.6411076350544
 20
291.3393943197812
 10
322.595260083512
 20
291.292612754512
 10
322.533725953917
 20
291.2475542208749
 10
322.4755732608612
 20
291.2420996836154
 10
322.4377514618886
 20
291.2320781901613
 10
322.4282960076193
 20
291.2295728155985
 72
     1
 10
322.4282960076193
 20
291.2295728155985
 11
321.9356397587754
 21
291.2295728155985
 97
        4
330
EBA
330
EBC
330
EBB
330
EBD
 75
     0
 76
     1
 47
0.0514683685270805
 98
        2
 10
321.4651192530998
 20
291.4484026548083
 10
321.4651192530998
 20
291.4484026548083
450
        0
451
        0
460
0.0
461
0.0
452
        0
462
0.0
453
        0
470

  0
LINE
  5
EF4
102
{ACAD_REACTORS
330
EF7
102
}
330
18
100
AcDbEntity
  8
ROGO
 62
     4
100
AcDbLine
 10
327.3626039024366
 20
292.0865914116972
 30
0.0
 11
327.9459549128199
 21
290.7734464811397
 31
0.0
  0
LINE
  5
EF5
102
{ACAD_REACTORS
330
EF7
102
}
330
18
100
AcDbEntity
  8
ROGO
 62
     4
100
AcDbLine
 10
326.786328276297
 20
291.7355824347455
 30
0.0
 11
326.9855356620224
 21
291.2871591629265
 31
0.0
  0
LINE
  5
EF6
102
{ACAD_REACTORS
330
EF7
102
}
330
18
100
AcDbEntity
  8
ROGO
 62
     4
100
AcDbLine
 10
327.1026807676229
 20
291.0234611512306
 30
0.0
 11
327.2137471906918
 21
290.7734464811397
 31
0.0
  0
HATCH
  5
EF7
330
18
100
AcDbEntity
  8
ROGO
 62
     4
100
AcDbHatch
 10
0.0
 20
0.0
 30
0.0
210
0.0
220
0.0
230
1.0
  2
SOLID
 70
     1
 71
     1
 91
        2
 92
        7
 72
     0
 73
     1
 93
        8
 10
327.3626039024366
 20
292.0865914116973
 10
326.3122004196652
 20
292.0865914116971
 10
325.3652660895661
 20
290.7734464811397
 10
326.0925133412578
 20
290.7734464811397
 10
326.2728037788386
 20
291.0234611512306
 10
327.1026807676229
 20
291.0234611512306
 10
327.2137471906918
 20
290.7734464811398
 10
327.9459549128199
 20
290.7734464811398
 97
        8
330
ED0
330
ECA
330
ECF
330
ECE
330
ECC
330
EF6
330
ED1
330
EF4
 92
       22
 72
     0
 73
     1
 93
        3
 10
326.9855356620225
 20
291.2871591629266
 10
326.4629615399836
 20
291.2871591629265
 10
326.7863282762969
 20
291.7355824347455
 97
        3
330
ECD
330
ECB
330
EF5
 75
     0
 76
     1
 47
0.0128389261915577
 98
        2
 10
327.2803490099409
 20
291.7715494948882
 10
327.2803490099409
 20
291.7715494948882
450
        0
451
        0
460
0.0
461
0.0
452
        0
462
0.0
453
        0
470

  0
SPLINE
  5
EF8
102
{ACAD_REACTORS
330
EFF
102
}
330
18
100
AcDbEntity
  8
ROGO
 62
     4
100
AcDbSpline
210
0.0
220
0.0
230
1.0
 70
     8
 71
     3
 72
    38
 73
    34
 74
    32
 42
0.0000000001
 43
0.0000000001
 44
0.0000000001
 40
0.0
 40
0.0
 40
0.0
 40
0.0
 40
0.1807680148264315
 40
0.2375392910068956
 40
0.3104865209606157
 40
0.3712759982447458
 40
0.422566754387306
 40
0.490692583720658
 40
0.5255021974951946
 40
0.5647069597052371
 40
0.622487401681883
 40
0.6879401044674746
 40
0.7303986317551266
 40
0.7765228362185534
 40
0.8277951442290254
 40
0.9056034697002209
 40
0.9795294930264187
 40
1.013897332332996
 40
1.053089255536027
 40
1.099518741889647
 40
1.132570569820733
 40
1.160277520290299
 40
1.19983678629386
 40
1.243305643169139
 40
1.286774258016964
 40
1.324809356515675
 40
1.411916492917645
 40
1.446284332224223
 40
1.5150200516612
 40
1.575779369908399
 40
1.69209852953623
 40
1.835624328519098
 40
2.042896467983898
 40
2.042896467983898
 40
2.042896467983898
 40
2.042896467983898
 10
330.8206051358824
 20
292.0920686308696
 30
0.0
 10
330.7603497382567
 20
292.0878120117687
 30
0.0
 10
330.6811707726356
 20
292.0822185759815
 30
0.0
 10
330.580632000126
 20
292.0546739497766
 30
0.0
 10
330.5258272456849
 20
292.0218594303187
 30
0.0
 10
330.4687919443679
 20
291.9977391856181
 30
0.0
 10
330.4201640379827
 20
291.9620218863689
 30
0.0
 10
330.370977937287
 20
291.9436171061755
 30
0.0
 10
330.3365363239111
 20
291.9104299978029
 30
0.0
 10
330.2966729657782
 20
291.8901578796279
 30
0.0
 10
330.2649290659429
 20
291.8447829856135
 30
0.0
 10
330.2294483894112
 20
291.8023591039552
 30
0.0
 10
330.1882863410039
 20
291.7713915623776
 30
0.0
 10
330.1545040954447
 20
291.7388665834153
 30
0.0
 10
330.1235135825202
 20
291.6886707682313
 30
0.0
 10
330.1051720099492
 20
291.6219753935457
 30
0.0
 10
330.0534701955398
 20
291.5798663392606
 30
0.0
 10
330.0456855210567
 20
291.5292386915845
 30
0.0
 10
330.017087670861
 20
291.4993692313937
 30
0.0
 10
330.0046523254051
 20
291.4608120494088
 30
0.0
 10
329.9999163472813
 20
291.4254868600879
 30
0.0
 10
329.9942320442389
 20
291.3924955786598
 30
0.0
 10
329.9793629840063
 20
291.3577902079219
 30
0.0
 10
329.9842162965678
 20
291.314919928987
 30
0.0
 10
329.9828337335255
 20
291.2734072149604
 30
0.0
 10
329.9836473734989
 20
291.217363758349
 30
0.0
 10
329.9807108341529
 20
291.1627985614295
 30
0.0
 10
330.0041285846678
 20
291.1034186852611
 30
0.0
 10
330.0179864322708
 20
291.0504897405946
 30
0.0
 10
330.0559384022143
 20
290.977203198343
 30
0.0
 10
330.1214047550323
 20
290.8926463746341
 30
0.0
 10
330.2458945010497
 20
290.7900104113413
 30
0.0
 10
330.365595031609
 20
290.779598470624
 30
0.0
 10
330.4363211743392
 20
290.7734464811397
 30
0.0
 11
330.8206051358824
 21
292.0920686308696
 31
0.0
 11
330.6411484989351
 21
292.0703340814181
 31
0.0
 11
330.5867677128069
 21
292.0540335323709
 31
0.0
 11
330.5215110257989
 21
292.0214319502212
 31
0.0
 11
330.4671302396708
 21
291.9942641264482
 31
0.0
 11
330.4236257816655
 21
291.9670960606477
 31
0.0
 11
330.3638070450974
 21
291.9344947205256
 31
0.0
 11
330.3366164384117
 21
291.9127604131016
 31
0.0
 11
330.3039878812863
 21
291.8910258636502
 31
0.0
 11
330.2659213737209
 21
291.8475572488024
 31
0.0
 11
330.2224169157156
 21
291.7986551176054
 31
0.0
 11
330.18978835859
 21
291.771487051805
 31
0.0
 11
330.1571602287075
 21
291.7388857116828
 31
0.0
 11
330.1299696220219
 21
291.695417096835
 31
0.0
 11
330.0973414921395
 21
291.6247804161867
 31
0.0
 11
330.0538366068911
 21
291.5650110102641
 31
0.0
 11
330.0429607060114
 21
291.5324094281145
 31
0.0
 11
330.0212084770087
 21
291.4998080879922
 31
0.0
 11
330.0048941984459
 21
291.456339231117
 31
0.0
 11
329.9994558207629
 21
291.4237378909948
 31
0.0
 11
329.994017870323
 21
291.3965698251944
 31
0.0
 11
329.9831419694432
 21
291.3585349687231
 31
0.0
 11
329.9831419694432
 21
291.3150661118478
 31
0.0
 11
329.9831419694432
 21
291.271597497
 31
0.0
 11
329.9831419694432
 21
291.2335623985013
 31
0.0
 11
329.9885799198832
 21
291.1466251688056
 31
0.0
 11
329.9994558207629
 21
291.114023586656
 31
0.0
 11
330.0212084770087
 21
291.0488206643842
 31
0.0
 11
330.0483986564513
 21
290.9944847748107
 31
0.0
 11
330.1190937211421
 21
290.9021140287659
 31
0.0
 11
330.2332932438384
 21
290.8151765570428
 31
0.0
 11
330.4363211743392
 21
290.7734464811397
 31
0.0
  0
SPLINE
  5
EF9
102
{ACAD_REACTORS
330
EFF
102
}
330
18
100
AcDbEntity
  8
ROGO
 62
     4
100
AcDbSpline
210
0.0
220
0.0
230
1.0
 70
     8
 71
     3
 72
    25
 73
    21
 74
     0
 42
0.0000000001
 43
0.0000000001
 40
0.0
 40
0.0
 40
0.0
 40
0.0
 40
0.4087168505087288
 40
0.6887487002771746
 40
0.9415836120477687
 40
1.17452070575514
 40
1.41154617586699
 40
1.599156012919487
 40
1.80099909059943
 40
2.178735911501585
 40
2.521686161369157
 40
2.762704659361267
 40
3.06256558063785
 40
3.222432137207705
 40
3.399493810628493
 40
3.567459719866414
 40
3.743172740007509
 40
3.995988754699505
 40
4.17170091132118
 40
4.337226830236035
 40
4.337226830236035
 40
4.337226830236035
 40
4.337226830236035
 10
331.5710589590677
 20
292.0920686308696
 30
0.0
 10
331.6202790094933
 20
292.0904872414134
 30
0.0
 10
331.7032221172118
 20
292.0878223649074
 30
0.0
 10
331.7922717758329
 20
292.0182196755319
 30
0.0
 10
331.8604099965923
 20
291.9605137132169
 30
0.0
 10
331.9087753514529
 20
291.8907499068828
 30
0.0
 10
331.9511689400953
 20
291.8266058032056
 30
0.0
 10
331.9791031008645
 20
291.7588843885395
 30
0.0
 10
332.0170990785393
 20
291.6776248930026
 30
0.0
 10
332.0328275361865
 20
291.5689117605716
 30
0.0
 10
332.0222010928499
 20
291.4565467075261
 30
0.0
 10
331.9944710373524
 20
291.3569454238226
 30
0.0
 10
331.9653844386523
 20
291.2805336586785
 30
0.0
 10
331.931102419735
 20
291.2140124766878
 30
0.0
 10
331.8902338724309
 20
291.1709400061888
 30
0.0
 10
331.8618809168919
 20
291.1161737798413
 30
0.0
 10
331.8074185161747
 20
291.0713779469678
 30
0.0
 10
331.763268356368
 20
291.0161061765139
 30
0.0
 10
331.7131671197283
 20
290.9686658281752
 30
0.0
 10
331.6849198204244
 20
290.9393957049535
 30
0.0
 10
331.6700271630307
 20
290.9270889610079
 30
0.0
  0
LINE
  5
EFA
102
{ACAD_REACTORS
330
EFF
102
}
330
18
100
AcDbEntity
  8
ROGO
 62
     4
100
AcDbLine
 10
330.8206051358824
 20
292.0920686308696
 30
0.0
 11
331.5710589590677
 21
292.0920686308696
 31
0.0
  0
LINE
  5
EFB
102
{ACAD_REACTORS
330
EFF
102
}
330
18
100
AcDbEntity
  8
ROGO
 62
     4
100
AcDbLine
 10
330.4363211743392
 20
290.7734464811397
 30
0.0
 11
331.1867749975246
 21
290.7734464811397
 31
0.0
  0
SPLINE
  5
EFC
102
{ACAD_REACTORS
330
EFF
102
}
330
18
100
AcDbEntity
  8
ROGO
 62
     4
100
AcDbSpline
210
0.0
220
0.0
230
1.0
 70
     8
 71
     3
 72
    11
 73
     7
 74
     0
 42
0.0000000001
 43
0.0000000001
 40
0.1647869275458134
 40
0.1647869275458134
 40
0.1647869275458134
 40
0.1647869275458134
 40
0.2895635144633836
 40
0.5387013147903714
 40
0.7953622617455423
 40
0.8850764140209602
 40
0.8850764140209602
 40
0.8850764140209602
 40
0.8850764140209602
 10
331.4367924561426
 20
290.8027229280484
 30
0.0
 10
331.4228139133418
 20
290.7988319953318
 30
0.0
 10
331.3794729019075
 20
290.7919044055479
 30
0.0
 10
331.3067741347694
 20
290.7823920111746
 30
0.0
 10
331.2376775926731
 20
290.77246548059
 30
0.0
 10
331.1972468978445
 20
290.7732446654967
 30
0.0
 10
331.1867749975246
 20
290.7734464811397
 30
0.0
  0
SPLINE
  5
EFD
102
{ACAD_REACTORS
330
EFF
102
}
330
18
100
AcDbEntity
  8
ROGO
 62
     4
100
AcDbSpline
210
0.0
220
0.0
230
1.0
 70
     8
 71
     3
 72
     9
 73
     5
 74
     3
 42
0.0000000001
 43
0.0000000001
 44
0.0000000001
 40
0.0
 40
0.0
 40
0.0
 40
0.0
 40
0.1135793343552172
 40
0.2662938392177403
 40
0.2662938392177403
 40
0.2662938392177403
 40
0.2662938392177403
 10
331.4367924561426
 20
290.8027229280484
 30
0.0
 10
331.4732774244606
 20
290.8138852677716
 30
0.0
 10
331.5588187101381
 20
290.8400560700254
 30
0.0
 10
331.6294954073748
 20
290.8953683878
 30
0.0
 10
331.6700271630307
 20
290.9270889610079
 30
0.0
 11
331.4367924561426
 21
290.8027229280484
 31
0.0
 11
331.5435432203673
 21
290.8415113223181
 31
0.0
 11
331.6700271630307
 21
290.9270889610079
 31
0.0
  0
ELLIPSE
  5
EFE
102
{ACAD_REACTORS
330
EFF
102
}
330
18
100
AcDbEntity
  8
ROGO
 62
     4
100
AcDbEllipse
 10
330.9930635305131
 20
291.4143726386505
 30
0.0
 11
0.1782847090673272
 21
0.1567790921840611
 31
0.0
210
0.0
220
0.0
230
0.9999999999999998
 40
0.6788083417438792
 41
0.0
 42
6.283185307179586
  0
HATCH
  5
EFF
330
18
100
AcDbEntity
  8
ROGO
 62
     4
100
AcDbHatch
 10
0.0
 20
0.0
 30
0.0
210
0.0
220
0.0
230
1.0
  2
SOLID
 70
     1
 71
     1
 91
        2
 92
        5
 93
        6
 72
     4
 94
        3
 73
     0
 74
     0
 95
       38
 96
       34
 40
0.0
 40
0.0
 40
0.0
 40
0.0
 40
0.1807680148264315
 40
0.2375392910068956
 40
0.3104865209606157
 40
0.3712759982447458
 40
0.422566754387306
 40
0.490692583720658
 40
0.5255021974951946
 40
0.5647069597052371
 40
0.622487401681883
 40
0.6879401044674746
 40
0.7303986317551266
 40
0.7765228362185534
 40
0.8277951442290254
 40
0.9056034697002209
 40
0.9795294930264187
 40
1.013897332332996
 40
1.053089255536027
 40
1.099518741889647
 40
1.132570569820733
 40
1.160277520290299
 40
1.19983678629386
 40
1.243305643169139
 40
1.286774258016964
 40
1.324809356515675
 40
1.411916492917645
 40
1.446284332224223
 40
1.5150200516612
 40
1.575779369908399
 40
1.69209852953623
 40
1.835624328519098
 40
2.042896467983898
 40
2.042896467983898
 40
2.042896467983898
 40
2.042896467983898
 10
330.8206051358824
 20
292.0920686308696
 10
330.7603497382567
 20
292.0878120117687
 10
330.6811707726356
 20
292.0822185759815
 10
330.580632000126
 20
292.0546739497766
 10
330.5258272456849
 20
292.0218594303187
 10
330.4687919443679
 20
291.9977391856181
 10
330.4201640379827
 20
291.9620218863689
 10
330.370977937287
 20
291.9436171061755
 10
330.3365363239111
 20
291.9104299978029
 10
330.2966729657782
 20
291.8901578796279
 10
330.2649290659429
 20
291.8447829856135
 10
330.2294483894112
 20
291.8023591039552
 10
330.1882863410039
 20
291.7713915623776
 10
330.1545040954447
 20
291.7388665834153
 10
330.1235135825202
 20
291.6886707682313
 10
330.1051720099492
 20
291.6219753935457
 10
330.0534701955398
 20
291.5798663392606
 10
330.0456855210567
 20
291.5292386915845
 10
330.017087670861
 20
291.4993692313937
 10
330.0046523254051
 20
291.4608120494088
 10
329.9999163472813
 20
291.4254868600879
 10
329.9942320442389
 20
291.3924955786598
 10
329.9793629840063
 20
291.3577902079219
 10
329.9842162965678
 20
291.314919928987
 10
329.9828337335255
 20
291.2734072149604
 10
329.9836473734989
 20
291.217363758349
 10
329.9807108341529
 20
291.1627985614295
 10
330.0041285846678
 20
291.1034186852611
 10
330.0179864322708
 20
291.0504897405946
 10
330.0559384022143
 20
290.977203198343
 10
330.1214047550323
 20
290.8926463746341
 10
330.2458945010497
 20
290.7900104113413
 10
330.365595031609
 20
290.779598470624
 10
330.4363211743392
 20
290.7734464811397
 72
     1
 10
330.4363211743393
 20
290.7734464811397
 11
331.1867749975251
 21
290.7734464811397
 72
     4
 94
        3
 73
     0
 74
     0
 95
       11
 96
        7
 40
0.1647869275458135
 40
0.1647869275458135
 40
0.1647869275458135
 40
0.1647869275458135
 40
0.2545010798212315
 40
0.5111620267764023
 40
0.7602998271033902
 40
0.8850764140209603
 40
0.8850764140209603
 40
0.8850764140209603
 40
0.8850764140209603
 10
331.1867749975246
 20
290.7734464811397
 10
331.1972468978445
 20
290.7732446654967
 10
331.2376775926731
 20
290.77246548059
 10
331.3067741347694
 20
290.7823920111746
 10
331.3794729019075
 20
290.7919044055479
 10
331.4228139133418
 20
290.7988319953318
 10
331.4367924561426
 20
290.8027229280484
 72
     4
 94
        3
 73
     0
 74
     0
 95
        9
 96
        5
 40
0.0
 40
0.0
 40
0.0
 40
0.0
 40
0.1135793343552172
 40
0.2662938392177403
 40
0.2662938392177403
 40
0.2662938392177403
 40
0.2662938392177403
 10
331.4367924561426
 20
290.8027229280484
 10
331.4732774244606
 20
290.8138852677716
 10
331.5588187101381
 20
290.8400560700254
 10
331.6294954073748
 20
290.8953683878
 10
331.6700271630307
 20
290.9270889610079
 72
     4
 94
        3
 73
     0
 74
     0
 95
       25
 96
       21
 40
0.0
 40
0.0
 40
0.0
 40
0.0
 40
0.165525918914855
 40
0.3412380755365305
 40
0.5940540902285263
 40
0.7697671103696209
 40
0.9377330196075423
 40
1.11479469302833
 40
1.274661249598185
 40
1.574522170874768
 40
1.815540668866877
 40
2.15849091873445
 40
2.536227739636605
 40
2.738070817316548
 40
2.925680654369045
 40
3.162706124480894
 40
3.395643218188267
 40
3.648478129958861
 40
3.928509979727306
 40
4.337226830236035
 40
4.337226830236035
 40
4.337226830236035
 40
4.337226830236035
 10
331.6700271630307
 20
290.9270889610079
 10
331.6849198204244
 20
290.9393957049535
 10
331.7131671197283
 20
290.9686658281752
 10
331.763268356368
 20
291.0161061765139
 10
331.8074185161747
 20
291.0713779469678
 10
331.8618809168919
 20
291.1161737798413
 10
331.8902338724309
 20
291.1709400061888
 10
331.931102419735
 20
291.2140124766878
 10
331.9653844386523
 20
291.2805336586785
 10
331.9944710373524
 20
291.3569454238226
 10
332.0222010928499
 20
291.4565467075261
 10
332.0328275361865
 20
291.5689117605716
 10
332.0170990785393
 20
291.6776248930026
 10
331.9791031008645
 20
291.7588843885395
 10
331.9511689400953
 20
291.8266058032056
 10
331.9087753514529
 20
291.8907499068828
 10
331.8604099965923
 20
291.9605137132169
 10
331.7922717758329
 20
292.0182196755319
 10
331.7032221172118
 20
292.0878223649074
 10
331.6202790094933
 20
292.0904872414134
 10
331.5710589590677
 20
292.0920686308696
 72
     1
 10
331.5710589590678
 20
292.0920686308696
 11
330.8206051358824
 21
292.0920686308696
 97
        6
330
EF9
330
EFA
330
EF8
330
EFB
330
EFC
330
EFD
 92
       20
 93
        1
 72
     3
 10
330.9930635305131
 20
291.4143726386505
 11
0.1782847090673272
 21
0.1567790921840611
 40
0.678808341743879
 50
0.0
 51
360.0
 73
     1
 97
        1
330
EFE
 75
     0
 76
     1
 47
0.088756267210375
 98
        2
 10
331.0454948062818
 20
291.7278599089745
 10
331.0454948062818
 20
291.7278599089745
450
        0
451
        0
460
0.0
461
0.0
452
        0
462
0.0
453
        0
470

  0
TEXT
  5
F31
330
18
100
AcDbEntity
  8
文字
100
AcDbText
 10
323.4644511555538
 20
336.279937995898
 30
0.0
 40
2.5
  1
φ
  7
STYLE3
100
AcDbText
  0
LINE
  5
F4B
330
18
100
AcDbEntity
  8
外形線
100
AcDbLine
 10
413.694827728782
 20
307.1216247705907
 30
0.0
 11
425.194827728782
 21
307.1216247705907
 31
0.0
  0
LINE
  5
F4C
330
18
100
AcDbEntity
  8
外形線
100
AcDbLine
 10
413.694827728782
 20
258.3216247705907
 30
0.0
 11
425.1948277287821
 21
258.3216247705907
 31
0.0
  0
POINT
  5
F84
330
18
100
AcDbEntity
  8
DEFPOINTS
  6
ByBlock
 62
     0
100
AcDbPoint
 10
425.194827728782
 20
307.1216247705907
 30
0.0
  0
TEXT
  5
F94
330
18
100
AcDbEntity
  8
文字
100
AcDbText
 10
320.8966313640253
 20
272.1255423934079
 30
0.0
 40
1.0
  1
5
  7
STYLE3
100
AcDbText
  0
LINE
  5
F9F
330
18
100
AcDbEntity
  8
外形線
  6
Continuous
100
AcDbLine
 10
426.294827728782
 20
306.0216247705908
 30
0.0
 11
426.294827728782
 21
259.4216247705908
 31
0.0
  0
POINT
  5
FB5
330
18
100
AcDbEntity
  8
DEFPOINTS
  6
ByBlock
 62
     0
100
AcDbPoint
 10
426.294827728782
 20
306.0216247705908
 30
0.0
  0
LINE
  5
101C
330
18
100
AcDbEntity
  8
中心線
100
AcDbLine
 10
328.1238768146347
 20
262.4216247705907
 30
0.0
 11
328.1238768146347
 21
214.1039800029587
 31
0.0
  0
LINE
  5
1022
330
18
100
AcDbEntity
  8
0
  6
ByBlock
 62
     2
100
AcDbLine
 10
425.194827728782
 20
307.1216247705907
 30
0.0
 11
442.9670243454235
 21
307.1216247705907
 31
0.0
  0
LINE
  5
1023
330
18
100
AcDbEntity
  8
0
  6
ByBlock
 62
     2
100
AcDbLine
 10
425.1948277287821
 20
258.3216247705907
 30
0.0
 11
442.9670243454235
 21
258.3216247705907
 31
0.0
  0
LINE
  5
1024
330
18
100
AcDbEntity
  8
0
  6
ByBlock
 62
     2
100
AcDbLine
 10
441.7170243454235
 20
304.6216247705907
 30
0.0
 11
441.7170243454235
 21
260.8216247705907
 31
0.0
  0
INSERT
  5
1025
330
18
100
AcDbEntity
  8
0
  6
ByBlock
 62
     2
100
AcDbBlockReference
  2
_OPEN
 10
441.7170243454235
 20
307.1216247705907
 30
0.0
 41
2.5
 42
2.5
 43
2.5
 50
90.0
  0
INSERT
  5
1026
330
18
100
AcDbEntity
  8
0
  6
ByBlock
 62
     2
100
AcDbBlockReference
  2
_OPEN
 10
441.7170243454235
 20
258.3216247705907
 30
0.0
 41
2.5
 42
2.5
 43
2.5
 50
270.0
  0
POINT
  5
1028
330
18
100
AcDbEntity
  8
DEFPOINTS
  6
ByBlock
 62
     0
100
AcDbPoint
 10
425.194827728782
 20
307.1216247705907
 30
0.0
  0
POINT
  5
1029
330
18
100
AcDbEntity
  8
DEFPOINTS
  6
ByBlock
 62
     0
100
AcDbPoint
 10
425.194827728782
 20
258.3216247705907
 30
0.0
  0
POINT
  5
102A
330
18
100
AcDbEntity
  8
DEFPOINTS
  6
ByBlock
 62
     0
100
AcDbPoint
 10
441.7170243454235
 20
258.3216247705907
 30
0.0
  0
TEXT
  5
102B
330
18
100
AcDbEntity
  8
ﾊｯﾁﾝｸ
100
AcDbText
 10
441.1478090331972
 20
279.2742344930122
 30
0.0
 40
2.5
  1
49
 50
90.0
  7
STYLE3
100
AcDbText
  0
TEXT
  5
104F
330
18
100
AcDbEntity
  8
文字
100
AcDbText
 10
321.8457203132508
 20
288.1183001064459
 30
0.0
 40
1.0
  1
MADE  IN  JAPAN
  7
STYLE3
100
AcDbText
  0
TEXT
  5
1050
330
18
100
AcDbEntity
  8
文字
100
AcDbText
 10
325.4707541810656
 20
286.0236179921589
 30
0.0
 40
1.0
  1
NO.57
  7
STYLE3
100
AcDbText
  0
TEXT
  5
1053
330
18
100
AcDbEntity
  8
文字
100
AcDbText
 10
328.1532024980374
 20
267.7526894297534
 30
0.0
 40
1.0
  1
S
  7
STYLE3
100
AcDbText
  0
TEXT
  5
1054
330
18
100
AcDbEntity
  8
文字
100
AcDbText
 10
329.0361703852254
 20
267.8215265536664
 30
0.0
 40
1.0
  1
H
 50
1.589821613340259
  7
STYLE3
100
AcDbText
  0
TEXT
  5
1055
330
18
100
AcDbEntity
  8
文字
100
AcDbText
 10
329.9880288472887
 20
267.934681486303
 30
0.0
 40
1.0
  1
O
 50
1.760930144340787
  7
STYLE3
100
AcDbText
  0
TEXT
  5
1056
330
18
100
AcDbEntity
  8
文字
100
AcDbText
 10
331.0102915205817
 20
268.1166735481411
 30
0.0
 40
1.0
  1
C
 50
5.687207778684769
  7
STYLE3
100
AcDbText
  0
TEXT
  5
1057
330
18
100
AcDbEntity
  8
文字
100
AcDbText
 10
332.0370838220505
 20
268.2894250523021
 30
0.0
 40
1.0
  1
K
 50
11.14538657471254
  7
STYLE3
100
AcDbText
  0
TEXT
  5
1058
330
18
100
AcDbEntity
  8
文字
100
AcDbText
 10
333.613136191375
 20
268.8354011076492
 30
0.0
 40
1.0
  1
P
 50
23.24053280085741
  7
STYLE3
100
AcDbText
  0
TEXT
  5
1059
330
18
100
AcDbEntity
  8
文字
100
AcDbText
 10
334.4991228300622
 20
269.2972651868028
 30
0.0
 40
1.0
  1
R
 50
26.06198672177309
  7
STYLE3
100
AcDbText
  0
TEXT
  5
105A
330
18
100
AcDbEntity
  8
文字
100
AcDbText
 10
335.4234247297285
 20
269.7774228880822
 30
0.0
 40
1.0
  1
O
 50
27.73777743938884
  7
STYLE3
100
AcDbText
  0
TEXT
  5
105B
330
18
100
AcDbEntity
  8
文字
100
AcDbText
 10
336.3752836366577
 20
270.3524422745079
 30
0.0
 40
1.0
  1
O
 50
27.6495577688412
  7
STYLE3
100
AcDbText
  0
TEXT
  5
105C
330
18
100
AcDbEntity
  8
文字
100
AcDbText
 10
337.3607400837104
 20
270.9029445401841
 30
0.0
 40
1.0
  1
F
 50
35.29154926473689
  7
STYLE3
100
AcDbText
  0
LINE
  5
1076
330
18
100
AcDbEntity
  8
0
  6
ByBlock
 62
     2
100
AcDbLine
 10
426.294827728782
 20
306.0216247705908
 30
0.0
 11
426.294827728782
 21
335.7404302993439
 31
0.0
  0
LINE
  5
1077
330
18
100
AcDbEntity
  8
0
  6
ByBlock
 62
     2
100
AcDbLine
 10
421.1948277287819
 20
334.4904302993439
 30
0.0
 11
423.794827728782
 21
334.4904302993439
 31
0.0
  0
INSERT
  5
1078
330
18
100
AcDbEntity
  8
0
  6
ByBlock
 62
     2
100
AcDbBlockReference
  2
_OPEN
 10
418.694827728782
 20
334.4904302993439
 30
0.0
 41
2.5
 42
2.5
 43
2.5
 50
180.0
  0
INSERT
  5
1079
330
18
100
AcDbEntity
  8
0
  6
ByBlock
 62
     2
100
AcDbBlockReference
  2
_OPEN
 10
426.294827728782
 20
334.4904302993439
 30
0.0
 41
2.5
 42
2.5
 43
2.5
  0
MTEXT
  5
107A
330
18
100
AcDbEntity
  8
0
  6
ByBlock
 62
     6
100
AcDbMText
 10
422.494827728782
 20
336.3654302993439
 30
0.0
 40
2.5
 41
0.0
 71
     5
 72
     1
  1
\A1;7.6
  7
STYLE3
 73
     1
 44
1.0
  0
POINT
  5
107B
330
18
100
AcDbEntity
  8
DEFPOINTS
  6
ByBlock
 62
     0
100
AcDbPoint
 10
418.694827728782
 20
324.2216247705907
 30
0.0
  0
POINT
  5
107C
330
18
100
AcDbEntity
  8
DEFPOINTS
  6
ByBlock
 62
     0
100
AcDbPoint
 10
426.294827728782
 20
306.0216247705908
 30
0.0
  0
POINT
  5
107D
330
18
100
AcDbEntity
  8
DEFPOINTS
  6
ByBlock
 62
     0
100
AcDbPoint
 10
426.294827728782
 20
334.4904302993439
 30
0.0
  0
LINE
  5
107E
330
18
100
AcDbEntity
  8
0
  6
ByBlock
 62
     2
100
AcDbLine
 10
404.1948277287819
 20
282.7216247705907
 30
0.0
 11
404.1948277287819
 21
335.7404302993439
 31
0.0
  0
LINE
  5
1080
330
18
100
AcDbEntity
  8
0
  6
ByBlock
 62
     2
100
AcDbLine
 10
406.694827728782
 20
334.4904302993439
 30
0.0
 11
416.194827728782
 21
334.4904302993439
 31
0.0
  0
INSERT
  5
1081
330
18
100
AcDbEntity
  8
0
  6
ByBlock
 62
     2
100
AcDbBlockReference
  2
_OPEN
 10
404.1948277287819
 20
334.4904302993439
 30
0.0
 41
2.5
 42
2.5
 43
2.5
 50
180.0
  0
INSERT
  5
1082
330
18
100
AcDbEntity
  8
0
  6
ByBlock
 62
     2
100
AcDbBlockReference
  2
_OPEN
 10
418.694827728782
 20
334.4904302993439
 30
0.0
 41
2.5
 42
2.5
 43
2.5
  0
MTEXT
  5
1083
330
18
100
AcDbEntity
  8
0
  6
ByBlock
 62
     6
100
AcDbMText
 10
411.4448277287819
 20
336.3654302993439
 30
0.0
 40
2.5
 41
0.0
 71
     5
 72
     1
  1
\A1;14.5
  7
STYLE3
 73
     1
 44
1.0
  0
POINT
  5
1084
330
18
100
AcDbEntity
  8
DEFPOINTS
  6
ByBlock
 62
     0
100
AcDbPoint
 10
404.1948277287819
 20
282.7216247705907
 30
0.0
  0
POINT
  5
1085
330
18
100
AcDbEntity
  8
DEFPOINTS
  6
ByBlock
 62
     0
100
AcDbPoint
 10
418.694827728782
 20
324.2216247705907
 30
0.0
  0
POINT
  5
1086
330
18
100
AcDbEntity
  8
DEFPOINTS
  6
ByBlock
 62
     0
100
AcDbPoint
 10
418.694827728782
 20
334.4904302993439
 30
0.0
  0
LINE
  5
10D9
330
18
100
AcDbEntity
  8
外形線
  6
Continuous
100
AcDbLine
 10
425.194827728782
 20
307.1216247705907
 30
0.0
 11
425.1948277287821
 21
258.3216247705907
 31
0.0
  0
TEXT
  5
11B0
330
18
100
AcDbEntity
  8
文字
100
AcDbText
 10
333.8284952802865
 20
250.4517097624284
 30
0.0
 40
1.0
  1
0
  7
STYLE3
100
AcDbText
  0
TEXT
  5
11B1
330
18
100
AcDbEntity
  8
文字
100
AcDbText
 10
332.6379530766691
 20
249.0399315606172
 30
0.0
 40
1.0
  1
-0.03
  7
STYLE3
100
AcDbText
  0
LINE
  5
11BA
330
18
100
AcDbEntity
  8
0
  6
ByBlock
 62
     2
100
AcDbLine
 10
418.6948277287822
 20
217.7216247705907
 30
0.0
 11
378.8520059468379
 21
217.7216247705907
 31
0.0
  0
LINE
  5
11BB
330
18
100
AcDbEntity
  8
0
  6
ByBlock
 62
     2
100
AcDbLine
 10
380.1020059468379
 20
253.8216247705908
 30
0.0
 11
380.1020059468379
 21
220.2216247705907
 31
0.0
  0
INSERT
  5
11BC
330
18
100
AcDbEntity
  8
0
  6
ByBlock
 62
     2
100
AcDbBlockReference
  2
_OPEN
 10
380.1020059468379
 20
256.3216247705907
 30
0.0
 41
2.5
 42
2.5
 43
2.5
 50
90.0
  0
INSERT
  5
11BD
330
18
100
AcDbEntity
  8
0
  6
ByBlock
 62
     2
100
AcDbBlockReference
  2
_OPEN
 10
380.1020059468379
 20
217.7216247705907
 30
0.0
 41
2.5
 42
2.5
 43
2.5
 50
270.0
  0
MTEXT
  5
11BE
330
18
100
AcDbEntity
  8
0
  6
ByBlock
 62
     6
100
AcDbMText
 10
378.2270059468379
 20
237.0216247705907
 30
0.0
 40
2.5
 41
0.0
 71
     5
 72
     1
  1
\A1;38.5
  7
STYLE3
 11
0.0000000000000001
 21
1.0
 31
0.0
 73
     1
 44
1.0
  0
POINT
  5
11BF
330
18
100
AcDbEntity
  8
DEFPOINTS
  6
ByBlock
 62
     0
100
AcDbPoint
 10
408.3948277287821
 20
256.3216247705907
 30
0.0
  0
POINT
  5
11C0
330
18
100
AcDbEntity
  8
DEFPOINTS
  6
ByBlock
 62
     0
100
AcDbPoint
 10
418.6948277287822
 20
217.7216247705907
 30
0.0
  0
POINT
  5
11C1
330
18
100
AcDbEntity
  8
DEFPOINTS
  6
ByBlock
 62
     0
100
AcDbPoint
 10
380.1020059468379
 20
217.7216247705907
 30
0.0
  0
LINE
  5
11C2
330
18
100
AcDbEntity
  8
ﾊｯﾁﾝｸ
  6
Continuous
100
AcDbLine
 10
414.694827728782
 20
316.4881185668885
 30
0.0
 11
414.9283339324841
 21
316.7216247705907
 31
0.0
  0
LINE
  5
11C3
330
18
100
AcDbEntity
  8
ﾊｯﾁﾝｸ
  6
Continuous
100
AcDbLine
 10
414.694827728782
 20
314.7203516139221
 30
0.0
 11
416.6961008854505
 21
316.7216247705907
 31
0.0
  0
LINE
  5
11C4
330
18
100
AcDbEntity
  8
ﾊｯﾁﾝｸ
  6
Continuous
100
AcDbLine
 10
414.694827728782
 20
312.9525846609557
 30
0.0
 11
418.4638678384169
 21
316.7216247705907
 31
0.0
  0
LINE
  5
11C5
330
18
100
AcDbEntity
  8
ﾊｯﾁﾝｸ
  6
Continuous
100
AcDbLine
 10
414.6948277287819
 20
311.1848177079894
 30
0.0
 11
418.6948277287819
 21
315.1848177079894
 31
0.0
  0
LINE
  5
11C6
330
18
100
AcDbEntity
  8
ﾊｯﾁﾝｸ
  6
Continuous
100
AcDbLine
 10
415.9994017443495
 20
310.7216247705907
 30
0.0
 11
418.694827728782
 21
313.417050755023
 31
0.0
  0
LINE
  5
11C7
330
18
100
AcDbEntity
  8
ﾊｯﾁﾝｸ
  6
Continuous
100
AcDbLine
 10
417.767168697316
 20
310.7216247705907
 30
0.0
 11
418.694827728782
 21
311.6492838020566
 31
0.0
  0
LINE
  5
11C8
330
18
100
AcDbEntity
  8
ﾊｯﾁﾝｸ
  6
Continuous
100
AcDbLine
 10
414.7463733751009
 20
310.7216247705907
 30
0.0
 11
414.694827728782
 21
310.7731704169097
 31
0.0
  0
LINE
  5
11C9
330
18
100
AcDbEntity
  8
ﾊｯﾁﾝｸ
  6
Continuous
100
AcDbLine
 10
416.5141403280673
 20
310.7216247705907
 30
0.0
 11
414.694827728782
 21
312.540937369876
 31
0.0
  0
LINE
  5
11CA
330
18
100
AcDbEntity
  8
ﾊｯﾁﾝｸ
  6
Continuous
100
AcDbLine
 10
418.2819072810337
 20
310.7216247705907
 30
0.0
 11
414.694827728782
 21
314.3087043228424
 31
0.0
  0
LINE
  5
11CB
330
18
100
AcDbEntity
  8
ﾊｯﾁﾝｸ
  6
Continuous
100
AcDbLine
 10
418.694827728782
 20
312.0764712758088
 30
0.0
 11
414.694827728782
 21
316.0764712758088
 31
0.0
  0
LINE
  5
11CC
330
18
100
AcDbEntity
  8
ﾊｯﾁﾝｸ
  6
Continuous
100
AcDbLine
 10
418.694827728782
 20
313.8442382287751
 30
0.0
 11
415.8174411869664
 21
316.7216247705906
 31
0.0
  0
LINE
  5
11CD
330
18
100
AcDbEntity
  8
ﾊｯﾁﾝｸ
  6
Continuous
100
AcDbLine
 10
418.694827728782
 20
315.6120051817415
 30
0.0
 11
417.5852081399328
 21
316.7216247705906
 31
0.0
  0
CIRCLE
  5
11CE
330
18
100
AcDbEntity
  8
針
100
AcDbCircle
 10
328.1238768146347
 20
282.7216247705908
 30
0.0
 40
1.9
  0
CIRCLE
  5
11CF
330
18
100
AcDbEntity
  8
針
100
AcDbCircle
 10
328.1238768146347
 20
282.7216247705908
 30
0.0
 40
1.5
  0
POINT
  5
11D0
330
18
100
AcDbEntity
  8
DEFPOINTS
  6
ByBlock
 62
     0
100
AcDbPoint
 10
328.1238768146347
 20
282.7216247705908
 30
0.0
  0
POINT
  5
11D1
330
18
100
AcDbEntity
  8
DEFPOINTS
  6
ByBlock
 62
     0
100
AcDbPoint
 10
328.1238768146347
 20
282.7216247705908
 30
0.0
  0
CIRCLE
  5
11D2
330
18
100
AcDbEntity
  8
針
100
AcDbCircle
 10
328.1238768146347
 20
282.7216247705908
 30
0.0
 40
0.475
  0
ARC
  5
11D3
330
18
100
AcDbEntity
  8
針
100
AcDbCircle
 10
323.3899925221082
 20
283.112571704292
 30
0.0
 40
3.0
100
AcDbArc
 50
6.527720822960354
 51
36.00000000000001
  0
HATCH
  5
11D4
330
18
100
AcDbEntity
  8
針
100
AcDbHatch
 10
0.0
 20
0.0
 30
0.0
210
0.0
220
0.0
230
1.0
  2
SOLID
 70
     1
 71
     0
 91
        2
 92
        7
 72
     1
 73
     1
 93
        5
 10
315.265412793694
 20
300.572899319546
 42
0.0
 10
315.1926012642003
 20
300.5199986468397
 42
0.0
 10
315.1197897347066
 20
300.4670979741334
 42
0.0
 10
318.7997904409018
 20
295.1035233849055
 42
-0.0085634322047721
 10
319.2292925998881
 20
295.4155749692791
 42
0.0
 97
        0
 92
        7
 72
     1
 73
     1
 93
        6
 10
319.2292925998881
 20
295.4155749692791
 42
0.0085634322047721
 10
318.7997904409018
 20
295.1035233849055
 42
0.0
 10
325.8170435052333
 20
284.875927461169
 42
-0.1293106770632391
 10
326.3705434304676
 20
283.4536234345001
 42
-0.2805221108582334
 10
327.9695145279171
 20
284.6153439378485
 42
-0.1293106770632486
 10
326.7878638984833
 20
285.5812697639201
 42
0.0
 97
        0
 75
     0
 76
     1
 47
0.0423559757596284
 98
        2
 10
318.6124471131817
 20
295.7439751561447
 10
321.3045333390364
 20
292.2549842676369
450
        0
451
        0
460
0.0
461
0.0
452
        0
462
0.0
453
        0
470

  0
LINE
  5
11D5
330
18
100
AcDbEntity
  8
針
100
AcDbLine
 10
315.1197897347066
 20
300.4670979741334
 30
0.0
 11
325.817043505233
 21
284.8759274611694
 31
0.0
  0
ARC
  5
11D6
330
18
100
AcDbEntity
  8
針
100
AcDbCircle
 10
329.214914881608
 20
287.3446255207979
 30
0.0
 40
3.0
100
AcDbArc
 50
216.0
 51
245.4722791770396
  0
LINE
  5
11D7
330
18
100
AcDbEntity
  8
針
100
AcDbLine
 10
315.1926012642002
 20
300.5199986468397
 30
0.0
 11
315.1197897347066
 21
300.4670979741334
 31
0.0
  0
LINE
  5
11D8
330
18
100
AcDbEntity
  8
針
100
AcDbLine
 10
315.1926012642003
 20
300.5199986468397
 30
0.0
 11
315.265412793694
 21
300.572899319546
 31
0.0
  0
LINE
  5
11D9
330
18
100
AcDbEntity
  8
針
100
AcDbLine
 10
315.265412793694
 20
300.572899319546
 30
0.0
 11
326.7878638984831
 21
285.5812697639204
 31
0.0
  0
LINE
  5
11DA
330
18
100
AcDbEntity
  8
0
  6
ByBlock
 62
     2
100
AcDbLine
 10
305.1238768146347
 20
282.7216247705907
 30
0.0
 11
305.1238768146347
 21
335.5720194314608
 31
0.0
  0
LINE
  5
11DB
330
18
100
AcDbEntity
  8
0
  6
ByBlock
 62
     2
100
AcDbLine
 10
351.1238768146347
 20
282.7216247705907
 30
0.0
 11
351.1238768146347
 21
335.5720194314608
 31
0.0
  0
LINE
  5
11DC
330
18
100
AcDbEntity
  8
0
  6
ByBlock
 62
     2
100
AcDbLine
 10
307.6238768146347
 20
334.3220194314608
 30
0.0
 11
348.6238768146347
 21
334.3220194314608
 31
0.0
  0
INSERT
  5
11DD
330
18
100
AcDbEntity
  8
0
  6
ByBlock
 62
     2
100
AcDbBlockReference
  2
_OPEN
 10
305.1238768146347
 20
334.3220194314608
 30
0.0
 41
2.5
 42
2.5
 43
2.5
 50
180.0
  0
INSERT
  5
11DE
330
18
100
AcDbEntity
  8
0
  6
ByBlock
 62
     2
100
AcDbBlockReference
  2
_OPEN
 10
351.1238768146347
 20
334.3220194314608
 30
0.0
 41
2.5
 42
2.5
 43
2.5
  0
MTEXT
  5
11DF
330
18
100
AcDbEntity
  8
0
  6
ByBlock
 62
     6
100
AcDbMText
 10
328.1238768146347
 20
336.1970194314608
 30
0.0
 40
2.5
 41
0.0
 71
     5
 72
     1
  1
\A1;46
  7
STYLE3
 73
     1
 44
1.0
  0
POINT
  5
11E0
330
18
100
AcDbEntity
  8
DEFPOINTS
  6
ByBlock
 62
     0
100
AcDbPoint
 10
305.1238768146347
 20
282.7216247705907
 30
0.0
  0
POINT
  5
11E1
330
18
100
AcDbEntity
  8
DEFPOINTS
  6
ByBlock
 62
     0
100
AcDbPoint
 10
351.1238768146347
 20
282.7216247705907
 30
0.0
  0
POINT
  5
11E2
330
18
100
AcDbEntity
  8
DEFPOINTS
  6
ByBlock
 62
     0
100
AcDbPoint
 10
351.1238768146347
 20
334.3220194314608
 30
0.0
  0
LINE
  5
11E3
330
18
100
AcDbEntity
  8
0
  6
ByBlock
 62
     2
100
AcDbLine
 10
408.3948277287821
 20
309.1216247705907
 30
0.0
 11
378.8520059468379
 21
309.1216247705907
 31
0.0
  0
LINE
  5
11E4
330
18
100
AcDbEntity
  8
0
  6
ByBlock
 62
     2
100
AcDbLine
 10
408.3948277287821
 20
256.3216247705907
 30
0.0
 11
378.8520059468379
 21
256.3216247705907
 31
0.0
  0
LINE
  5
11E5
330
18
100
AcDbEntity
  8
0
  6
ByBlock
 62
     2
100
AcDbLine
 10
380.1020059468379
 20
306.6216247705907
 30
0.0
 11
380.1020059468379
 21
258.8216247705907
 31
0.0
  0
INSERT
  5
11E6
330
18
100
AcDbEntity
  8
0
  6
ByBlock
 62
     2
100
AcDbBlockReference
  2
_OPEN
 10
380.1020059468379
 20
309.1216247705907
 30
0.0
 41
2.5
 42
2.5
 43
2.5
 50
90.0
  0
INSERT
  5
11E7
330
18
100
AcDbEntity
  8
0
  6
ByBlock
 62
     2
100
AcDbBlockReference
  2
_OPEN
 10
380.1020059468379
 20
256.3216247705907
 30
0.0
 41
2.5
 42
2.5
 43
2.5
 50
270.0
  0
MTEXT
  5
11E8
330
18
100
AcDbEntity
  8
0
  6
ByBlock
 62
     6
100
AcDbMText
 10
378.2270059468379
 20
282.7216247705907
 30
0.0
 40
2.5
 41
0.0
 71
     5
 72
     1
  1
\A1;φ53
  7
STYLE3
 11
0.0000000000000001
 21
1.0
 31
0.0
 73
     1
 44
1.0
  0
POINT
  5
11E9
330
18
100
AcDbEntity
  8
DEFPOINTS
  6
ByBlock
 62
     0
100
AcDbPoint
 10
408.3948277287821
 20
309.1216247705907
 30
0.0
  0
POINT
  5
11EA
330
18
100
AcDbEntity
  8
DEFPOINTS
  6
ByBlock
 62
     0
100
AcDbPoint
 10
408.3948277287821
 20
256.3216247705907
 30
0.0
  0
POINT
  5
11EB
330
18
100
AcDbEntity
  8
DEFPOINTS
  6
ByBlock
 62
     0
100
AcDbPoint
 10
380.1020059468379
 20
256.3216247705907
 30
0.0
  0
LINE
  5
11EC
102
{ACAD_REACTORS
330
11EF
102
}
330
18
100
AcDbEntity
  8
外形線
100
AcDbLine
 10
339.9626657521023
 20
284.261208103924
 30
0.0
 11
338.9626657521023
 21
284.261208103924
 31
0.0
  0
LINE
  5
11ED
102
{ACAD_REACTORS
330
11EF
102
}
330
18
100
AcDbEntity
  8
外形線
100
AcDbLine
 10
339.9626657521023
 20
284.0820414372573
 30
0.0
 11
338.9626657521023
 21
284.0820414372574
 31
0.0
  0
TEXT
  5
11EE
330
18
100
AcDbEntity
  8
文字
100
AcDbText
 10
334.1924121348886
 20
281.6853345361782
 30
0.0
 40
1.0
  1
0.01mm
  7
STYLE3
100
AcDbText
  0
HATCH
  5
11EF
330
18
100
AcDbEntity
  8
外形線
100
AcDbHatch
 10
0.0
 20
0.0
 30
0.0
210
0.0
220
0.0
230
1.0
  2
SOLID
 70
     1
 71
     1
 91
        2
 92
        1
 93
        7
 72
     1
 10
337.7959990854356
 20
284.1716247705907
 11
338.9626657521023
 21
283.7469928306135
 72
     1
 10
338.9626657521023
 20
283.7469928306135
 11
338.9626657521023
 21
284.0820414372574
 72
     1
 10
338.9626657521023
 20
284.0820414372574
 11
339.9626657521023
 21
284.0820414372573
 72
     1
 10
339.9626657521023
 20
284.0820414372573
 11
339.9626657521023
 21
284.261208103924
 72
     1
 10
339.9626657521023
 20
284.261208103924
 11
338.9626657521023
 21
284.261208103924
 72
     1
 10
338.9626657521023
 20
284.261208103924
 11
338.9626657521023
 21
284.5962567105679
 72
     1
 10
338.9626657521023
 20
284.5962567105679
 11
337.7959990854356
 21
284.1716247705907
 97
        7
330
11F8
330
11FB
330
11ED
330
1214
330
11EC
330
11F7
330
11FE
 92
        1
 93
        4
 72
     1
 10
337.7959990854356
 20
284.9216247705907
 11
337.7959990854356
 21
283.4216247705907
 72
     1
 10
337.7959990854356
 20
283.4216247705907
 11
337.6293324187689
 21
283.4216247705907
 72
     1
 10
337.6293324187689
 20
283.4216247705907
 11
337.6293324187689
 21
284.9216247705907
 72
     1
 10
337.6293324187689
 20
284.9216247705907
 11
337.7959990854356
 21
284.9216247705907
 97
        4
330
11FD
330
120A
330
11FC
330
11F4
 75
     0
 76
     1
 98
        1
 10
245.4664423789552
 20
215.5094739634097
450
        0
451
        0
460
0.0
461
0.0
452
        0
462
0.0
453
        0
470

  0
LINE
  5
11F0
102
{ACAD_REACTORS
330
11F2
102
}
330
18
100
AcDbEntity
  8
外形線
100
AcDbLine
 10
334.4626657521023
 20
284.261208103924
 30
0.0
 11
335.4626657521023
 21
284.261208103924
 31
0.0
  0
LINE
  5
11F1
102
{ACAD_REACTORS
330
11F2
102
}
330
18
100
AcDbEntity
  8
外形線
100
AcDbLine
 10
334.4626657521023
 20
284.0820414372573
 30
0.0
 11
335.4626657521023
 21
284.0820414372574
 31
0.0
  0
HATCH
  5
11F2
330
18
100
AcDbEntity
  8
外形線
100
AcDbHatch
 10
0.0
 20
0.0
 30
0.0
210
0.0
220
0.0
230
1.0
  2
SOLID
 70
     1
 71
     1
 91
        2
 92
        1
 93
        7
 72
     1
 10
336.629332418769
 20
284.1716247705907
 11
335.4626657521023
 21
283.7469928306135
 72
     1
 10
335.4626657521023
 20
283.7469928306135
 11
335.4626657521023
 21
284.0820414372574
 72
     1
 10
335.4626657521023
 20
284.0820414372574
 11
334.4626657521023
 21
284.0820414372573
 72
     1
 10
334.4626657521023
 20
284.0820414372573
 11
334.4626657521023
 21
284.261208103924
 72
     1
 10
334.4626657521023
 20
284.261208103924
 11
335.4626657521023
 21
284.261208103924
 72
     1
 10
335.4626657521023
 20
284.261208103924
 11
335.4626657521023
 21
284.5962567105679
 72
     1
 10
335.4626657521023
 20
284.5962567105679
 11
336.629332418769
 21
284.1716247705907
 97
        7
330
1206
330
1203
330
11F1
330
11F3
330
11F0
330
1200
330
1207
 92
        1
 93
        4
 72
     1
 10
336.629332418769
 20
284.9216247705907
 11
336.629332418769
 21
283.4216247705907
 72
     1
 10
336.629332418769
 20
283.4216247705907
 11
336.7959990854355
 21
283.4216247705907
 72
     1
 10
336.7959990854355
 20
283.4216247705907
 11
336.7959990854355
 21
284.9216247705907
 72
     1
 10
336.7959990854355
 20
284.9216247705907
 11
336.629332418769
 21
284.9216247705907
 97
        4
330
1208
330
1213
330
1209
330
11FF
 75
     0
 76
     1
 98
        1
 10
428.9588891252493
 20
215.5094739634097
450
        0
451
        0
460
0.0
461
0.0
452
        0
462
0.0
453
        0
470

  0
LINE
  5
11F3
102
{ACAD_REACTORS
330
11F2
102
}
330
18
100
AcDbEntity
  8
外形線
100
AcDbLine
 10
334.4626657521023
 20
284.261208103924
 30
0.0
 11
334.4626657521023
 21
284.0820414372573
 31
0.0
  0
LINE
  5
11F4
102
{ACAD_REACTORS
330
11EF
102
}
330
18
100
AcDbEntity
  8
外形線
100
AcDbLine
 10
337.6293324187689
 20
284.9216247705907
 30
0.0
 11
337.7959990854356
 21
284.9216247705907
 31
0.0
  0
POINT
  5
11F5
330
18
100
AcDbEntity
  8
DEFPOINTS
  6
ByBlock
 62
     0
100
AcDbPoint
 10
338.9626657521023
 20
284.5962567105679
 30
0.0
  0
POINT
  5
11F6
330
18
100
AcDbEntity
  8
DEFPOINTS
  6
ByBlock
 62
     0
100
AcDbPoint
 10
338.9626657521023
 20
284.5962567105679
 30
0.0
  0
LINE
  5
11F7
102
{ACAD_REACTORS
330
11EF
102
}
330
18
100
AcDbEntity
  8
外形線
100
AcDbLine
 10
338.9626657521023
 20
284.5962567105679
 30
0.0
 11
338.9626657521023
 21
284.261208103924
 31
0.0
  0
LINE
  5
11F8
102
{ACAD_REACTORS
330
11EF
102
}
330
18
100
AcDbEntity
  8
外形線
100
AcDbLine
 10
337.7959990854356
 20
284.1716247705907
 30
0.0
 11
338.9626657521023
 21
283.7469928306135
 31
0.0
  0
POINT
  5
11F9
330
18
100
AcDbEntity
  8
DEFPOINTS
  6
ByBlock
 62
     0
100
AcDbPoint
 10
338.9626657521023
 20
283.7469928306135
 30
0.0
  0
POINT
  5
11FA
330
18
100
AcDbEntity
  8
DEFPOINTS
  6
ByBlock
 62
     0
100
AcDbPoint
 10
338.9626657521023
 20
283.7469928306135
 30
0.0
  0
LINE
  5
11FB
102
{ACAD_REACTORS
330
11EF
102
}
330
18
100
AcDbEntity
  8
外形線
100
AcDbLine
 10
338.9626657521023
 20
284.0820414372574
 30
0.0
 11
338.9626657521023
 21
283.7469928306135
 31
0.0
  0
LINE
  5
11FC
102
{ACAD_REACTORS
330
11EF
102
}
330
18
100
AcDbEntity
  8
外形線
100
AcDbLine
 10
337.6293324187689
 20
284.9216247705907
 30
0.0
 11
337.6293324187689
 21
283.4216247705907
 31
0.0
  0
LINE
  5
11FD
102
{ACAD_REACTORS
330
11EF
102
}
330
18
100
AcDbEntity
  8
外形線
100
AcDbLine
 10
337.7959990854356
 20
284.9216247705907
 30
0.0
 11
337.7959990854356
 21
283.4216247705907
 31
0.0
  0
LINE
  5
11FE
102
{ACAD_REACTORS
330
11EF
102
}
330
18
100
AcDbEntity
  8
外形線
100
AcDbLine
 10
337.7959990854356
 20
284.1716247705907
 30
0.0
 11
338.9626657521023
 21
284.5962567105679
 31
0.0
  0
LINE
  5
11FF
102
{ACAD_REACTORS
330
11F2
102
}
330
18
100
AcDbEntity
  8
外形線
100
AcDbLine
 10
336.7959990854355
 20
284.9216247705907
 30
0.0
 11
336.629332418769
 21
284.9216247705907
 31
0.0
  0
LINE
  5
1200
102
{ACAD_REACTORS
330
11F2
102
}
330
18
100
AcDbEntity
  8
外形線
100
AcDbLine
 10
335.4626657521023
 20
284.5962567105679
 30
0.0
 11
335.4626657521023
 21
284.261208103924
 31
0.0
  0
POINT
  5
1201
330
18
100
AcDbEntity
  8
DEFPOINTS
  6
ByBlock
 62
     0
100
AcDbPoint
 10
335.4626657521023
 20
284.5962567105679
 30
0.0
  0
POINT
  5
1202
330
18
100
AcDbEntity
  8
DEFPOINTS
  6
ByBlock
 62
     0
100
AcDbPoint
 10
335.4626657521023
 20
284.5962567105679
 30
0.0
  0
LINE
  5
1203
102
{ACAD_REACTORS
330
11F2
102
}
330
18
100
AcDbEntity
  8
外形線
100
AcDbLine
 10
335.4626657521023
 20
284.0820414372574
 30
0.0
 11
335.4626657521023
 21
283.7469928306135
 31
0.0
  0
POINT
  5
1204
330
18
100
AcDbEntity
  8
DEFPOINTS
  6
ByBlock
 62
     0
100
AcDbPoint
 10
335.4626657521023
 20
283.7469928306135
 30
0.0
  0
POINT
  5
1205
330
18
100
AcDbEntity
  8
DEFPOINTS
  6
ByBlock
 62
     0
100
AcDbPoint
 10
335.4626657521023
 20
283.7469928306135
 30
0.0
  0
LINE
  5
1206
102
{ACAD_REACTORS
330
11F2
102
}
330
18
100
AcDbEntity
  8
外形線
100
AcDbLine
 10
336.629332418769
 20
284.1716247705907
 30
0.0
 11
335.4626657521023
 21
283.7469928306135
 31
0.0
  0
LINE
  5
1207
102
{ACAD_REACTORS
330
11F2
102
}
330
18
100
AcDbEntity
  8
外形線
100
AcDbLine
 10
336.629332418769
 20
284.1716247705907
 30
0.0
 11
335.4626657521023
 21
284.5962567105679
 31
0.0
  0
LINE
  5
1208
102
{ACAD_REACTORS
330
11F2
102
}
330
18
100
AcDbEntity
  8
外形線
100
AcDbLine
 10
336.629332418769
 20
284.9216247705907
 30
0.0
 11
336.629332418769
 21
283.4216247705907
 31
0.0
  0
LINE
  5
1209
102
{ACAD_REACTORS
330
11F2
102
}
330
18
100
AcDbEntity
  8
外形線
100
AcDbLine
 10
336.7959990854355
 20
284.9216247705907
 30
0.0
 11
336.7959990854355
 21
283.4216247705907
 31
0.0
  0
LINE
  5
120A
102
{ACAD_REACTORS
330
11EF
102
}
330
18
100
AcDbEntity
  8
外形線
100
AcDbLine
 10
337.6293324187689
 20
283.4216247705907
 30
0.0
 11
337.7959990854356
 21
283.4216247705907
 31
0.0
  0
POINT
  5
120B
330
18
100
AcDbEntity
  8
DEFPOINTS
  6
ByBlock
 62
     0
100
AcDbPoint
 10
337.7959990854356
 20
283.4216247705907
 30
0.0
  0
POINT
  5
120C
330
18
100
AcDbEntity
  8
DEFPOINTS
  6
ByBlock
 62
     0
100
AcDbPoint
 10
337.6293324187689
 20
283.4216247705907
 30
0.0
  0
POINT
  5
120D
330
18
100
AcDbEntity
  8
DEFPOINTS
  6
ByBlock
 62
     0
100
AcDbPoint
 10
337.7959990854356
 20
283.4216247705907
 30
0.0
  0
POINT
  5
120E
330
18
100
AcDbEntity
  8
DEFPOINTS
  6
ByBlock
 62
     0
100
AcDbPoint
 10
337.6293324187689
 20
283.4216247705907
 30
0.0
  0
POINT
  5
120F
330
18
100
AcDbEntity
  8
DEFPOINTS
  6
ByBlock
 62
     0
100
AcDbPoint
 10
336.7959990854355
 20
283.4216247705907
 30
0.0
  0
POINT
  5
1210
330
18
100
AcDbEntity
  8
DEFPOINTS
  6
ByBlock
 62
     0
100
AcDbPoint
 10
336.629332418769
 20
283.4216247705907
 30
0.0
  0
POINT
  5
1211
330
18
100
AcDbEntity
  8
DEFPOINTS
  6
ByBlock
 62
     0
100
AcDbPoint
 10
336.7959990854355
 20
283.4216247705907
 30
0.0
  0
POINT
  5
1212
330
18
100
AcDbEntity
  8
DEFPOINTS
  6
ByBlock
 62
     0
100
AcDbPoint
 10
336.629332418769
 20
283.4216247705907
 30
0.0
  0
LINE
  5
1213
102
{ACAD_REACTORS
330
11F2
102
}
330
18
100
AcDbEntity
  8
外形線
100
AcDbLine
 10
336.7959990854355
 20
283.4216247705907
 30
0.0
 11
336.629332418769
 21
283.4216247705907
 31
0.0
  0
LINE
  5
1214
102
{ACAD_REACTORS
330
11EF
102
}
330
18
100
AcDbEntity
  8
外形線
100
AcDbLine
 10
339.9626657521023
 20
284.261208103924
 30
0.0
 11
339.9626657521023
 21
284.0820414372573
 31
0.0
  0
LINE
  5
1215
330
18
100
AcDbEntity
  8
ﾊｯﾁﾝｸ
100
AcDbLine
 10
325.6238768146346
 20
226.1144958751111
 30
0.0
 11
326.0310057101143
 21
226.5216247705907
 31
0.0
  0
LINE
  5
1216
330
18
100
AcDbEntity
  8
ﾊｯﾁﾝｸ
100
AcDbLine
 10
325.6238768146347
 20
224.7674574569507
 30
0.0
 11
327.3780441282747
 21
226.5216247705907
 31
0.0
  0
LINE
  5
1217
330
18
100
AcDbEntity
  8
ﾊｯﾁﾝｸ
100
AcDbLine
 10
325.6250825464351
 20
223.4216247705907
 30
0.0
 11
328.1238768146347
 21
225.9204190387904
 31
0.0
  0
LINE
  5
1218
330
18
100
AcDbEntity
  8
ﾊｯﾁﾝｸ
100
AcDbLine
 10
326.9721209645954
 20
223.4216247705907
 30
0.0
 11
328.1238768146347
 21
224.5733806206299
 31
0.0
  0
LINE
  5
1219
330
18
100
AcDbEntity
  8
ﾊｯﾁﾝｸ
100
AcDbLine
 10
325.7179247388201
 20
223.4216247705907
 30
0.0
 11
325.6238768146346
 21
223.5156726947762
 31
0.0
  0
LINE
  5
121A
330
18
100
AcDbEntity
  8
ﾊｯﾁﾝｸ
100
AcDbLine
 10
327.0649631569805
 20
223.4216247705907
 30
0.0
 11
325.6238768146347
 21
224.8627111129365
 31
0.0
  0
LINE
  5
121B
330
18
100
AcDbEntity
  8
ﾊｯﾁﾝｸ
100
AcDbLine
 10
328.1238768146347
 20
223.7097495310969
 30
0.0
 11
325.6238768146347
 21
226.2097495310968
 31
0.0
  0
LINE
  5
121C
330
18
100
AcDbEntity
  8
ﾊｯﾁﾝｸ
100
AcDbLine
 10
328.1238768146347
 20
225.0567879492572
 30
0.0
 11
326.6590399933012
 21
226.5216247705907
 31
0.0
  0
LINE
  5
121D
330
18
100
AcDbEntity
  8
ﾊｯﾁﾝｸ
100
AcDbLine
 10
328.1238768146347
 20
226.4038263674176
 30
0.0
 11
328.0060784114616
 21
226.5216247705907
 31
0.0
  0
HATCH
  5
121E
330
18
100
AcDbEntity
  8
針
100
AcDbHatch
 10
0.0
 20
0.0
 30
0.0
210
0.0
220
0.0
230
1.0
  2
SOLID
 70
     1
 71
     0
 91
        2
 92
        7
 72
     1
 73
     1
 93
        5
 10
323.8747881688116
 20
272.3168769796221
 42
0.31735696877887
 10
324.8841211641436
 20
271.5483720082598
 42
0.0
 10
325.1583378595134
 20
271.9040379277826
 42
0.0
 10
325.1494061642628
 20
271.9323656460156
 42
-0.4142135623731173
 10
324.2085891015735
 20
272.4221240094486
 42
0.0
 97
        0
 92
        7
 72
     1
 73
     1
 93
        4
 10
323.8747881688116
 20
272.3168769796221
 42
0.0
 10
324.2085891015735
 20
272.4221240094486
 42
-0.4142135623730728
 10
324.6983474650064
 20
273.362941072138
 42
0.0
 10
324.5931004351799
 20
273.6967420048998
 42
0.4142135623730844
 97
        0
 75
     0
 76
     1
 47
0.0161501285364394
 98
        2
 10
324.2138453335694
 20
272.0008342665418
 10
324.0153980537263
 20
272.6839351190235
450
        0
451
        0
460
0.0
461
0.0
452
        0
462
0.0
453
        0
470

  0
HATCH
  5
121F
330
18
100
AcDbEntity
  8
針
100
AcDbHatch
 10
0.0
 20
0.0
 30
0.0
210
0.0
220
0.0
230
1.0
  2
SOLID
 70
     1
 71
     0
 91
        4
 92
        7
 72
     1
 73
     1
 93
        4
 10
325.1092151321562
 20
273.7319271750746
 42
0.0
 10
325.0502438493084
 20
273.3869309608935
 42
-0.4142135623730951
 10
325.6631544164513
 20
272.5212863244031
 42
0.0
 10
326.0081506306324
 20
272.4623150415554
 42
0.4142135623730996
 97
        0
 92
        7
 72
     1
 73
     1
 93
        5
 10
325.0502438493084
 20
273.3869309608935
 42
0.0
 10
325.1092151321562
 20
273.7319271750746
 42
0.3173569687788799
 10
323.9643302077925
 20
273.1854919122671
 42
0.0
 10
324.1553214170194
 20
272.7790249390362
 42
0.0
 10
324.184599212818
 20
272.7740203937507
 42
-0.4142135623730839
 97
        0
 92
        7
 72
     1
 73
     1
 93
        4
 10
326.0081506306324
 20
272.4623150415554
 42
0.0
 10
325.6631544164513
 20
272.5212863244031
 42
-0.4142135623730951
 10
324.7975097799609
 20
271.9083757572601
 42
0.0
 10
324.7385384971132
 20
271.5633795430791
 42
0.4142135623730996
 97
        0
 92
        7
 72
     1
 73
     1
 93
        4
 10
324.7975097799609
 20
271.9083757572601
 42
-0.1036385141593389
 10
324.5113692887652
 20
272.0212848245055
 42
0.0
 10
324.7254400033573
 20
271.5657001105813
 42
0.003023315109616
 10
324.7385384971132
 20
271.5633795430791
 42
0.0
 97
        0
 75
     0
 76
     1
 47
0.0223982890607777
 98
        4
 10
325.7860013406616
 20
273.1337604975885
 10
324.663465493697
 20
273.4847010689591
 10
325.7859390358993
 20
272.2021221285201
 10
324.7231748672891
 20
271.8384277610618
450
        0
451
        0
460
0.0
461
0.0
452
        0
462
0.0
453
        0
470

  0
CIRCLE
  5
1220
330
18
100
AcDbEntity
  8
針
100
AcDbCircle
 10
324.9238768146347
 20
272.6476533590769
 30
0.0
 40
1.1
  0
CIRCLE
  5
1221
330
18
100
AcDbEntity
  8
針
100
AcDbCircle
 10
324.9238768146347
 20
272.6476533590769
 30
0.0
 40
0.75
  0
HATCH
  5
1222
330
18
100
AcDbEntity
  8
針
100
AcDbHatch
 10
0.0
 20
0.0
 30
0.0
210
0.0
220
0.0
230
1.0
  2
SOLID
 70
     1
 71
     0
 91
        1
 92
        7
 72
     1
 73
     1
 93
        7
 10
329.6207517849782
 20
272.4492459172775
 42
0.0
 10
329.6228460269664
 20
272.5492239856251
 42
0.0
 10
329.6249402689548
 20
272.6492020539726
 42
0.0
 10
326.3839612664538
 20
272.7620090951627
 42
-0.2935495917910092
 10
325.9396423586209
 20
273.0698148917272
 42
-0.2104432563350663
 10
325.921073382964
 20
272.1833269608266
 42
-0.2935491884945053
 10
326.3778918031132
 20
272.4722559414809
 42
0.0
 97
        0
 75
     0
 76
     1
 47
0.0140573597042523
 98
        1
 10
327.8165747733437
 20
272.5284454036578
450
        0
451
        0
460
0.0
461
0.0
452
        0
462
0.0
453
        0
470

  0
LINE
  5
1223
330
18
100
AcDbEntity
  8
針
100
AcDbLine
 10
326.3778918031133
 20
272.4722559414809
 30
0.0
 11
329.620751784978
 21
272.4492459172775
 31
0.0
  0
LINE
  5
1224
330
18
100
AcDbEntity
  8
針
100
AcDbLine
 10
326.3839612664539
 20
272.7620090951627
 30
0.0
 11
329.6249402689547
 21
272.6492020539726
 31
0.0
  0
CIRCLE
  5
1225
330
18
100
AcDbEntity
  8
針
 62
     4
100
AcDbCircle
 10
324.9238768146347
 20
272.6476533590769
 30
0.0
 40
0.4
  0
ARC
  5
1226
330
18
100
AcDbEntity
  8
針
100
AcDbCircle
 10
326.3743440944386
 20
271.9722685278762
 30
0.0
 40
0.5
100
AcDbArc
 50
89.59345912073466
 51
155.0317787024804
  0
ARC
  5
1227
330
18
100
AcDbEntity
  8
針
100
AcDbCircle
 10
326.4013539695234
 20
273.2617064974772
 30
0.0
 40
0.5
100
AcDbArc
 50
202.5682212975195
 51
268.0065408792652
  0
LINE
  5
1228
330
18
100
AcDbEntity
  8
文字
100
AcDbLine
 10
329.620751784978
 20
272.4492459172775
 30
0.0
 11
329.6249402689547
 21
272.6492020539726
 31
0.0
  0
LINE
  5
1229
330
18
100
AcDbEntity
  8
ﾊｯﾁﾝｸ
  6
Continuous
100
AcDbLine
 10
324.1238768146347
 20
316.4881185668884
 30
0.0
 11
324.3573830183369
 21
316.7216247705906
 31
0.0
  0
LINE
  5
122A
330
18
100
AcDbEntity
  8
ﾊｯﾁﾝｸ
  6
Continuous
100
AcDbLine
 10
324.1238768146347
 20
314.720351613922
 30
0.0
 11
326.1251499713032
 21
316.7216247705906
 31
0.0
  0
LINE
  5
122B
330
18
100
AcDbEntity
  8
ﾊｯﾁﾝｸ
  6
Continuous
100
AcDbLine
 10
324.1238768146347
 20
312.9525846609557
 30
0.0
 11
327.8929169242696
 21
316.7216247705906
 31
0.0
  0
LINE
  5
122C
330
18
100
AcDbEntity
  8
ﾊｯﾁﾝｸ
  6
Continuous
100
AcDbLine
 10
324.1238768146347
 20
311.1848177079894
 30
0.0
 11
328.1238768146347
 21
315.1848177079894
 31
0.0
  0
LINE
  5
122D
330
18
100
AcDbEntity
  8
ﾊｯﾁﾝｸ
  6
Continuous
100
AcDbLine
 10
325.4284508302023
 20
310.7216247705906
 30
0.0
 11
328.1238768146347
 21
313.417050755023
 31
0.0
  0
LINE
  5
122E
330
18
100
AcDbEntity
  8
ﾊｯﾁﾝｸ
  6
Continuous
100
AcDbLine
 10
327.1962177831688
 20
310.7216247705906
 30
0.0
 11
328.1238768146347
 21
311.6492838020566
 31
0.0
  0
LINE
  5
122F
330
18
100
AcDbEntity
  8
ﾊｯﾁﾝｸ
  6
Continuous
100
AcDbLine
 10
324.1754224609537
 20
310.7216247705906
 30
0.0
 11
324.1238768146347
 21
310.7731704169095
 31
0.0
  0
LINE
  5
1230
330
18
100
AcDbEntity
  8
ﾊｯﾁﾝｸ
  6
Continuous
100
AcDbLine
 10
325.9431894139201
 20
310.7216247705906
 30
0.0
 11
324.1238768146347
 21
312.540937369876
 31
0.0
  0
LINE
  5
1231
330
18
100
AcDbEntity
  8
ﾊｯﾁﾝｸ
  6
Continuous
100
AcDbLine
 10
327.7109563668864
 20
310.7216247705906
 30
0.0
 11
324.1238768146347
 21
314.3087043228423
 31
0.0
  0
LINE
  5
1232
330
18
100
AcDbEntity
  8
ﾊｯﾁﾝｸ
  6
Continuous
100
AcDbLine
 10
328.1238768146347
 20
312.0764712758086
 30
0.0
 11
324.1238768146347
 21
316.0764712758086
 31
0.0
  0
LINE
  5
1233
330
18
100
AcDbEntity
  8
ﾊｯﾁﾝｸ
  6
Continuous
100
AcDbLine
 10
328.1238768146347
 20
313.8442382287751
 30
0.0
 11
325.2464902728191
 21
316.7216247705906
 31
0.0
  0
LINE
  5
1234
330
18
100
AcDbEntity
  8
ﾊｯﾁﾝｸ
  6
Continuous
100
AcDbLine
 10
328.1238768146347
 20
315.6120051817414
 30
0.0
 11
327.0142572257855
 21
316.7216247705905
 31
0.0
  0
LINE
  5
1239
330
18
100
AcDbEntity
  8
ﾊｯﾁﾝｸ
100
AcDbLine
 10
416.194827728782
 20
226.1144958751112
 30
0.0
 11
416.6019566242617
 21
226.5216247705907
 31
0.0
  0
LINE
  5
123A
330
18
100
AcDbEntity
  8
ﾊｯﾁﾝｸ
100
AcDbLine
 10
416.194827728782
 20
224.7674574569507
 30
0.0
 11
417.9489950424221
 21
226.5216247705907
 31
0.0
  0
LINE
  5
123B
330
18
100
AcDbEntity
  8
ﾊｯﾁﾝｸ
100
AcDbLine
 10
416.1960334605825
 20
223.4216247705907
 30
0.0
 11
418.6948277287821
 21
225.9204190387904
 31
0.0
  0
LINE
  5
123C
330
18
100
AcDbEntity
  8
ﾊｯﾁﾝｸ
100
AcDbLine
 10
417.5430718787429
 20
223.4216247705907
 30
0.0
 11
418.6948277287821
 21
224.5733806206299
 31
0.0
  0
LINE
  5
123D
330
18
100
AcDbEntity
  8
ﾊｯﾁﾝｸ
100
AcDbLine
 10
416.2888756529675
 20
223.4216247705907
 30
0.0
 11
416.194827728782
 21
223.5156726947761
 31
0.0
  0
LINE
  5
123E
330
18
100
AcDbEntity
  8
ﾊｯﾁﾝｸ
100
AcDbLine
 10
417.6359140711279
 20
223.4216247705907
 30
0.0
 11
416.1948277287821
 21
224.8627111129365
 31
0.0
  0
LINE
  5
123F
330
18
100
AcDbEntity
  8
ﾊｯﾁﾝｸ
100
AcDbLine
 10
418.694827728782
 20
223.7097495310969
 30
0.0
 11
416.194827728782
 21
226.2097495310968
 31
0.0
  0
LINE
  5
1240
330
18
100
AcDbEntity
  8
ﾊｯﾁﾝｸ
100
AcDbLine
 10
418.6948277287821
 20
225.0567879492572
 30
0.0
 11
417.2299909074486
 21
226.5216247705907
 31
0.0
  0
LINE
  5
1241
330
18
100
AcDbEntity
  8
ﾊｯﾁﾝｸ
100
AcDbLine
 10
418.6948277287821
 20
226.4038263674176
 30
0.0
 11
418.577029325609
 21
226.5216247705907
 31
0.0
  0
ARC
  5
127A
330
18
100
AcDbEntity
  8
外形線
100
AcDbCircle
 10
328.1238768146347
 20
218.9216247705907
 30
0.0
 40
1.199999999999999
100
AcDbArc
 50
189.59406822686
 51
350.4059317731399
  0
ARC
  5
127B
330
18
100
AcDbEntity
  8
外形線
100
AcDbCircle
 10
418.6948277287822
 20
218.9216247705907
 30
0.0
 40
1.199999999999999
100
AcDbArc
 50
189.59406822686
 51
350.4059317731399
  0
INSERT
  5
12A5
330
18
100
AcDbEntity
  8
針
100
AcDbBlockReference
  2
A$C58896626
 10
329.975302797656
 20
354.1882023321845
 30
0.0
  0
LINE
  5
12A6
330
18
100
AcDbEntity
  8
外形線
100
AcDbLine
 10
330.077098797656
 20
353.0472883321845
 30
0.0
 11
404.343753797656
 21
353.0472883321845
 31
0.0
  0
TEXT
  5
12A7
330
18
100
AcDbEntity
  8
0
100
AcDbText
 10
330.260367797656
 20
356.4378303321845
 30
0.0
 40
4.0
  1
Model No.57F Dial Gauge
  7
STYLE3
100
AcDbText
  0
TEXT
  5
12A8
330
18
100
AcDbEntity
  8
0
  6
Continuous
100
AcDbText
 10
351.8435107976561
 20
184.0207513321844
 30
0.0
 40
2.1
  1
Design and specifications are subject to change without notice for future improvement.
  7
STYLE3
100
AcDbText
  0
LINE
  5
12A9
330
18
100
AcDbEntity
  8
外形線
100
AcDbLine
 10
350.386042797656
 20
172.5079833321845
 30
0.0
 11
350.386042797656
 21
192.9029663321844
 31
0.0
  0
LINE
  5
12AA
330
18
100
AcDbEntity
  8
外形線
100
AcDbLine
 10
350.386042797656
 20
182.1227613321845
 30
0.0
 11
491.177460797656
 21
182.1227613321845
 31
0.0
  0
TEXT
  5
12AB
330
18
100
AcDbEntity
  8
0
  6
Continuous
100
AcDbText
 10
395.156287797656
 20
176.0042673321845
 30
0.0
 40
2.399999999999999
  1
mm
  7
STYLE3
100
AcDbText
  0
TEXT
  5
12AC
330
18
100
AcDbEntity
  8
0
  6
Continuous
100
AcDbText
 10
351.552018797656
 20
174.2561233321844
 30
0.0
 40
2.1
  1
3RD Angle Projection
  7
STYLE3
100
AcDbText
  0
TEXT
  5
12AD
330
18
100
AcDbEntity
  8
0
  6
Continuous
100
AcDbText
 10
354.175461797656
 20
177.7524063321845
 30
0.0
 40
3.0
  1
三　　角　　法
  7
STYLE3
100
AcDbText
  0
TEXT
  5
12AE
330
18
100
AcDbEntity
  8
0
  6
Continuous
100
AcDbText
 10
387.114239797656
 20
177.7583613321844
 30
0.0
 40
3.0
  1
単位
  7
STYLE3
100
AcDbText
  0
TEXT
  5
12AF
330
18
100
AcDbEntity
  8
0
  6
Continuous
100
AcDbText
 10
387.285960797656
 20
174.2561243321844
 30
0.0
 40
2.1
  1
Unit
  7
STYLE3
100
AcDbText
  0
LINE
  5
12B0
330
18
100
AcDbEntity
  8
外形線
100
AcDbLine
 10
385.656770797656
 20
182.1227613321845
 30
0.0
 11
385.656770797656
 21
172.5079833321845
 31
0.0
  0
TEXT
  5
12B1
330
18
100
AcDbEntity
  8
0
  6
Continuous
100
AcDbText
 10
453.757773797656
 20
178.0437633321844
 30
0.0
 40
3.0
  1
株式会社　尾崎製作所
  7
STYLE3
100
AcDbText
  0
TEXT
  5
12B2
330
18
100
AcDbEntity
  8
0
  6
Continuous
100
AcDbText
 10
454.6322517976561
 20
174.2561243321844
 30
0.0
 40
2.1
  1
OZAKI MFG. CO., LTD.
  7
STYLE3
100
AcDbText
  0
TEXT
  5
12B3
330
18
100
AcDbEntity
  8
0
  6
Continuous
100
AcDbText
 10
433.353218797656
 20
176.0042653321844
 30
0.0
 40
2.1
  1
2010.06.07
  7
STYLE3
100
AcDbText
  0
TEXT
  5
12B4
330
18
100
AcDbEntity
  8
0
  6
Continuous
100
AcDbText
 10
414.5146397976559
 20
176.2956243321845
 30
0.0
 40
2.399999999999999
  1
1/1
  7
STYLE3
100
AcDbText
  0
TEXT
  5
12B5
330
18
100
AcDbEntity
  8
0
  6
Continuous
100
AcDbText
 10
404.432135797656
 20
177.4670033321845
 30
0.0
 40
3.0
  1
尺 度
  7
STYLE3
100
AcDbText
  0
TEXT
  5
12B6
330
18
100
AcDbEntity
  8
0
  6
Continuous
100
AcDbText
 10
404.895350797656
 20
174.5474813321844
 30
0.0
 40
2.1
  1
Scale
  7
STYLE3
100
AcDbText
  0
LINE
  5
12B7
330
18
100
AcDbEntity
  8
外形線
100
AcDbLine
 10
403.146388797656
 20
182.1227613321845
 30
0.0
 11
403.146388797656
 21
172.5079833321845
 31
0.0
  0
TEXT
  5
12B8
330
18
100
AcDbEntity
  8
0
  6
Continuous
100
AcDbText
 10
424.6084117976559
 20
174.2561253321844
 30
0.0
 40
2.1
  1
Date
  7
STYLE3
100
AcDbText
  0
TEXT
  5
12B9
330
18
100
AcDbEntity
  8
0
  6
Continuous
100
AcDbText
 10
424.2250507976559
 20
177.5892083321845
 30
0.0
 40
3.0
  1
日 付
  7
STYLE3
100
AcDbText
  0
LINE
  5
12BA
330
18
100
AcDbEntity
  8
外形線
100
AcDbLine
 10
422.676460797656
 20
182.1227613321845
 30
0.0
 11
422.676460797656
 21
172.5079833321845
 31
0.0
  0
LINE
  5
12BB
330
18
100
AcDbEntity
  8
外形線
100
AcDbLine
 10
452.408809797656
 20
182.1227613321845
 30
0.0
 11
452.408809797656
 21
172.5079833321845
 31
0.0
  0
LINE
  5
12BC
330
18
100
AcDbEntity
  8
外形線
100
AcDbLine
 10
350.386042797656
 20
192.9029663321844
 30
0.0
 11
491.177460797656
 21
192.9029663321844
 31
0.0
  0
TEXT
  5
12BD
330
18
100
AcDbEntity
  8
0
  6
Continuous
100
AcDbText
 10
352.135004797656
 20
187.9498993321845
 30
0.0
 40
3.5
  1
仕様及び外観は予告なく変更される場合がございますのでご了承下さい。
  7
STYLE3
100
AcDbText
  0
ENDSEC
  0
SECTION
  2
OBJECTS
  0
DICTIONARY
  5
C
330
0
100
AcDbDictionary
281
     1
  3
ACAD_COLOR
350
126A
  3
ACAD_GROUP
350
D
  3
ACAD_IMAGE_DICT
350
E58
  3
ACAD_LAYOUT
350
126D
  3
ACAD_MATERIAL
350
1269
  3
ACAD_MLINESTYLE
350
1B
  3
ACAD_PLOTSETTINGS
350
126E
  3
ACAD_PLOTSTYLENAME
350
1267
  3
ACAD_TABLESTYLE
350
126B
  3
ACDBVARIABLEDICTIONARY
350
FCB
  0
DICTIONARY
  5
126A
102
{ACAD_REACTORS
330
C
102
}
330
C
100
AcDbDictionary
281
     1
  0
DICTIONARY
  5
D
102
{ACAD_REACTORS
330
C
102
}
330
C
100
AcDbDictionary
281
     1
  0
DICTIONARY
  5
E58
102
{ACAD_REACTORS
330
C
102
}
330
C
100
AcDbDictionary
281
     1
  3
ROGO01
350
E59
  0
DICTIONARY
  5
126D
102
{ACAD_REACTORS
330
C
102
}
330
C
100
AcDbDictionary
281
     1
  3
Model
350
126F
  3
レイアウト1
350
1270
  0
DICTIONARY
  5
1269
102
{ACAD_REACTORS
330
C
102
}
330
C
100
AcDbDictionary
281
     1
  0
DICTIONARY
  5
1B
102
{ACAD_REACTORS
330
C
102
}
330
C
100
AcDbDictionary
281
     1
  3
STANDARD
350
1C
  0
DICTIONARY
  5
126E
102
{ACAD_REACTORS
330
C
102
}
330
C
100
AcDbDictionary
281
     1
  0
ACDBDICTIONARYWDFLT
  5
1267
102
{ACAD_REACTORS
330
C
102
}
330
C
100
AcDbDictionary
281
     1
  3
Normal
350
1268
100
AcDbDictionaryWithDefault
340
1268
  0
DICTIONARY
  5
126B
102
{ACAD_REACTORS
330
C
102
}
330
C
100
AcDbDictionary
281
     1
  3
Standard
350
126C
  0
DICTIONARY
  5
FCB
102
{ACAD_REACTORS
330
C
102
}
330
C
100
AcDbDictionary
281
     1
  3
CTABLESTYLE
350
1279
  3
SORTENTS
350
FCC
  0
IMAGEDEF
  5
E59
102
{ACAD_REACTORS
330
E58
102
}
330
E58
100
AcDbRasterImageDef
 90
        0
  1
D:\ﾃｽﾄ\rogo01.TIF
 10
3388.0
 20
4668.0
 11
0.0635
 21
0.0635
280
     1
281
     5
  0
LAYOUT
  5
126F
102
{ACAD_REACTORS
330
126D
102
}
330
126D
100
AcDbPlotSettings
  1

  2
WIDR Printer
  4

  6

 40
0.0
 41
0.0
 42
0.0
 43
0.0
 44
0.0
 45
0.0
 46
0.0
 47
0.0
 48
0.0
 49
0.0
140
0.0
141
0.0
142
1.0
143
1.0
 70
  1712
 72
     0
 73
     0
 74
     0
  7
AutoCad LT 98.ctb
 75
     0
147
1.0
 76
     0
 77
     2
 78
   300
148
0.0
149
0.0
100
AcDbLayout
  1
Model
 70
     1
 71
     0
 10
0.0
 20
0.0
 11
12.0
 21
9.0
 12
0.0
 22
0.0
 32
0.0
 14
0.0
 24
0.0
 34
0.0
 15
0.0
 25
0.0
 35
0.0
146
0.0
 13
0.0
 23
0.0
 33
0.0
 16
1.0
 26
0.0
 36
0.0
 17
0.0
 27
1.0
 37
0.0
 76
     0
330
18
  0
LAYOUT
  5
1270
102
{ACAD_REACTORS
330
126D
102
}
330
126D
100
AcDbPlotSettings
  1

  2
WIDR Printer
  4

  6

 40
0.0
 41
0.0
 42
0.0
 43
0.0
 44
0.0
 45
0.0
 46
0.0
 47
0.0
 48
0.0
 49
0.0
140
0.0
141
0.0
142
1.0
143
1.0
 70
   688
 72
     0
 73
     0
 74
     5
  7
AutoCad LT 98.ctb
 75
    16
147
1.0
 76
     0
 77
     2
 78
   300
148
0.0
149
0.0
100
AcDbLayout
  1
レイアウト1
 70
     1
 71
     1
 10
0.0
 20
0.0
 11
420.0
 21
297.0
 12
0.0
 22
0.0
 32
0.0
 14
1.000000000000000E+20
 24
1.000000000000000E+20
 34
1.000000000000000E+20
 15
-1.000000000000000E+20
 25
-1.000000000000000E+20
 35
-1.000000000000000E+20
146
0.0
 13
0.0
 23
0.0
 33
0.0
 16
1.0
 26
0.0
 36
0.0
 17
0.0
 27
1.0
 37
0.0
 76
     0
330
15
  0
MLINESTYLE
  5
1C
102
{ACAD_REACTORS
330
1B
102
}
330
1B
100
AcDbMlineStyle
  2
STANDARD
 70
     0
  3

 62
   256
 51
90.0
 52
90.0
 71
     2
 49
0.5
 62
   256
  6
BYLAYER
 49
-0.5
 62
   256
  6
BYLAYER
  0
ACDBPLACEHOLDER
  5
1268
102
{ACAD_REACTORS
330
1267
102
}
330
1267
  0
ACAD_PROXY_OBJECT
  5
126C
102
{ACAD_REACTORS
330
126B
102
}
330
126B
100
AcDbProxyObject
 90
      499
 91
      505
 95
  2555929
 70
     0
 93
     1849
310
4214DD185B99185C992420000000000000F83F0000000000003E0FC00000000000004901028000000C1008070000C3001FDFF8000000C1003FBFF000000182007F7FE00000030400FEFFC00000060801FDFF8000000C1003FBFF000000182000000000000000C2020B0000001820100E000186003FBFF000000182007F7FE0
310
0000030400FEFFC00000060801FDFF8000000C1003FBFF000000182007F7FE0000003040000000000000012404160000003040201C00030C007F7FE00000030400FEFFC00000060801FDFF8000000C1003FBFF000000182007F7FE00000030400FEFFC000000608007
340
F
340
F
340
F
 94
        0
  0
DICTIONARYVAR
  5
1279
102
{ACAD_REACTORS
330
FCB
102
}
330
FCB
100
DictionaryVariables
280
     0
  1
STANDARD
  0
DICTIONARYVAR
  5
FCC
102
{ACAD_REACTORS
330
FCB
102
}
330
FCB
100
DictionaryVariables
280
     0
  1
96
  0
ENDSEC
  0
EOF
