  0
SECTION
  2
HEADER
  9
$ACADVER
  1
AC1018
  9
$ACADMAINTVER
 70
     0
  9
$DWGCODEPAGE
  3
ANSI_932
  9
$INSBASE
 10
0.0
 20
0.0
 30
0.0
  9
$EXTMIN
 10
236.4583261120649
 20
171.6287515666504
 30
-0.0000000349181948
  9
$EXTMAX
 10
491.9215858715545
 20
367.0725802714662
 30
0.0000000814935746
  9
$LIMMIN
 10
0.0
 20
0.0
  9
$LIMMAX
 10
420.0
 20
297.0
  9
$ORTHOMODE
 70
     0
  9
$REGENMODE
 70
     1
  9
$FILLMODE
 70
     1
  9
$QTEXTMODE
 70
     0
  9
$MIRRTEXT
 70
     1
  9
$LTSCALE
 40
1.0
  9
$ATTMODE
 70
     1
  9
$TEXTSIZE
 40
1.0
  9
$TRACEWID
 40
1.0
  9
$TEXTSTYLE
  7
STYLE3
  9
$CLAYER
  8
寸法線
  9
$CELTYPE
  6
BYLAYER
  9
$CECOLOR
 62
   256
  9
$CELTSCALE
 40
1.0
  9
$DISPSILH
 70
     0
  9
$DIMSCALE
 40
1.0
  9
$DIMASZ
 40
2.5
  9
$DIMEXO
 40
0.0
  9
$DIMDLI
 40
3.75
  9
$DIMRND
 40
0.0
  9
$DIMDLE
 40
0.0
  9
$DIMEXE
 40
1.25
  9
$DIMTP
 40
0.0
  9
$DIMTM
 40
0.0
  9
$DIMTXT
 40
2.5
  9
$DIMCEN
 40
2.5
  9
$DIMTSZ
 40
0.0
  9
$DIMTOL
 70
     0
  9
$DIMLIM
 70
     0
  9
$DIMTIH
 70
     0
  9
$DIMTOH
 70
     0
  9
$DIMSE1
 70
     0
  9
$DIMSE2
 70
     0
  9
$DIMTAD
 70
     1
  9
$DIMZIN
 70
     8
  9
$DIMBLK
  1

  9
$DIMASO
 70
     1
  9
$DIMSHO
 70
     1
  9
$DIMPOST
  1

  9
$DIMAPOST
  1

  9
$DIMALT
 70
     0
  9
$DIMALTD
 70
     4
  9
$DIMALTF
 40
0.0394
  9
$DIMLFAC
 40
1.0
  9
$DIMTOFL
 70
     1
  9
$DIMTVP
 40
0.0
  9
$DIMTIX
 70
     0
  9
$DIMSOXD
 70
     0
  9
$DIMSAH
 70
     1
  9
$DIMBLK1
  1
OPEN
  9
$DIMBLK2
  1
OPEN
  9
$DIMSTYLE
  2
STYLE2
  9
$DIMCLRD
 70
     2
  9
$DIMCLRE
 70
     2
  9
$DIMCLRT
 70
     6
  9
$DIMTFAC
 40
1.0
  9
$DIMGAP
 40
0.625
  9
$DIMJUST
 70
     0
  9
$DIMSD1
 70
     0
  9
$DIMSD2
 70
     0
  9
$DIMTOLJ
 70
     1
  9
$DIMTZIN
 70
     0
  9
$DIMALTZ
 70
     0
  9
$DIMALTTZ
 70
     0
  9
$DIMUPT
 70
     0
  9
$DIMDEC
 70
     1
  9
$DIMTDEC
 70
     4
  9
$DIMALTU
 70
     8
  9
$DIMALTTD
 70
     4
  9
$DIMTXSTY
  7
STYLE3
  9
$DIMAUNIT
 70
     0
  9
$DIMADEC
 70
     0
  9
$DIMALTRND
 40
0.0
  9
$DIMAZIN
 70
     0
  9
$DIMDSEP
 70
    46
  9
$DIMATFIT
 70
     3
  9
$DIMFRAC
 70
     0
  9
$DIMLDRBLK
  1

  9
$DIMLUNIT
 70
     2
  9
$DIMLWD
 70
    -2
  9
$DIMLWE
 70
    -2
  9
$DIMTMOVE
 70
     0
  9
$LUNITS
 70
     2
  9
$LUPREC
 70
     4
  9
$SKETCHINC
 40
1.0
  9
$FILLETRAD
 40
0.0
  9
$AUNITS
 70
     0
  9
$AUPREC
 70
     0
  9
$MENU
  1
.
  9
$ELEVATION
 40
0.0
  9
$PELEVATION
 40
0.0
  9
$THICKNESS
 40
0.0
  9
$LIMCHECK
 70
     0
  9
$CHAMFERA
 40
0.2
  9
$CHAMFERB
 40
0.2
  9
$CHAMFERC
 40
20.0
  9
$CHAMFERD
 40
0.0
  9
$SKPOLY
 70
     0
  9
$TDCREATE
 40
2450717.578556713
  9
$TDUCREATE
 40
2450717.203556713
  9
$TDUPDATE
 40
2455356.449382049
  9
$TDUUPDATE
 40
2455356.074382049
  9
$TDINDWG
 40
0.4442272801
  9
$TDUSRTIMER
 40
0.4442272801
  9
$USRTIMER
 70
     1
  9
$ANGBASE
 50
0.0
  9
$ANGDIR
 70
     0
  9
$PDMODE
 70
     0
  9
$PDSIZE
 40
0.0
  9
$PLINEWID
 40
0.0
  9
$SPLFRAME
 70
     0
  9
$SPLINETYPE
 70
     6
  9
$SPLINESEGS
 70
     8
  9
$HANDSEED
  5
1A85
  9
$SURFTAB1
 70
     6
  9
$SURFTAB2
 70
     6
  9
$SURFTYPE
 70
     6
  9
$SURFU
 70
     6
  9
$SURFV
 70
     6
  9
$UCSBASE
  2

  9
$UCSNAME
  2

  9
$UCSORG
 10
0.0
 20
0.0
 30
0.0
  9
$UCSXDIR
 10
1.0
 20
0.0
 30
0.0
  9
$UCSYDIR
 10
0.0
 20
1.0
 30
0.0
  9
$UCSORTHOREF
  2

  9
$UCSORTHOVIEW
 70
     0
  9
$UCSORGTOP
 10
0.0
 20
0.0
 30
0.0
  9
$UCSORGBOTTOM
 10
0.0
 20
0.0
 30
0.0
  9
$UCSORGLEFT
 10
0.0
 20
0.0
 30
0.0
  9
$UCSORGRIGHT
 10
0.0
 20
0.0
 30
0.0
  9
$UCSORGFRONT
 10
0.0
 20
0.0
 30
0.0
  9
$UCSORGBACK
 10
0.0
 20
0.0
 30
0.0
  9
$PUCSBASE
  2

  9
$PUCSNAME
  2

  9
$PUCSORG
 10
0.0
 20
0.0
 30
0.0
  9
$PUCSXDIR
 10
1.0
 20
0.0
 30
0.0
  9
$PUCSYDIR
 10
0.0
 20
1.0
 30
0.0
  9
$PUCSORTHOREF
  2

  9
$PUCSORTHOVIEW
 70
     0
  9
$PUCSORGTOP
 10
0.0
 20
0.0
 30
0.0
  9
$PUCSORGBOTTOM
 10
0.0
 20
0.0
 30
0.0
  9
$PUCSORGLEFT
 10
0.0
 20
0.0
 30
0.0
  9
$PUCSORGRIGHT
 10
0.0
 20
0.0
 30
0.0
  9
$PUCSORGFRONT
 10
0.0
 20
0.0
 30
0.0
  9
$PUCSORGBACK
 10
0.0
 20
0.0
 30
0.0
  9
$USERI1
 70
     0
  9
$USERI2
 70
     0
  9
$USERI3
 70
     0
  9
$USERI4
 70
     0
  9
$USERI5
 70
     0
  9
$USERR1
 40
0.0
  9
$USERR2
 40
0.0
  9
$USERR3
 40
0.0
  9
$USERR4
 40
0.0
  9
$USERR5
 40
0.0
  9
$WORLDVIEW
 70
     1
  9
$SHADEDGE
 70
     3
  9
$SHADEDIF
 70
    70
  9
$TILEMODE
 70
     1
  9
$MAXACTVP
 70
    48
  9
$PINSBASE
 10
0.0
 20
0.0
 30
0.0
  9
$PLIMCHECK
 70
     0
  9
$PEXTMIN
 10
1.000000000000000E+20
 20
1.000000000000000E+20
 30
1.000000000000000E+20
  9
$PEXTMAX
 10
-1.000000000000000E+20
 20
-1.000000000000000E+20
 30
-1.000000000000000E+20
  9
$PLIMMIN
 10
0.0
 20
0.0
  9
$PLIMMAX
 10
420.0
 20
297.0
  9
$UNITMODE
 70
     0
  9
$VISRETAIN
 70
     1
  9
$PLINEGEN
 70
     0
  9
$PSLTSCALE
 70
     1
  9
$TREEDEPTH
 70
  3020
  9
$CMLSTYLE
  2
STANDARD
  9
$CMLJUST
 70
     0
  9
$CMLSCALE
 40
20.0
  9
$PROXYGRAPHICS
 70
     1
  9
$MEASUREMENT
 70
     1
  9
$CELWEIGHT
370
    -1
  9
$ENDCAPS
280
     0
  9
$JOINSTYLE
280
     0
  9
$LWDISPLAY
290
     0
  9
$INSUNITS
 70
     0
  9
$HYPERLINKBASE
  1

  9
$STYLESHEET
  1

  9
$XEDIT
290
     1
  9
$CEPSNTYPE
380
     0
  9
$PSTYLEMODE
290
     1
  9
$FINGERPRINTGUID
  2
{EE22CE3D-57D9-4D3B-A0C4-E870BE245495}
  9
$VERSIONGUID
  2
{E6D00155-9EB4-43F8-BDA1-50DF19479A10}
  9
$EXTNAMES
290
     1
  9
$PSVPSCALE
 40
0.0
  9
$OLESTARTUP
290
     0
  9
$SORTENTS
280
    96
  9
$INDEXCTL
280
     0
  9
$HIDETEXT
280
     0
  9
$XCLIPFRAME
290
     0
  9
$HALOGAP
280
     0
  9
$OBSCOLOR
 70
   257
  9
$OBSLTYPE
280
     0
  9
$INTERSECTIONDISPLAY
280
     0
  9
$INTERSECTIONCOLOR
 70
   257
  9
$DIMASSOC
280
     1
  9
$PROJECTNAME
  1

  0
ENDSEC
  0
SECTION
  2
CLASSES
  0
CLASS
  1
HATCH
  2
AcDbHatch
  3
ObjectDBX Classes
 90
        0
 91
       14
280
     0
281
     1
  0
CLASS
  1
LWPOLYLINE
  2
AcDbPolyline
  3
ObjectDBX Classes
 90
        0
 91
        1
280
     0
281
     1
  0
CLASS
  1
IMAGEDEF
  2
AcDbRasterImageDef
  3
ISM
 90
        0
 91
        1
280
     0
281
     0
  0
CLASS
  1
DICTIONARYVAR
  2
AcDbDictionaryVar
  3
ObjectDBX Classes
 90
        0
 91
        2
280
     0
281
     0
  0
CLASS
  1
ACDBDICTIONARYWDFLT
  2
AcDbDictionaryWithDefault
  3
ObjectDBX Classes
 90
        0
 91
        1
280
     0
281
     0
  0
CLASS
  1
TABLESTYLE
  2
AcDbTableStyle
  3
ObjectDBX Classes
 90
     2047
 91
        1
280
     0
281
     0
  0
ENDSEC
  0
SECTION
  2
TABLES
  0
TABLE
  2
VPORT
  5
8
330
0
100
AcDbSymbolTable
 70
     2
  0
VPORT
  5
1A84
330
8
100
AcDbSymbolTableRecord
100
AcDbViewportTableRecord
  2
*Active
 70
     0
 10
0.0
 20
0.0
 11
1.0
 21
1.0
 12
364.1899559918097
 22
269.3506659190583
 13
0.0
 23
0.0
 14
10.0
 24
10.0
 15
10.0
 25
10.0
 16
0.0
 26
0.0
 36
1.0
 17
0.0
 27
0.0
 37
0.0
 40
196.9300935618867
 41
1.530456852791878
 42
50.0
 43
0.0
 44
0.0
 50
0.0
 51
0.0
 71
     0
 72
   100
 73
     1
 74
     1
 75
     0
 76
     0
 77
     0
 78
     0
281
     0
 65
     1
110
0.0
120
0.0
130
0.0
111
1.0
121
0.0
131
0.0
112
0.0
122
1.0
132
0.0
 79
     0
146
0.0
  0
ENDTAB
  0
TABLE
  2
LTYPE
  5
5
330
0
100
AcDbSymbolTable
 70
     5
  0
LTYPE
  5
12
330
5
100
AcDbSymbolTableRecord
100
AcDbLinetypeTableRecord
  2
BYBLOCK
 70
     0
  3

 72
    65
 73
     0
 40
0.0
  0
LTYPE
  5
13
330
5
100
AcDbSymbolTableRecord
100
AcDbLinetypeTableRecord
  2
BYLAYER
 70
     0
  3

 72
    65
 73
     0
 40
0.0
  0
LTYPE
  5
14
330
5
100
AcDbSymbolTableRecord
100
AcDbLinetypeTableRecord
  2
CONTINUOUS
 70
     0
  3
Solid line
 72
    65
 73
     0
 40
0.0
  0
LTYPE
  5
22
330
5
100
AcDbSymbolTableRecord
100
AcDbLinetypeTableRecord
  2
CENTER2
 70
     0
  3
Center (.5x) ___ _ ___ _ ___ _ ___ _ ___ _ ___
 72
    65
 73
     4
 40
28.575
 49
19.05
 74
     0
 49
-3.174999999999999
 74
     0
 49
3.174999999999999
 74
     0
 49
-3.174999999999999
 74
     0
  0
LTYPE
  5
24
330
5
100
AcDbSymbolTableRecord
100
AcDbLinetypeTableRecord
  2
PHANTOM2
 70
     0
  3
Phantom (.5x) ___ _ _ ___ _ _ ___ _ _ ___ _ _
 72
    65
 73
     6
 40
31.75
 49
15.875
 74
     0
 49
-3.174999999999999
 74
     0
 49
3.174999999999999
 74
     0
 49
-3.174999999999999
 74
     0
 49
3.174999999999999
 74
     0
 49
-3.174999999999999
 74
     0
  0
ENDTAB
  0
TABLE
  2
LAYER
  5
2
330
0
100
AcDbSymbolTable
 70
    16
  0
LAYER
  5
E
330
2
100
AcDbSymbolTableRecord
100
AcDbLayerTableRecord
  2
0
 70
     0
 62
     7
  6
CONTINUOUS
370
    -3
390
1A26
  0
LAYER
  5
25
330
2
100
AcDbSymbolTableRecord
100
AcDbLayerTableRecord
  2
外形線
 70
     0
 62
     7
  6
CONTINUOUS
370
    -3
390
1A26
  0
LAYER
  5
26
330
2
100
AcDbSymbolTableRecord
100
AcDbLayerTableRecord
  2
寸法線
 70
     0
 62
     2
  6
CONTINUOUS
370
    -3
390
1A26
  0
LAYER
  5
27
330
2
100
AcDbSymbolTableRecord
100
AcDbLayerTableRecord
  2
中心線
 70
     0
 62
     4
  6
CENTER2
370
    -3
390
1A26
  0
LAYER
  5
29
330
2
100
AcDbSymbolTableRecord
100
AcDbLayerTableRecord
  2
想像線
 70
     0
 62
     1
  6
PHANTOM2
370
    -3
390
1A26
  0
LAYER
  5
2A
330
2
100
AcDbSymbolTableRecord
100
AcDbLayerTableRecord
  2
ﾊｯﾁﾝｸ
 70
     0
 62
     6
  6
CONTINUOUS
370
    -3
390
1A26
  0
LAYER
  5
2B
330
2
100
AcDbSymbolTableRecord
100
AcDbLayerTableRecord
  2
文字
 70
     0
 62
     6
  6
CONTINUOUS
370
    -3
390
1A26
  0
LAYER
  5
2C
330
2
100
AcDbSymbolTableRecord
100
AcDbLayerTableRecord
  2
目盛
 70
     0
 62
    70
  6
CONTINUOUS
370
    -3
390
1A26
  0
LAYER
  5
2D
330
2
100
AcDbSymbolTableRecord
100
AcDbLayerTableRecord
  2
針
 70
     0
 62
     5
  6
CONTINUOUS
370
    -3
390
1A26
  0
LAYER
  5
53
330
2
100
AcDbSymbolTableRecord
100
AcDbLayerTableRecord
  2
DEFPOINTS
 70
     0
 62
     7
  6
CONTINUOUS
290
     0
370
    -3
390
1A26
  0
LAYER
  5
A5
330
2
100
AcDbSymbolTableRecord
100
AcDbLayerTableRecord
  2
C
 70
     0
 62
     7
  6
CONTINUOUS
370
    -3
390
1A26
  0
LAYER
  5
E00
330
2
100
AcDbSymbolTableRecord
100
AcDbLayerTableRecord
  2
ROGO
 70
     0
 62
     6
  6
CONTINUOUS
370
    -3
390
1A26
  0
ENDTAB
  0
TABLE
  2
STYLE
  5
3
330
0
100
AcDbSymbolTable
 70
     3
  0
STYLE
  5
F
330
3
100
AcDbSymbolTableRecord
100
AcDbTextStyleTableRecord
  2
STANDARD
 70
     0
 40
0.0
 41
1.0
 50
0.0
 71
     0
 42
2.5
  3
txt
  4

  0
STYLE
  5
3F
330
3
100
AcDbSymbolTableRecord
100
AcDbTextStyleTableRecord
  2
STYLE3
 70
     0
 40
0.0
 41
1.0
 50
0.0
 71
     0
 42
1.0
  3
romans.shx
  4
bigfont.shx
  0
ENDTAB
  0
TABLE
  2
VIEW
  5
6
330
0
100
AcDbSymbolTable
 70
     0
  0
ENDTAB
  0
TABLE
  2
UCS
  5
7
330
0
100
AcDbSymbolTable
 70
     0
  0
ENDTAB
  0
TABLE
  2
APPID
  5
9
330
0
100
AcDbSymbolTable
 70
     1
  0
APPID
  5
10
330
9
100
AcDbSymbolTableRecord
100
AcDbRegAppTableRecord
  2
ACAD
 70
     0
  0
ENDTAB
  0
TABLE
  2
DIMSTYLE
  5
A
330
0
100
AcDbSymbolTable
 70
     3
100
AcDbDimStyleTable
 71
     0
  0
DIMSTYLE
105
1D
330
A
100
AcDbSymbolTableRecord
100
AcDbDimStyleTableRecord
  2
STANDARD
 70
     0
 41
2.5
 42
0.625
 43
3.75
 44
1.25
 73
     0
 74
     0
 77
     1
 78
     8
140
2.5
141
2.5
143
0.0394
147
0.625
171
     4
172
     1
273
     8
274
     4
277
     6
340
F
  0
DIMSTYLE
105
66
330
A
100
AcDbSymbolTableRecord
100
AcDbDimStyleTableRecord
  2
STYLE2
 70
     0
 41
2.5
 42
0.0
 43
3.75
 44
1.25
 73
     0
 74
     0
 77
     1
 78
     8
140
2.5
141
2.5
143
0.0394
147
0.625
171
     4
172
     1
173
     1
176
     2
177
     2
178
     6
271
     1
273
     8
274
     4
340
3F
341
45
343
45
344
45
  0
ENDTAB
  0
TABLE
  2
BLOCK_RECORD
  5
1
330
0
100
AcDbSymbolTable
 70
     2
  0
BLOCK_RECORD
  5
18
330
1
100
AcDbSymbolTableRecord
100
AcDbBlockTableRecord
  2
*MODEL_SPACE
340
1A2D
  0
BLOCK_RECORD
  5
15
330
1
100
AcDbSymbolTableRecord
100
AcDbBlockTableRecord
  2
*PAPER_SPACE
340
1A2E
  0
BLOCK_RECORD
  5
45
330
1
100
AcDbSymbolTableRecord
100
AcDbBlockTableRecord
  2
_OPEN
340
0
102
{BLKREFS
331
836
331
837
331
83E
331
83F
331
847
331
848
331
875
331
876
331
87E
331
87F
331
900
331
901
331
909
331
90A
331
912
331
913
331
F35
331
F36
331
FD7
331
FD8
331
FE0
331
FE1
331
10CC
331
10CD
331
10D5
331
10D6
331
186B
331
186C
331
1874
331
1875
331
1892
331
1893
331
18CA
331
18CB
102
}
  0
ENDTAB
  0
ENDSEC
  0
SECTION
  2
BLOCKS
  0
BLOCK
  5
19
330
18
100
AcDbEntity
  8
0
100
AcDbBlockBegin
  2
*MODEL_SPACE
 70
     0
 10
0.0
 20
0.0
 30
0.0
  3
*MODEL_SPACE
  1

  0
ENDBLK
  5
1A
330
18
100
AcDbEntity
  8
0
100
AcDbBlockEnd
  0
BLOCK
  5
16
330
15
100
AcDbEntity
 67
     1
  8
0
100
AcDbBlockBegin
  2
*PAPER_SPACE
 70
     0
 10
0.0
 20
0.0
 30
0.0
  3
*PAPER_SPACE
  1

  0
ENDBLK
  5
17
330
15
100
AcDbEntity
 67
     1
  8
0
100
AcDbBlockEnd
  0
BLOCK
  5
46
330
45
100
AcDbEntity
  8
0
100
AcDbBlockBegin
  2
_OPEN
 70
     0
 10
0.0
 20
0.0
 30
0.0
  3
_OPEN
  1

  0
LINE
  5
47
330
45
100
AcDbEntity
  8
0
  6
ByBlock
 62
     0
100
AcDbLine
 10
-1.0
 20
0.1666666666666666
 30
0.0
 11
0.0
 21
0.0
 31
0.0
  0
LINE
  5
48
330
45
100
AcDbEntity
  8
0
  6
ByBlock
 62
     0
100
AcDbLine
 10
0.0
 20
0.0
 30
0.0
 11
-1.0
 21
-0.1666666666666666
 31
0.0
  0
LINE
  5
49
330
45
100
AcDbEntity
  8
0
  6
ByBlock
 62
     0
100
AcDbLine
 10
0.0
 20
0.0
 30
0.0
 11
-1.0
 21
0.0
 31
0.0
  0
ENDBLK
  5
4A
330
45
100
AcDbEntity
  8
0
100
AcDbBlockEnd
  0
ENDSEC
  0
SECTION
  2
ENTITIES
  0
LINE
  5
244
330
18
100
AcDbEntity
  8
中心線
 48
0.5
100
AcDbLine
 10
287.8336100223986
 20
282.2224354128728
 30
0.0
 11
355.477168663405
 21
282.2224354128728
 31
0.0
  0
LINE
  5
245
330
18
100
AcDbEntity
  8
中心線
 48
0.5
100
AcDbLine
 10
325.8765373177728
 20
327.3306529779612
 30
0.0
 11
325.8765373177729
 21
219.3581804278475
 31
0.0
  0
CIRCLE
  5
246
330
18
100
AcDbEntity
  8
外形線
100
AcDbCircle
 10
325.8765373177728
 20
282.2224354128728
 30
0.0
 40
15.5
  0
CIRCLE
  5
248
330
18
100
AcDbEntity
  8
外形線
100
AcDbCircle
 10
325.8765373177728
 20
282.2224354128728
 30
0.0
 40
26.4
  0
LINE
  5
2B7
330
18
100
AcDbEntity
  8
中心線
 48
0.2
100
AcDbLine
 10
322.6765373177728
 20
280.0116714200806
 30
0.0
 11
322.6765373177728
 21
264.3220773980451
 31
0.0
  0
LINE
  5
2B9
330
18
100
AcDbEntity
  8
中心線
 48
0.2
100
AcDbLine
 10
315.7172621308431
 20
272.1484640013589
 30
0.0
 11
330.2452495788232
 21
272.1484640013589
 31
0.0
  0
LINE
  5
2D3
330
18
100
AcDbEntity
  8
外形線
100
AcDbLine
 10
322.4765373177728
 20
237.2224354128728
 30
0.0
 11
329.2765373177729
 21
237.2224354128728
 31
0.0
  0
LINE
  5
2D4
330
18
100
AcDbEntity
  8
外形線
100
AcDbLine
 10
323.6265373177729
 20
231.2224354128728
 30
0.0
 11
328.1265373177729
 21
231.2224354128728
 31
0.0
  0
LINE
  5
2D5
330
18
100
AcDbEntity
  8
外形線
100
AcDbLine
 10
329.8765373177728
 20
256.1272251243927
 30
0.0
 11
329.8765373177728
 21
241.7224354128729
 31
0.0
  0
LINE
  5
2D6
330
18
100
AcDbEntity
  8
外形線
100
AcDbLine
 10
321.8765373177728
 20
256.1272251243927
 30
0.0
 11
321.8765373177728
 21
241.7224354128728
 31
0.0
  0
LINE
  5
2D9
330
18
100
AcDbEntity
  8
外形線
100
AcDbLine
 10
327.8765373177727
 20
237.2224354128728
 30
0.0
 11
327.8765373177728
 21
231.2224354128728
 31
0.0
  0
LINE
  5
2DA
330
18
100
AcDbEntity
  8
外形線
100
AcDbLine
 10
323.8765373177728
 20
237.2224354128728
 30
0.0
 11
323.8765373177729
 21
231.2224354128728
 31
0.0
  0
LINE
  5
2DB
330
18
100
AcDbEntity
  8
外形線
100
AcDbLine
 10
328.3765373177729
 20
231.0224354128728
 30
0.0
 11
328.3765373177728
 21
227.9224354128728
 31
0.0
  0
LINE
  5
2DC
330
18
100
AcDbEntity
  8
外形線
100
AcDbLine
 10
323.3765373177729
 20
231.0224354128728
 30
0.0
 11
323.3765373177729
 21
227.9224354128728
 31
0.0
  0
LINE
  5
2DD
330
18
100
AcDbEntity
  8
外形線
100
AcDbLine
 10
323.6265373177729
 20
227.7224354128728
 30
0.0
 11
328.1265373177728
 21
227.7224354128728
 31
0.0
  0
LINE
  5
2DE
330
18
100
AcDbEntity
  8
外形線
100
AcDbLine
 10
323.3765373177728
 20
231.0224354128728
 30
0.0
 11
328.3765373177729
 21
231.0224354128728
 31
0.0
  0
LINE
  5
2DF
330
18
100
AcDbEntity
  8
外形線
100
AcDbLine
 10
323.3765373177728
 20
227.9224354128728
 30
0.0
 11
328.3765373177729
 21
227.9224354128728
 31
0.0
  0
LINE
  5
2E0
330
18
100
AcDbEntity
  8
外形線
100
AcDbLine
 10
328.1265373177729
 20
231.2224354128728
 30
0.0
 11
328.3765373177729
 21
231.0224354128728
 31
0.0
  0
LINE
  5
2E1
330
18
100
AcDbEntity
  8
外形線
100
AcDbLine
 10
323.6265373177729
 20
231.2224354128728
 30
0.0
 11
323.3765373177729
 21
231.0224354128728
 31
0.0
  0
LINE
  5
2E2
330
18
100
AcDbEntity
  8
外形線
100
AcDbLine
 10
328.3765373177729
 20
227.9224354128728
 30
0.0
 11
328.1265373177729
 21
227.7224354128728
 31
0.0
  0
LINE
  5
2E3
330
18
100
AcDbEntity
  8
外形線
100
AcDbLine
 10
323.3765373177729
 20
227.9224354128728
 30
0.0
 11
323.6265373177729
 21
227.7224354128728
 31
0.0
  0
LINE
  5
2E5
330
18
100
AcDbEntity
  8
外形線
100
AcDbLine
 10
324.5765373177728
 20
223.2224354128728
 30
0.0
 11
327.1765373177728
 21
223.2224354128728
 31
0.0
  0
LINE
  5
2E6
330
18
100
AcDbEntity
  8
外形線
100
AcDbLine
 10
328.1265373177729
 20
227.7224354128728
 30
0.0
 11
327.1765373177728
 21
223.2224354128728
 31
0.0
  0
LINE
  5
2E7
330
18
100
AcDbEntity
  8
外形線
100
AcDbLine
 10
323.6265373177729
 20
227.7224354128728
 30
0.0
 11
324.5765373177728
 21
223.2224354128728
 31
0.0
  0
LINE
  5
5CF
330
18
100
AcDbEntity
  8
外形線
  6
Continuous
100
AcDbLine
 10
329.5765373177728
 20
322.7224354128727
 30
0.0
 11
329.5765373177728
 21
316.2224354128727
 31
0.0
  0
LINE
  5
5D0
330
18
100
AcDbEntity
  8
外形線
  6
Continuous
100
AcDbLine
 10
322.1765373177728
 20
322.7224354128727
 30
0.0
 11
322.1765373177728
 21
316.2224354128727
 31
0.0
  0
LINE
  5
5D1
330
18
100
AcDbEntity
  8
外形線
  6
Continuous
100
AcDbLine
 10
322.1765373177728
 20
322.7224354128727
 30
0.0
 11
329.5765373177728
 21
322.7224354128727
 31
0.0
  0
LINE
  5
5D2
330
18
100
AcDbEntity
  8
外形線
  6
Continuous
100
AcDbLine
 10
321.8765373177729
 20
316.2224354128727
 30
0.0
 11
329.8765373177728
 21
316.2224354128727
 31
0.0
  0
LINE
  5
5D3
330
18
100
AcDbEntity
  8
外形線
  6
Continuous
100
AcDbLine
 10
321.8765373177728
 20
310.2224354128727
 30
0.0
 11
329.8765373177728
 21
310.2224354128727
 31
0.0
  0
LINE
  5
5D4
330
18
100
AcDbEntity
  8
外形線
  6
Continuous
100
AcDbLine
 10
329.8765373177728
 20
316.2224354128727
 30
0.0
 11
329.8765373177728
 21
310.2224354128727
 31
0.0
  0
LINE
  5
5D5
330
18
100
AcDbEntity
  8
外形線
  6
Continuous
100
AcDbLine
 10
321.8765373177729
 20
316.2224354128727
 30
0.0
 11
321.8765373177729
 21
310.2224354128727
 31
0.0
  0
LINE
  5
5D6
330
18
100
AcDbEntity
  8
外形線
  6
Continuous
100
AcDbLine
 10
329.5765373177728
 20
310.2224354128727
 30
0.0
 11
329.5765373177728
 21
308.3618692246446
 31
0.0
  0
LINE
  5
5D7
330
18
100
AcDbEntity
  8
外形線
  6
Continuous
100
AcDbLine
 10
322.1765373177728
 20
310.2224354128727
 30
0.0
 11
322.1765373177728
 21
308.3618692246446
 31
0.0
  0
ARC
  5
5D9
330
18
100
AcDbEntity
  8
外形線
  6
Continuous
100
AcDbCircle
 10
325.8765373177728
 20
316.3774354128729
 30
0.0
 40
7.344999999999885
100
AcDbArc
 50
59.75198538337817
 51
120.2480146166212
  0
ARC
  5
692
330
18
100
AcDbEntity
  8
外形線
  6
Continuous
100
AcDbCircle
 10
504.6793454176596
 20
282.2224354128728
 30
0.0
 40
105.6666666666664
100
AcDbArc
 50
166.3144531747381
 51
193.685546825262
  0
LINE
  5
693
330
18
100
AcDbEntity
  8
外形線
  6
Continuous
100
AcDbLine
 10
402.0126787509933
 20
307.2224354128728
 30
0.0
 11
402.0126787509933
 21
257.2224354128728
 31
0.0
  0
LINE
  5
694
330
18
100
AcDbEntity
  8
外形線
  6
Continuous
100
AcDbLine
 10
403.2126787509933
 20
308.6224354128728
 30
0.0
 11
403.2126787509933
 21
255.8224354128729
 31
0.0
  0
LINE
  5
695
330
18
100
AcDbEntity
  8
外形線
  6
Continuous
100
AcDbLine
 10
407.0126787509932
 20
308.6224354128728
 30
0.0
 11
407.0126787509932
 21
255.8224354128729
 31
0.0
  0
LINE
  5
696
330
18
100
AcDbEntity
  8
外形線
  6
Continuous
100
AcDbLine
 10
408.5126787509933
 20
307.2224354128728
 30
0.0
 11
408.5126787509933
 21
257.2224354128728
 31
0.0
  0
LINE
  5
697
330
18
100
AcDbEntity
  8
外形線
  6
Continuous
100
AcDbLine
 10
420.0126787509932
 20
306.7224354128728
 30
0.0
 11
420.0126787509932
 21
257.7224354128728
 31
0.0
  0
LINE
  5
69C
330
18
100
AcDbEntity
  8
外形線
  6
Continuous
100
AcDbLine
 10
403.2126787509933
 20
256.7224354128728
 30
0.0
 11
402.0126787509933
 21
257.2224354128728
 31
0.0
  0
LINE
  5
6AD
330
18
100
AcDbEntity
  8
外形線
  6
CENTER2
100
AcDbLine
 10
408.5126787509933
 20
257.2224354128728
 30
0.0
 11
407.0126787509932
 21
257.2224354128728
 31
0.0
  0
LINE
  5
6AE
330
18
100
AcDbEntity
  8
外形線
  6
Continuous
100
AcDbLine
 10
403.2126787509933
 20
255.8224354128729
 30
0.0
 11
407.0126787509932
 21
255.8224354128729
 31
0.0
  0
LINE
  5
6AF
330
18
100
AcDbEntity
  8
外形線
  6
Continuous
100
AcDbLine
 10
403.2126787509933
 20
259.8224354128728
 30
0.0
 11
407.0126787509932
 21
259.8224354128728
 31
0.0
  0
LINE
  5
6B0
330
18
100
AcDbEntity
  8
外形線
  6
Continuous
100
AcDbLine
 10
403.2126787509933
 20
258.8224354128728
 30
0.0
 11
407.0126787509932
 21
258.8224354128728
 31
0.0
  0
LINE
  5
6B1
330
18
100
AcDbEntity
  8
外形線
  6
Continuous
100
AcDbLine
 10
403.2126787509933
 20
257.8224354128728
 30
0.0
 11
407.0126787509932
 21
257.8224354128728
 31
0.0
  0
LINE
  5
6B2
330
18
100
AcDbEntity
  8
外形線
  6
Continuous
100
AcDbLine
 10
403.2126787509933
 20
256.8224354128728
 30
0.0
 11
407.0126787509932
 21
256.8224354128728
 31
0.0
  0
ARC
  5
6B8
330
18
100
AcDbEntity
  8
外形線
  6
Continuous
100
AcDbCircle
 10
413.5126787509932
 20
316.3774354128729
 30
0.0
 40
7.344999999999885
100
AcDbArc
 50
59.75198538337879
 51
120.2480146166218
  0
LINE
  5
6B9
330
18
100
AcDbEntity
  8
外形線
  6
Continuous
100
AcDbLine
 10
403.2126787509933
 20
307.7224354128728
 30
0.0
 11
402.0126787509933
 21
307.2224354128728
 31
0.0
  0
LINE
  5
6BA
330
18
100
AcDbEntity
  8
外形線
  6
Continuous
100
AcDbLine
 10
403.2126787509933
 20
260.8224354128728
 30
0.0
 11
407.0126787509932
 21
260.8224354128728
 31
0.0
  0
LINE
  5
6BB
330
18
100
AcDbEntity
  8
外形線
  6
Continuous
100
AcDbLine
 10
407.0126787509932
 20
280.2224354128728
 30
0.0
 11
403.2126787509933
 21
280.2224354128728
 31
0.0
  0
LINE
  5
6BC
330
18
100
AcDbEntity
  8
外形線
  6
Continuous
100
AcDbLine
 10
407.0126787509932
 20
281.2224354128728
 30
0.0
 11
403.2126787509933
 21
281.2224354128728
 31
0.0
  0
LINE
  5
6BD
330
18
100
AcDbEntity
  8
外形線
  6
Continuous
100
AcDbLine
 10
407.0126787509932
 20
282.2224354128728
 30
0.0
 11
403.2126787509933
 21
282.2224354128728
 31
0.0
  0
LINE
  5
6BE
330
18
100
AcDbEntity
  8
外形線
  6
Continuous
100
AcDbLine
 10
407.0126787509932
 20
283.2224354128728
 30
0.0
 11
403.2126787509933
 21
283.2224354128728
 31
0.0
  0
LINE
  5
6BF
330
18
100
AcDbEntity
  8
外形線
  6
Continuous
100
AcDbLine
 10
407.0126787509932
 20
285.2224354128728
 30
0.0
 11
403.2126787509933
 21
285.2224354128728
 31
0.0
  0
LINE
  5
6C0
330
18
100
AcDbEntity
  8
外形線
  6
Continuous
100
AcDbLine
 10
407.0126787509932
 20
284.2224354128728
 30
0.0
 11
403.2126787509933
 21
284.2224354128728
 31
0.0
  0
LINE
  5
6C1
330
18
100
AcDbEntity
  8
外形線
  6
Continuous
100
AcDbLine
 10
403.2126787509933
 20
303.6224354128728
 30
0.0
 11
407.0126787509932
 21
303.6224354128728
 31
0.0
  0
LINE
  5
6C2
330
18
100
AcDbEntity
  8
外形線
  6
Continuous
100
AcDbLine
 10
403.2126787509933
 20
304.6224354128728
 30
0.0
 11
407.0126787509932
 21
304.6224354128728
 31
0.0
  0
LINE
  5
6C3
330
18
100
AcDbEntity
  8
外形線
  6
Continuous
100
AcDbLine
 10
403.2126787509933
 20
305.6224354128728
 30
0.0
 11
407.0126787509932
 21
305.6224354128728
 31
0.0
  0
LINE
  5
6C4
330
18
100
AcDbEntity
  8
外形線
  6
Continuous
100
AcDbLine
 10
403.2126787509933
 20
306.6224354128728
 30
0.0
 11
407.0126787509932
 21
306.6224354128728
 31
0.0
  0
LINE
  5
6C5
330
18
100
AcDbEntity
  8
外形線
  6
Continuous
100
AcDbLine
 10
417.2126787509933
 20
322.7224354128728
 30
0.0
 11
409.8126787509931
 21
322.7224354128728
 31
0.0
  0
LINE
  5
6C6
330
18
100
AcDbEntity
  8
外形線
  6
Continuous
100
AcDbLine
 10
417.5126787509932
 20
316.2224354128728
 30
0.0
 11
409.5126787509932
 21
316.2224354128728
 31
0.0
  0
LINE
  5
6C7
330
18
100
AcDbEntity
  8
外形線
  6
Continuous
100
AcDbLine
 10
417.5126787509932
 20
310.2224354128728
 30
0.0
 11
409.5126787509932
 21
310.2224354128728
 31
0.0
  0
LINE
  5
6C9
330
18
100
AcDbEntity
  8
外形線
  6
Continuous
100
AcDbLine
 10
417.5126787509932
 20
316.2224354128728
 30
0.0
 11
417.5126787509932
 21
310.2224354128728
 31
0.0
  0
LINE
  5
6CA
330
18
100
AcDbEntity
  8
外形線
  6
Continuous
100
AcDbLine
 10
417.2126787509933
 20
310.2224354128728
 30
0.0
 11
417.2126787509933
 21
306.7224354128728
 31
0.0
  0
LINE
  5
6CB
330
18
100
AcDbEntity
  8
外形線
  6
Continuous
100
AcDbLine
 10
417.2126787509933
 20
322.7224354128728
 30
0.0
 11
417.2126787509933
 21
316.2224354128728
 31
0.0
  0
LINE
  5
6CC
330
18
100
AcDbEntity
  8
外形線
  6
Continuous
100
AcDbLine
 10
409.5126787509932
 20
316.2224354128728
 30
0.0
 11
409.5126787509932
 21
310.2224354128728
 31
0.0
  0
LINE
  5
6CD
330
18
100
AcDbEntity
  8
外形線
  6
CENTER2
100
AcDbLine
 10
408.5126787509933
 20
307.2224354128728
 30
0.0
 11
407.0126787509932
 21
307.2224354128728
 31
0.0
  0
LINE
  5
6CE
330
18
100
AcDbEntity
  8
外形線
  6
Continuous
100
AcDbLine
 10
409.8126787509931
 20
310.2224354128728
 30
0.0
 11
409.8126787509931
 21
306.7224354128728
 31
0.0
  0
LINE
  5
6CF
330
18
100
AcDbEntity
  8
外形線
  6
Continuous
100
AcDbLine
 10
403.2126787509933
 20
307.6224354128728
 30
0.0
 11
407.0126787509932
 21
307.6224354128728
 31
0.0
  0
LINE
  5
6D0
330
18
100
AcDbEntity
  8
外形線
  6
Continuous
100
AcDbLine
 10
403.2126787509933
 20
308.6224354128728
 30
0.0
 11
407.0126787509932
 21
308.6224354128728
 31
0.0
  0
LINE
  5
6D1
330
18
100
AcDbEntity
  8
外形線
  6
Continuous
100
AcDbLine
 10
409.8126787509931
 20
322.7224354128728
 30
0.0
 11
409.8126787509931
 21
316.2224354128728
 31
0.0
  0
MTEXT
  5
778
330
18
100
AcDbEntity
  8
DEFPOINTS
  6
Continuous
100
AcDbMText
 10
735.8166661286731
 20
235.565234348894
 30
0.0
 40
1.0
 41
0.0
 71
     4
 72
     1
  1
\A1;
 73
     1
 44
1.0
  0
LINE
  5
789
330
18
100
AcDbEntity
  8
中心線
 48
0.5
100
AcDbLine
 10
413.5126787509932
 20
335.241240941626
 30
0.0
 11
413.5126787509935
 21
219.3038530768246
 31
0.0
  0
LINE
  5
78E
330
18
100
AcDbEntity
  8
外形線
100
AcDbLine
 10
408.5126787509933
 20
257.7224354128728
 30
0.0
 11
420.0126787509932
 21
257.7224354128728
 31
0.0
  0
LINE
  5
78F
330
18
100
AcDbEntity
  8
外形線
100
AcDbLine
 10
408.5126787509933
 20
306.7224354128728
 30
0.0
 11
420.0126787509932
 21
306.7224354128728
 31
0.0
  0
LINE
  5
795
330
18
100
AcDbEntity
  8
外形線
100
AcDbLine
 10
321.8765373177728
 20
241.7224354128728
 30
0.0
 11
329.8765373177728
 21
241.7224354128729
 31
0.0
  0
LINE
  5
796
330
18
100
AcDbEntity
  8
外形線
100
AcDbLine
 10
322.2765373177729
 20
239.2224354128728
 30
0.0
 11
329.4765373177729
 21
239.2224354128728
 31
0.0
  0
LINE
  5
797
330
18
100
AcDbEntity
  8
外形線
100
AcDbLine
 10
322.0265373177728
 20
240.2224354128728
 30
0.0
 11
329.7265373177729
 21
240.2224354128728
 31
0.0
  0
LINE
  5
79F
330
18
100
AcDbEntity
  8
外形線
100
AcDbLine
 10
322.2765373177728
 20
239.2224354128728
 30
0.0
 11
322.2765373177728
 21
237.4224354128728
 31
0.0
  0
LINE
  5
7A0
330
18
100
AcDbEntity
  8
外形線
100
AcDbLine
 10
329.4765373177729
 20
237.4224354128728
 30
0.0
 11
329.4765373177729
 21
239.2224354128728
 31
0.0
  0
LINE
  5
7A1
330
18
100
AcDbEntity
  8
外形線
100
AcDbLine
 10
329.4765373177729
 20
237.4224354128728
 30
0.0
 11
329.2765373177729
 21
237.2224354128728
 31
0.0
  0
LINE
  5
7A2
330
18
100
AcDbEntity
  8
外形線
100
AcDbLine
 10
322.2765373177728
 20
237.4224354128728
 30
0.0
 11
322.4765373177728
 21
237.2224354128728
 31
0.0
  0
LINE
  5
7A5
330
18
100
AcDbEntity
  8
外形線
100
AcDbLine
 10
322.0265373177728
 20
241.7224354128728
 30
0.0
 11
322.0265373177728
 21
240.2224354128728
 31
0.0
  0
LINE
  5
7A6
330
18
100
AcDbEntity
  8
外形線
100
AcDbLine
 10
329.7265373177729
 20
241.7224354128728
 30
0.0
 11
329.7265373177729
 21
240.2224354128728
 31
0.0
  0
ARC
  5
7AC
330
18
100
AcDbEntity
  8
外形線
100
AcDbCircle
 10
329.6015373177728
 20
239.7224354128728
 30
0.0
 40
0.5153882032022076
100
AcDbArc
 50
75.96375653207353
 51
255.9637565320735
  0
ARC
  5
7AD
330
18
100
AcDbEntity
  8
外形線
100
AcDbCircle
 10
322.1515373177728
 20
239.7224354128728
 30
0.0
 40
0.5153882032022076
100
AcDbArc
 50
284.0362434679264
 51
104.0362434679264
  0
LINE
  5
7B0
330
18
100
AcDbEntity
  8
外形線
100
AcDbLine
 10
415.5126787509932
 20
237.2224354128728
 30
0.0
 11
415.5126787509932
 21
231.2224354128728
 31
0.0
  0
LINE
  5
7B1
330
18
100
AcDbEntity
  8
外形線
100
AcDbLine
 10
411.5126787509933
 20
237.2224354128728
 30
0.0
 11
411.5126787509934
 21
231.2224354128728
 31
0.0
  0
LINE
  5
7B2
330
18
100
AcDbEntity
  8
外形線
100
AcDbLine
 10
416.0126787509934
 20
231.0224354128728
 30
0.0
 11
416.0126787509932
 21
227.9224354128728
 31
0.0
  0
LINE
  5
7B3
330
18
100
AcDbEntity
  8
外形線
100
AcDbLine
 10
411.0126787509933
 20
231.0224354128728
 30
0.0
 11
411.0126787509933
 21
227.9224354128728
 31
0.0
  0
LINE
  5
7B5
330
18
100
AcDbEntity
  8
外形線
100
AcDbLine
 10
412.2126787509933
 20
223.2224354128728
 30
0.0
 11
414.8126787509934
 21
223.2224354128728
 31
0.0
  0
LINE
  5
7B7
330
18
100
AcDbEntity
  8
外形線
100
AcDbLine
 10
411.2626787509934
 20
227.7224354128728
 30
0.0
 11
415.7626787509933
 21
227.7224354128728
 31
0.0
  0
LINE
  5
7B8
330
18
100
AcDbEntity
  8
外形線
100
AcDbLine
 10
411.0126787509932
 20
227.9224354128728
 30
0.0
 11
416.0126787509934
 21
227.9224354128728
 31
0.0
  0
LINE
  5
7B9
330
18
100
AcDbEntity
  8
外形線
100
AcDbLine
 10
411.2626787509934
 20
227.7224354128728
 30
0.0
 11
412.2126787509933
 21
223.2224354128728
 31
0.0
  0
LINE
  5
7BA
330
18
100
AcDbEntity
  8
外形線
100
AcDbLine
 10
411.0126787509933
 20
227.9224354128728
 30
0.0
 11
411.2626787509934
 21
227.7224354128728
 31
0.0
  0
LINE
  5
7BB
330
18
100
AcDbEntity
  8
外形線
100
AcDbLine
 10
415.7626787509934
 20
227.7224354128728
 30
0.0
 11
414.8126787509934
 21
223.2224354128728
 31
0.0
  0
LINE
  5
7BC
330
18
100
AcDbEntity
  8
外形線
100
AcDbLine
 10
416.0126787509934
 20
227.9224354128728
 30
0.0
 11
415.7626787509934
 21
227.7224354128728
 31
0.0
  0
LINE
  5
7BD
330
18
100
AcDbEntity
  8
外形線
100
AcDbLine
 10
411.2626787509934
 20
231.2224354128728
 30
0.0
 11
415.7626787509934
 21
231.2224354128728
 31
0.0
  0
LINE
  5
7BE
330
18
100
AcDbEntity
  8
外形線
100
AcDbLine
 10
411.0126787509932
 20
231.0224354128728
 30
0.0
 11
416.0126787509934
 21
231.0224354128728
 31
0.0
  0
LINE
  5
7BF
330
18
100
AcDbEntity
  8
外形線
100
AcDbLine
 10
411.2626787509934
 20
231.2224354128728
 30
0.0
 11
411.0126787509933
 21
231.0224354128728
 31
0.0
  0
LINE
  5
7C0
330
18
100
AcDbEntity
  8
外形線
100
AcDbLine
 10
415.7626787509934
 20
231.2224354128728
 30
0.0
 11
416.0126787509934
 21
231.0224354128728
 31
0.0
  0
LINE
  5
7C1
330
18
100
AcDbEntity
  8
外形線
100
AcDbLine
 10
417.5126787509933
 20
257.7224354128727
 30
0.0
 11
417.5126787509933
 21
241.7224354128729
 31
0.0
  0
LINE
  5
7C2
330
18
100
AcDbEntity
  8
外形線
100
AcDbLine
 10
409.5126787509935
 20
257.7224354128728
 30
0.0
 11
409.5126787509933
 21
241.7224354128728
 31
0.0
  0
LINE
  5
7C3
330
18
100
AcDbEntity
  8
外形線
100
AcDbLine
 10
409.9126787509933
 20
239.2224354128728
 30
0.0
 11
409.9126787509933
 21
237.4224354128728
 31
0.0
  0
LINE
  5
7C4
330
18
100
AcDbEntity
  8
外形線
100
AcDbLine
 10
417.1126787509933
 20
237.4224354128728
 30
0.0
 11
417.1126787509933
 21
239.2224354128728
 31
0.0
  0
LINE
  5
7C5
330
18
100
AcDbEntity
  8
外形線
100
AcDbLine
 10
410.1126787509933
 20
237.2224354128728
 30
0.0
 11
416.9126787509934
 21
237.2224354128728
 31
0.0
  0
LINE
  5
7C6
330
18
100
AcDbEntity
  8
外形線
100
AcDbLine
 10
409.9126787509933
 20
237.4224354128728
 30
0.0
 11
410.1126787509933
 21
237.2224354128728
 31
0.0
  0
LINE
  5
7C7
330
18
100
AcDbEntity
  8
外形線
100
AcDbLine
 10
417.1126787509933
 20
237.4224354128728
 30
0.0
 11
416.9126787509934
 21
237.2224354128728
 31
0.0
  0
LINE
  5
7C8
330
18
100
AcDbEntity
  8
外形線
100
AcDbLine
 10
409.6626787509933
 20
240.2224354128728
 30
0.0
 11
417.3626787509934
 21
240.2224354128728
 31
0.0
  0
LINE
  5
7C9
330
18
100
AcDbEntity
  8
外形線
100
AcDbLine
 10
409.9126787509933
 20
239.2224354128728
 30
0.0
 11
417.1126787509933
 21
239.2224354128728
 31
0.0
  0
LINE
  5
7CA
330
18
100
AcDbEntity
  8
外形線
100
AcDbLine
 10
409.5126787509933
 20
241.7224354128728
 30
0.0
 11
417.5126787509933
 21
241.7224354128729
 31
0.0
  0
ARC
  5
7CB
330
18
100
AcDbEntity
  8
外形線
100
AcDbCircle
 10
409.7876787509933
 20
239.7224354128728
 30
0.0
 40
0.5153882032022076
100
AcDbArc
 50
284.0362434679264
 51
104.0362434679264
  0
LINE
  5
7CC
330
18
100
AcDbEntity
  8
外形線
100
AcDbLine
 10
409.6626787509933
 20
241.7224354128728
 30
0.0
 11
409.6626787509933
 21
240.2224354128728
 31
0.0
  0
ARC
  5
7CD
330
18
100
AcDbEntity
  8
外形線
100
AcDbCircle
 10
417.2376787509933
 20
239.7224354128728
 30
0.0
 40
0.5153882032022076
100
AcDbArc
 50
75.96375653207353
 51
255.9637565320735
  0
LINE
  5
7CE
330
18
100
AcDbEntity
  8
外形線
100
AcDbLine
 10
417.3626787509934
 20
241.7224354128728
 30
0.0
 11
417.3626787509934
 21
240.2224354128728
 31
0.0
  0
LINE
  5
7D6
330
18
100
AcDbEntity
  8
中心線
 48
0.5
100
AcDbLine
 10
395.5359790050394
 20
282.2224354128728
 30
0.0
 11
443.822866918954
 21
282.2224354128728
 31
0.0
  0
LINE
  5
833
330
18
100
AcDbEntity
  8
0
  6
ByBlock
 62
     2
100
AcDbLine
 10
325.8765373177728
 20
323.7224354128728
 30
0.0
 11
280.7385734129964
 21
323.7224354128728
 31
0.0
  0
LINE
  5
835
330
18
100
AcDbEntity
  8
0
  6
ByBlock
 62
     2
100
AcDbLine
 10
289.0836100223986
 20
321.2224354128728
 30
0.0
 11
289.0836100223986
 21
284.7224354128728
 31
0.0
  0
INSERT
  5
836
330
18
100
AcDbEntity
  8
0
  6
ByBlock
 62
     2
100
AcDbBlockReference
  2
_OPEN
 10
289.0836100223986
 20
323.7224354128728
 30
0.0
 41
2.5
 42
2.5
 43
2.5
 50
90.0
  0
INSERT
  5
837
330
18
100
AcDbEntity
  8
0
  6
ByBlock
 62
     2
100
AcDbBlockReference
  2
_OPEN
 10
289.0836100223986
 20
282.2224354128728
 30
0.0
 41
2.5
 42
2.5
 43
2.5
 50
270.0
  0
MTEXT
  5
838
330
18
100
AcDbEntity
  8
0
  6
ByBlock
 62
     6
100
AcDbMText
 10
287.2086100223986
 20
302.9724354128728
 30
0.0
 40
2.5
 41
0.0
 71
     5
 72
     1
  1
\A1;41.5
  7
STYLE3
 11
0.0000000000000001
 21
1.0
 31
0.0
 73
     1
 44
1.0
  0
POINT
  5
839
330
18
100
AcDbEntity
  8
DEFPOINTS
  6
ByBlock
 62
     0
100
AcDbPoint
 10
325.8765373177728
 20
323.7224354128728
 30
0.0
  0
POINT
  5
83A
330
18
100
AcDbEntity
  8
DEFPOINTS
  6
ByBlock
 62
     0
100
AcDbPoint
 10
325.8765373177728
 20
282.2224354128728
 30
0.0
  0
LINE
  5
83C
330
18
100
AcDbEntity
  8
0
  6
ByBlock
 62
     2
100
AcDbLine
 10
325.8765373177729
 20
222.2224354128728
 30
0.0
 11
280.7385734129966
 21
222.2224354128728
 31
0.0
  0
LINE
  5
83D
330
18
100
AcDbEntity
  8
0
  6
ByBlock
 62
     2
100
AcDbLine
 10
289.0836100223986
 20
279.7224354128728
 30
0.0
 11
289.0836100223987
 21
224.7224354128728
 31
0.0
  0
INSERT
  5
83E
330
18
100
AcDbEntity
  8
0
  6
ByBlock
 62
     2
100
AcDbBlockReference
  2
_OPEN
 10
289.0836100223986
 20
282.2224354128728
 30
0.0
 41
2.5
 42
2.5
 43
2.5
 50
90.0
  0
INSERT
  5
83F
330
18
100
AcDbEntity
  8
0
  6
ByBlock
 62
     2
100
AcDbBlockReference
  2
_OPEN
 10
289.0836100223987
 20
222.2224354128728
 30
0.0
 41
2.5
 42
2.5
 43
2.5
 50
270.0
  0
MTEXT
  5
840
330
18
100
AcDbEntity
  8
0
  6
ByBlock
 62
     6
100
AcDbMText
 10
287.2086100223986
 20
252.0752093948531
 30
0.0
 40
2.5
 41
0.0
 71
     5
 72
     1
  1
60
  7
STYLE3
 11
0.0000000000000001
 21
1.0
 31
0.0
 73
     1
 44
1.0
  0
POINT
  5
841
330
18
100
AcDbEntity
  8
DEFPOINTS
  6
ByBlock
 62
     0
100
AcDbPoint
 10
325.8765373177728
 20
282.2224354128728
 30
0.0
  0
POINT
  5
842
330
18
100
AcDbEntity
  8
DEFPOINTS
  6
ByBlock
 62
     0
100
AcDbPoint
 10
325.8765373177729
 20
222.2224354128728
 30
0.0
  0
POINT
  5
843
330
18
100
AcDbEntity
  8
DEFPOINTS
  6
ByBlock
 62
     0
100
AcDbPoint
 10
289.0836100223987
 20
222.2224354128728
 30
0.0
  0
LINE
  5
846
330
18
100
AcDbEntity
  8
0
  6
ByBlock
 62
     2
100
AcDbLine
 10
281.9885734129964
 20
321.2224354128728
 30
0.0
 11
281.9885734129965
 21
224.7224354128728
 31
0.0
  0
INSERT
  5
847
330
18
100
AcDbEntity
  8
0
  6
ByBlock
 62
     2
100
AcDbBlockReference
  2
_OPEN
 10
281.9885734129964
 20
323.7224354128728
 30
0.0
 41
2.5
 42
2.5
 43
2.5
 50
90.0
  0
INSERT
  5
848
330
18
100
AcDbEntity
  8
0
  6
ByBlock
 62
     2
100
AcDbBlockReference
  2
_OPEN
 10
281.9885734129965
 20
222.2224354128728
 30
0.0
 41
2.5
 42
2.5
 43
2.5
 50
270.0
  0
MTEXT
  5
849
330
18
100
AcDbEntity
  8
0
  6
ByBlock
 62
     6
100
AcDbMText
 10
280.1135734129963
 20
273.4564422300963
 30
0.0
 40
2.5
 41
0.0
 71
     5
 72
     1
  1
101.5
  7
STYLE3
 11
0.0000000000000001
 21
1.0
 31
0.0
 73
     1
 44
1.0
  0
POINT
  5
84A
330
18
100
AcDbEntity
  8
DEFPOINTS
  6
ByBlock
 62
     0
100
AcDbPoint
 10
287.8336100223986
 20
323.7224354128728
 30
0.0
  0
POINT
  5
84B
330
18
100
AcDbEntity
  8
DEFPOINTS
  6
ByBlock
 62
     0
100
AcDbPoint
 10
287.8336100223986
 20
222.2224354128728
 30
0.0
  0
POINT
  5
84C
330
18
100
AcDbEntity
  8
DEFPOINTS
  6
ByBlock
 62
     0
100
AcDbPoint
 10
281.9885734129965
 20
222.2224354128728
 30
0.0
  0
LINE
  5
874
330
18
100
AcDbEntity
  8
0
  6
ByBlock
 62
     2
100
AcDbLine
 10
324.3765373177728
 20
247.5722077084439
 30
0.0
 11
327.3765373177728
 21
247.5722077084439
 31
0.0
  0
INSERT
  5
875
330
18
100
AcDbEntity
  8
0
  6
ByBlock
 62
     2
100
AcDbBlockReference
  2
_OPEN
 10
321.8765373177728
 20
247.5722077084439
 30
0.0
 41
2.5
 42
2.5
 43
2.5
 50
180.0
  0
INSERT
  5
876
330
18
100
AcDbEntity
  8
0
  6
ByBlock
 62
     2
100
AcDbBlockReference
  2
_OPEN
 10
329.8765373177728
 20
247.5722077084439
 30
0.0
 41
2.5
 42
2.5
 43
2.5
  0
MTEXT
  5
877
330
18
100
AcDbEntity
  8
0
  6
ByBlock
 62
     6
100
AcDbMText
 10
326.687639807914
 20
249.447207708444
 30
0.0
 40
2.5
 41
0.0
 71
     5
 72
     1
  1
\A1;8.0
  7
STYLE3
 73
     1
 44
1.0
  0
POINT
  5
878
330
18
100
AcDbEntity
  8
DEFPOINTS
  6
ByBlock
 62
     0
100
AcDbPoint
 10
321.8765373177728
 20
247.0049048311752
 30
0.0
  0
POINT
  5
879
330
18
100
AcDbEntity
  8
DEFPOINTS
  6
ByBlock
 62
     0
100
AcDbPoint
 10
329.8765373177728
 20
246.8428184898296
 30
0.0
  0
POINT
  5
87A
330
18
100
AcDbEntity
  8
DEFPOINTS
  6
ByBlock
 62
     0
100
AcDbPoint
 10
329.8765373177728
 20
247.5722077084439
 30
0.0
  0
LINE
  5
87B
330
18
100
AcDbEntity
  8
0
  6
ByBlock
 62
     2
100
AcDbLine
 10
321.3765373177728
 20
233.6912941408564
 30
0.0
 11
320.498741494789
 21
233.6912941408564
 31
0.0
  0
LINE
  5
87C
330
18
100
AcDbEntity
  8
0
  6
ByBlock
 62
     2
100
AcDbLine
 10
330.3765373177727
 20
233.6912941408564
 30
0.0
 11
334.9042935431253
 21
233.6912941408564
 31
0.0
  0
LINE
  5
87D
330
18
100
AcDbEntity
  8
0
  6
ByBlock
 62
     2
100
AcDbLine
 10
323.8765373177728
 20
233.6912941408564
 30
0.0
 11
327.8765373177727
 21
233.6912941408564
 31
0.0
  0
INSERT
  5
87E
330
18
100
AcDbEntity
  8
0
  6
ByBlock
 62
     2
100
AcDbBlockReference
  2
_OPEN
 10
323.8765373177728
 20
233.6912941408564
 30
0.0
 41
2.5
 42
2.5
 43
2.5
  0
INSERT
  5
87F
330
18
100
AcDbEntity
  8
0
  6
ByBlock
 62
     2
100
AcDbBlockReference
  2
_OPEN
 10
327.8765373177727
 20
233.6912941408564
 30
0.0
 41
2.5
 42
2.5
 43
2.5
 50
180.0
  0
MTEXT
  5
880
330
18
100
AcDbEntity
  8
0
  6
ByBlock
 62
     6
100
AcDbMText
 10
333.3386808696831
 20
235.5662941408564
 30
0.0
 40
2.5
 41
0.0
 71
     5
 72
     1
  1
\A1;4
  7
STYLE3
 73
     1
 44
1.0
  0
POINT
  5
881
330
18
100
AcDbEntity
  8
DEFPOINTS
  6
ByBlock
 62
     0
100
AcDbPoint
 10
323.8765373177728
 20
230.9583351960701
 30
0.0
  0
TEXT
  5
884
330
18
100
AcDbEntity
  8
文字
100
AcDbText
 10
330.1445486119964
 20
235.0690300899712
 30
0.0
 40
2.5
  1
φ
  7
STYLE3
100
AcDbText
  0
TEXT
  5
885
330
18
100
AcDbEntity
  8
文字
100
AcDbText
 10
321.8889811077124
 20
249.4150679382905
 30
0.0
 40
2.5
  1
φ
  7
STYLE3
100
AcDbText
  0
MTEXT
  5
887
330
18
100
AcDbEntity
  8
文字
100
AcDbMText
 10
302.9558756866726
 20
261.6432165871282
 30
0.0
 40
1.0
 41
6.927999999999999
 71
     1
 72
     5
  1

  7
STYLE3
 73
     1
 44
1.0
  0
LINE
  5
8FD
330
18
100
AcDbEntity
  8
0
  6
ByBlock
 62
     2
100
AcDbLine
 10
411.2626787509934
 20
231.2224354128728
 30
0.0
 11
386.7336328858509
 21
231.2224354128728
 31
0.0
  0
LINE
  5
8FF
330
18
100
AcDbEntity
  8
0
  6
ByBlock
 62
     2
100
AcDbLine
 10
387.9836328858509
 20
228.7224354128728
 30
0.0
 11
387.9836328858509
 21
224.7224354128728
 31
0.0
  0
INSERT
  5
900
330
18
100
AcDbEntity
  8
0
  6
ByBlock
 62
     2
100
AcDbBlockReference
  2
_OPEN
 10
387.9836328858509
 20
231.2224354128728
 30
0.0
 41
2.5
 42
2.5
 43
2.5
 50
90.0
  0
INSERT
  5
901
330
18
100
AcDbEntity
  8
0
  6
ByBlock
 62
     2
100
AcDbBlockReference
  2
_OPEN
 10
387.9836328858509
 20
222.2224354128728
 30
0.0
 41
2.5
 42
2.5
 43
2.5
 50
270.0
  0
MTEXT
  5
902
330
18
100
AcDbEntity
  8
0
  6
ByBlock
 62
     6
100
AcDbMText
 10
386.1086328858509
 20
226.7224354128728
 30
0.0
 40
2.5
 41
0.0
 71
     5
 72
     1
  1
\A1;9
  7
STYLE3
 11
0.0000000000000001
 21
1.0
 31
0.0
 73
     1
 44
1.0
  0
POINT
  5
903
330
18
100
AcDbEntity
  8
DEFPOINTS
  6
ByBlock
 62
     0
100
AcDbPoint
 10
411.2626787509934
 20
231.2224354128728
 30
0.0
  0
LINE
  5
907
330
18
100
AcDbEntity
  8
0
  6
ByBlock
 62
     2
100
AcDbLine
 10
409.5126787509933
 20
241.7224354128728
 30
0.0
 11
397.9684805598795
 21
241.7224354128728
 31
0.0
  0
LINE
  5
908
330
18
100
AcDbEntity
  8
0
  6
ByBlock
 62
     2
100
AcDbLine
 10
399.2184805598796
 20
253.3224354128728
 30
0.0
 11
399.2184805598796
 21
244.2224354128728
 31
0.0
  0
INSERT
  5
909
330
18
100
AcDbEntity
  8
0
  6
ByBlock
 62
     2
100
AcDbBlockReference
  2
_OPEN
 10
399.2184805598796
 20
255.8224354128729
 30
0.0
 41
2.5
 42
2.5
 43
2.5
 50
90.0
  0
INSERT
  5
90A
330
18
100
AcDbEntity
  8
0
  6
ByBlock
 62
     2
100
AcDbBlockReference
  2
_OPEN
 10
399.2184805598796
 20
241.7224354128728
 30
0.0
 41
2.5
 42
2.5
 43
2.5
 50
270.0
  0
MTEXT
  5
90B
330
18
100
AcDbEntity
  8
0
  6
ByBlock
 62
     6
100
AcDbMText
 10
397.3434805598795
 20
248.7724354128728
 30
0.0
 40
2.5
 41
0.0
 71
     5
 72
     1
  1
14
  7
STYLE3
 11
0.0000000000000001
 21
1.0
 31
0.0
 73
     1
 44
1.0
  0
POINT
  5
90D
330
18
100
AcDbEntity
  8
DEFPOINTS
  6
ByBlock
 62
     0
100
AcDbPoint
 10
409.5126787509933
 20
241.7224354128728
 30
0.0
  0
POINT
  5
90E
330
18
100
AcDbEntity
  8
DEFPOINTS
  6
ByBlock
 62
     0
100
AcDbPoint
 10
399.2184805598796
 20
241.7224354128728
 30
0.0
  0
LINE
  5
910
330
18
100
AcDbEntity
  8
0
  6
ByBlock
 62
     2
100
AcDbLine
 10
410.1126787509933
 20
237.2224354128728
 30
0.0
 11
386.7336328858508
 21
237.2224354128728
 31
0.0
  0
LINE
  5
911
330
18
100
AcDbEntity
  8
0
  6
ByBlock
 62
     2
100
AcDbLine
 10
387.9836328858508
 20
253.3224354128728
 30
0.0
 11
387.9836328858508
 21
239.7224354128728
 31
0.0
  0
INSERT
  5
912
330
18
100
AcDbEntity
  8
0
  6
ByBlock
 62
     2
100
AcDbBlockReference
  2
_OPEN
 10
387.9836328858508
 20
255.8224354128729
 30
0.0
 41
2.5
 42
2.5
 43
2.5
 50
90.0
  0
INSERT
  5
913
330
18
100
AcDbEntity
  8
0
  6
ByBlock
 62
     2
100
AcDbBlockReference
  2
_OPEN
 10
387.9836328858508
 20
237.2224354128728
 30
0.0
 41
2.5
 42
2.5
 43
2.5
 50
270.0
  0
MTEXT
  5
914
330
18
100
AcDbEntity
  8
0
  6
ByBlock
 62
     6
100
AcDbMText
 10
386.1086328858508
 20
246.5224354128728
 30
0.0
 40
2.5
 41
0.0
 71
     5
 72
     1
  1
18.5
  7
STYLE3
 11
0.0000000000000001
 21
1.0
 31
0.0
 73
     1
 44
1.0
  0
POINT
  5
916
330
18
100
AcDbEntity
  8
DEFPOINTS
  6
ByBlock
 62
     0
100
AcDbPoint
 10
410.1126787509933
 20
237.2224354128728
 30
0.0
  0
POINT
  5
917
330
18
100
AcDbEntity
  8
DEFPOINTS
  6
ByBlock
 62
     0
100
AcDbPoint
 10
387.9836328858508
 20
237.2224354128728
 30
0.0
  0
TEXT
  5
93E
330
18
100
AcDbEntity
  8
文字
100
AcDbText
 10
453.2408147206834
 20
277.1153531258555
 30
0.0
 40
2.5
  1
φ
 50
90.0
  7
STYLE3
100
AcDbText
  0
LWPOLYLINE
  5
96E
330
18
100
AcDbEntity
  8
C
100
AcDbPolyline
 90
        5
 70
     0
 43
0.4
 10
236.6915604445414
 20
366.8501752555372
 10
491.6915604445414
 20
366.8501752555372
 10
491.6915604445414
 20
171.8501752555372
 10
236.6915604445414
 20
171.8501752555372
 10
236.6915604445414
 20
366.8501752555372
  0
MTEXT
  5
EB4
330
18
100
AcDbEntity
  8
DEFPOINTS
  6
Continuous
100
AcDbMText
 10
624.6916853418142
 20
184.890767874579
 30
0.0
 40
0.35
 41
0.0
 71
     4
 72
     1
  1
\A1;
 73
     1
 44
1.0
  0
TEXT
  5
F31
330
18
100
AcDbEntity
  8
文字
100
AcDbText
 10
321.217111658692
 20
335.7807486381801
 30
0.0
 40
2.5
  1
φ
  7
STYLE3
100
AcDbText
  0
LINE
  5
F32
330
18
100
AcDbEntity
  8
0
  6
ByBlock
 62
     2
100
AcDbLine
 10
420.0126787509932
 20
306.7224354128728
 30
0.0
 11
455.2892957657062
 21
306.7224354128728
 31
0.0
  0
LINE
  5
F33
330
18
100
AcDbEntity
  8
0
  6
ByBlock
 62
     2
100
AcDbLine
 10
420.0126787509932
 20
257.7224354128727
 30
0.0
 11
455.2892957657062
 21
257.7224354128728
 31
0.0
  0
LINE
  5
F34
330
18
100
AcDbEntity
  8
0
  6
ByBlock
 62
     2
100
AcDbLine
 10
454.0392957657062
 20
304.2224354128728
 30
0.0
 11
454.0392957657062
 21
260.2224354128728
 31
0.0
  0
INSERT
  5
F35
330
18
100
AcDbEntity
  8
0
  6
ByBlock
 62
     2
100
AcDbBlockReference
  2
_OPEN
 10
454.0392957657062
 20
306.7224354128728
 30
0.0
 41
2.5
 42
2.5
 43
2.5
 50
90.0
  0
INSERT
  5
F36
330
18
100
AcDbEntity
  8
0
  6
ByBlock
 62
     2
100
AcDbBlockReference
  2
_OPEN
 10
454.0392957657062
 20
257.7224354128728
 30
0.0
 41
2.5
 42
2.5
 43
2.5
 50
270.0
  0
MTEXT
  5
F37
330
18
100
AcDbEntity
  8
0
  6
ByBlock
 62
     6
100
AcDbMText
 10
452.0444523292563
 20
282.2224354128728
 30
0.0
 40
2.5
 41
0.0
 71
     5
 72
     1
  1
\A1;49
  7
STYLE3
 11
0.0000000000000001
 21
1.0
 31
0.0
 73
     1
 44
1.0
  0
POINT
  5
F3A
330
18
100
AcDbEntity
  8
DEFPOINTS
  6
ByBlock
 62
     0
100
AcDbPoint
 10
454.0392957657062
 20
257.7224354128728
 30
0.0
  0
ARC
  5
F7B
330
18
100
AcDbEntity
  8
外形線
100
AcDbCircle
 10
433.5126787509933
 20
282.2224354128728
 30
0.0
 40
8.0
100
AcDbArc
 50
270.0
 51
90.0
  0
CIRCLE
  5
F7C
330
18
100
AcDbEntity
  8
外形線
100
AcDbCircle
 10
433.5126787509933
 20
282.2224354128728
 30
0.0
 40
3.25
  0
ARC
  5
F7D
330
18
100
AcDbEntity
  8
外形線
100
AcDbCircle
 10
433.5126787509933
 20
282.2224354128728
 30
0.0
 40
7.5
100
AcDbArc
 50
270.0
 51
90.0
  0
LINE
  5
F7E
330
18
100
AcDbEntity
  8
外形線
100
AcDbLine
 10
433.5126787509933
 20
290.2224354128728
 30
0.0
 11
423.6814638517062
 21
290.2224354128728
 31
0.0
  0
LINE
  5
F7F
330
18
100
AcDbEntity
  8
外形線
100
AcDbLine
 10
433.5126787509933
 20
274.2224354128728
 30
0.0
 11
423.6814638517062
 21
274.2224354128728
 31
0.0
  0
LINE
  5
F8E
330
18
100
AcDbEntity
  8
外形線
100
AcDbLine
 10
420.0126787509932
 20
305.3224354128728
 30
0.0
 11
420.2126787509932
 21
305.3224354128727
 31
0.0
  0
LINE
  5
F8F
330
18
100
AcDbEntity
  8
外形線
100
AcDbLine
 10
420.0126787509932
 20
259.1224354128728
 30
0.0
 11
420.2126787509932
 21
259.1224354128728
 31
0.0
  0
ARC
  5
F90
330
18
100
AcDbEntity
  8
外形線
100
AcDbCircle
 10
433.5126787509933
 20
282.2224354128728
 30
0.0
 40
8.0
100
AcDbArc
 50
270.0
 51
90.0
  0
LINE
  5
F96
330
18
100
AcDbEntity
  8
外形線
100
AcDbLine
 10
433.5126787509933
 20
289.7224354128728
 30
0.0
 11
422.5126787509933
 21
289.7224354128728
 31
0.0
  0
LINE
  5
F97
330
18
100
AcDbEntity
  8
外形線
100
AcDbLine
 10
433.5126787509933
 20
274.7224354128728
 30
0.0
 11
422.5126787509933
 21
274.7224354128728
 31
0.0
  0
LINE
  5
F9A
330
18
100
AcDbEntity
  8
中心線
 48
0.5
100
AcDbLine
 10
433.5126787509932
 20
294.1574036684505
 30
0.0
 11
433.5126787509935
 21
248.1772029032184
 31
0.0
  0
LINE
  5
FA4
330
18
100
AcDbEntity
  8
想像線
 48
0.5
100
AcDbLine
 10
429.0126787509932
 20
274.2224354128728
 30
0.0
 11
429.0126787509932
 21
290.2224354128728
 31
0.0
  0
LINE
  5
FA5
330
18
100
AcDbEntity
  8
想像線
 48
0.5
100
AcDbLine
 10
424.0126787509932
 20
274.2208496694199
 30
0.0
 11
424.0126787509932
 21
290.2240211563257
 31
0.0
  0
LINE
  5
FD6
330
18
100
AcDbEntity
  8
0
  6
ByBlock
 62
     2
100
AcDbLine
 10
416.0126787509933
 20
249.4272029032184
 30
0.0
 11
431.0126787509933
 21
249.4272029032184
 31
0.0
  0
INSERT
  5
FD7
330
18
100
AcDbEntity
  8
0
  6
ByBlock
 62
     2
100
AcDbBlockReference
  2
_OPEN
 10
413.5126787509933
 20
249.4272029032184
 30
0.0
 41
2.5
 42
2.5
 43
2.5
 50
180.0
  0
INSERT
  5
FD8
330
18
100
AcDbEntity
  8
0
  6
ByBlock
 62
     2
100
AcDbBlockReference
  2
_OPEN
 10
433.5126787509933
 20
249.4272029032184
 30
0.0
 41
2.5
 42
2.5
 43
2.5
  0
MTEXT
  5
FD9
330
18
100
AcDbEntity
  8
0
  6
ByBlock
 62
     6
100
AcDbMText
 10
423.5126787509933
 20
251.3022029032184
 30
0.0
 40
2.5
 41
0.0
 71
     5
 72
     1
  1
\A1;20
  7
STYLE3
 73
     1
 44
1.0
  0
POINT
  5
FDC
330
18
100
AcDbEntity
  8
DEFPOINTS
  6
ByBlock
 62
     0
100
AcDbPoint
 10
433.5126787509933
 20
249.4272029032184
 30
0.0
  0
LINE
  5
FDD
330
18
100
AcDbEntity
  8
0
  6
ByBlock
 62
     2
100
AcDbLine
 10
422.5126787509933
 20
289.7224354128728
 30
0.0
 11
422.5126787509933
 21
261.187989897519
 31
0.0
  0
LINE
  5
FDF
330
18
100
AcDbEntity
  8
0
  6
ByBlock
 62
     2
100
AcDbLine
 10
425.0126787509932
 20
262.437989897519
 30
0.0
 11
431.0126787509933
 21
262.437989897519
 31
0.0
  0
INSERT
  5
FE0
330
18
100
AcDbEntity
  8
0
  6
ByBlock
 62
     2
100
AcDbBlockReference
  2
_OPEN
 10
422.5126787509933
 20
262.437989897519
 30
0.0
 41
2.5
 42
2.5
 43
2.5
 50
180.0
  0
INSERT
  5
FE1
330
18
100
AcDbEntity
  8
0
  6
ByBlock
 62
     2
100
AcDbBlockReference
  2
_OPEN
 10
433.5126787509933
 20
262.437989897519
 30
0.0
 41
2.5
 42
2.5
 43
2.5
  0
MTEXT
  5
FE2
330
18
100
AcDbEntity
  8
0
  6
ByBlock
 62
     6
100
AcDbMText
 10
428.0126787509932
 20
264.312989897519
 30
0.0
 40
2.5
 41
0.0
 71
     5
 72
     1
  1
\A1;11
  7
STYLE3
 73
     1
 44
1.0
  0
POINT
  5
FE3
330
18
100
AcDbEntity
  8
DEFPOINTS
  6
ByBlock
 62
     0
100
AcDbPoint
 10
422.5126787509933
 20
289.7224354128728
 30
0.0
  0
ARC
  5
1008
330
18
100
AcDbEntity
  8
外形線
100
AcDbCircle
 10
272.88767875099
 20
282.2224354128728
 30
0.0
 40
149.1250000000032
100
AcDbArc
 50
351.0887943333476
 51
356.2059438278885
  0
ARC
  5
100B
330
18
100
AcDbEntity
  8
外形線
100
AcDbCircle
 10
272.88767875099
 20
282.2224354128728
 30
0.0
 40
149.1250000000032
100
AcDbArc
 50
3.794056172111559
 51
8.911205666652444
  0
ARC
  5
100C
330
18
100
AcDbEntity
  8
外形線
100
AcDbCircle
 10
423.6814638517062
 20
292.2224354128728
 30
0.0
 40
2.0
100
AcDbArc
 50
183.7940561721114
 51
270.0
  0
ARC
  5
100D
330
18
100
AcDbEntity
  8
外形線
100
AcDbCircle
 10
423.6814638517062
 20
272.2224354128728
 30
0.0
 40
2.0
100
AcDbArc
 50
90.0
 51
176.2059438278884
  0
ARC
  5
100F
330
18
100
AcDbEntity
  8
外形線
100
AcDbCircle
 10
272.887678750989
 20
282.2224354128728
 30
0.0
 40
149.1250000000042
100
AcDbArc
 50
356.2059438278885
 51
3.794056172111511
  0
LINE
  5
10CA
330
18
100
AcDbEntity
  8
0
  6
ByBlock
 62
     2
100
AcDbLine
 10
420.0126787509932
 20
306.7224354128728
 30
0.0
 11
420.0126787509932
 21
335.241240941626
 31
0.0
  0
LINE
  5
10CB
330
18
100
AcDbEntity
  8
0
  6
ByBlock
 62
     2
100
AcDbLine
 10
416.0126787509932
 20
333.9912409416259
 30
0.0
 11
417.5126787509932
 21
333.9912409416259
 31
0.0
  0
INSERT
  5
10CC
330
18
100
AcDbEntity
  8
0
  6
ByBlock
 62
     2
100
AcDbBlockReference
  2
_OPEN
 10
413.5126787509932
 20
333.9912409416259
 30
0.0
 41
2.5
 42
2.5
 43
2.5
 50
180.0
  0
INSERT
  5
10CD
330
18
100
AcDbEntity
  8
0
  6
ByBlock
 62
     2
100
AcDbBlockReference
  2
_OPEN
 10
420.0126787509932
 20
333.9912409416259
 30
0.0
 41
2.5
 42
2.5
 43
2.5
  0
MTEXT
  5
10CE
330
18
100
AcDbEntity
  8
0
  6
ByBlock
 62
     6
100
AcDbMText
 10
416.7626787509932
 20
335.866240941626
 30
0.0
 40
2.5
 41
0.0
 71
     5
 72
     1
  1
\A1;6.5
  7
STYLE3
 73
     1
 44
1.0
  0
POINT
  5
10CF
330
18
100
AcDbEntity
  8
DEFPOINTS
  6
ByBlock
 62
     0
100
AcDbPoint
 10
413.5126787509932
 20
306.7224354128728
 30
0.0
  0
POINT
  5
10D0
330
18
100
AcDbEntity
  8
DEFPOINTS
  6
ByBlock
 62
     0
100
AcDbPoint
 10
420.0126787509932
 20
306.7224354128728
 30
0.0
  0
POINT
  5
10D1
330
18
100
AcDbEntity
  8
DEFPOINTS
  6
ByBlock
 62
     0
100
AcDbPoint
 10
420.0126787509932
 20
333.9912409416259
 30
0.0
  0
LINE
  5
10D2
330
18
100
AcDbEntity
  8
0
  6
ByBlock
 62
     2
100
AcDbLine
 10
399.0126787509932
 20
282.2224354128728
 30
0.0
 11
399.0126787509932
 21
335.241240941626
 31
0.0
  0
LINE
  5
10D4
330
18
100
AcDbEntity
  8
0
  6
ByBlock
 62
     2
100
AcDbLine
 10
401.5126787509932
 20
333.9912409416259
 30
0.0
 11
411.0126787509932
 21
333.9912409416259
 31
0.0
  0
INSERT
  5
10D5
330
18
100
AcDbEntity
  8
0
  6
ByBlock
 62
     2
100
AcDbBlockReference
  2
_OPEN
 10
399.0126787509932
 20
333.9912409416259
 30
0.0
 41
2.5
 42
2.5
 43
2.5
 50
180.0
  0
INSERT
  5
10D6
330
18
100
AcDbEntity
  8
0
  6
ByBlock
 62
     2
100
AcDbBlockReference
  2
_OPEN
 10
413.5126787509932
 20
333.9912409416259
 30
0.0
 41
2.5
 42
2.5
 43
2.5
  0
MTEXT
  5
10D7
330
18
100
AcDbEntity
  8
0
  6
ByBlock
 62
     6
100
AcDbMText
 10
406.2626787509932
 20
335.866240941626
 30
0.0
 40
2.5
 41
0.0
 71
     5
 72
     1
  1
\A1;14.5
  7
STYLE3
 73
     1
 44
1.0
  0
POINT
  5
10D8
330
18
100
AcDbEntity
  8
DEFPOINTS
  6
ByBlock
 62
     0
100
AcDbPoint
 10
399.0126787509932
 20
282.2224354128728
 30
0.0
  0
POINT
  5
10D9
330
18
100
AcDbEntity
  8
DEFPOINTS
  6
ByBlock
 62
     0
100
AcDbPoint
 10
413.5126787509932
 20
323.7224354128728
 30
0.0
  0
POINT
  5
10DA
330
18
100
AcDbEntity
  8
DEFPOINTS
  6
ByBlock
 62
     0
100
AcDbPoint
 10
413.5126787509932
 20
333.9912409416259
 30
0.0
  0
CIRCLE
  5
111B
330
18
100
AcDbEntity
  8
針
100
AcDbCircle
 10
325.8765373177728
 20
282.2224354128727
 30
0.0
 40
1.9
  0
LINE
  5
1121
330
18
100
AcDbEntity
  8
針
100
AcDbLine
 10
313.0180732968321
 20
300.073709961828
 30
0.0
 11
324.5405244016212
 21
285.0820804062025
 31
0.0
  0
ARC
  5
1122
330
18
100
AcDbEntity
  8
針
100
AcDbCircle
 10
326.9675753847461
 20
286.8454361630798
 30
0.0
 40
3.0
100
AcDbArc
 50
216.0
 51
245.4722791770396
  0
LINE
  5
1124
330
18
100
AcDbEntity
  8
針
100
AcDbLine
 10
312.9452617673384
 20
300.0208092891218
 30
0.0
 11
313.0180732968321
 21
300.073709961828
 31
0.0
  0
ARC
  5
1126
330
18
100
AcDbEntity
  8
針
100
AcDbCircle
 10
321.1426530252463
 20
282.613382346574
 30
0.0
 40
3.0
100
AcDbArc
 50
6.527720822960331
 51
35.99999999999998
  0
LINE
  5
1127
330
18
100
AcDbEntity
  8
針
100
AcDbLine
 10
312.8724502378447
 20
299.9679086164154
 30
0.0
 11
323.5697040083711
 21
284.3767381034514
 31
0.0
  0
CIRCLE
  5
1129
330
18
100
AcDbEntity
  8
針
100
AcDbCircle
 10
325.8765373177728
 20
282.2224354128727
 30
0.0
 40
0.475
  0
CIRCLE
  5
112B
330
18
100
AcDbEntity
  8
針
100
AcDbCircle
 10
325.8765373177728
 20
282.2224354128727
 30
0.0
 40
1.5
  0
HATCH
  5
1137
330
18
100
AcDbEntity
  8
針
100
AcDbHatch
 10
0.0
 20
0.0
 30
0.0
210
0.0
220
0.0
230
1.0
  2
SOLID
 70
     1
 71
     0
 91
        2
 92
        7
 72
     1
 73
     1
 93
        5
 10
313.0180732968321
 20
300.073709961828
 42
0.0
 10
312.9452617673384
 20
300.0208092891218
 42
0.0
 10
312.8724502378447
 20
299.9679086164154
 42
0.0
 10
316.5524509440399
 20
294.6043340271876
 42
-0.0085634322047721
 10
316.9819531030262
 20
294.9163856115611
 42
0.0
 97
        0
 92
        7
 72
     1
 73
     1
 93
        6
 10
316.9819531030262
 20
294.9163856115611
 42
0.0085634322047721
 10
316.5524509440399
 20
294.6043340271876
 42
0.0
 10
323.5697040083714
 20
284.376738103451
 42
-0.1293106770632391
 10
324.1232039336057
 20
282.9544340767821
 42
-0.2805221108582334
 10
325.7221750310552
 20
284.1161545801306
 42
-0.1293106770632486
 10
324.5405244016214
 20
285.0820804062022
 42
0.0
 97
        0
 75
     0
 76
     1
 47
0.0423559757596284
 98
        2
 10
316.3651076163198
 20
295.2447857984267
 10
319.0571938421745
 20
291.755794909919
450
        0
451
        0
460
0.0
461
0.0
452
        0
462
0.0
453
        0
470

  0
TEXT
  5
127D
330
18
100
AcDbEntity
  8
文字
100
AcDbText
 10
335.1623409054078
 20
271.1136818525359
 30
0.0
 40
1.0
  1
F
 50
39.72416055040988
  7
STYLE3
100
AcDbText
  0
TEXT
  5
127E
330
18
100
AcDbEntity
  8
文字
100
AcDbText
 10
332.2517833332003
 20
269.2275177539094
 30
0.0
 40
1.0
  1
R
 50
26.06198672177309
  7
STYLE3
100
AcDbText
  0
TEXT
  5
127F
330
18
100
AcDbEntity
  8
文字
100
AcDbText
 10
331.3949006539423
 20
268.8052765051763
 30
0.0
 40
1.0
  1
P
 50
23.24053280085741
  7
STYLE3
100
AcDbText
  0
TEXT
  5
1280
330
18
100
AcDbEntity
  8
文字
100
AcDbText
 10
334.1279441397958
 20
270.4438873016968
 30
0.0
 40
1.0
  1
O
 50
27.6495577688412
  7
STYLE3
100
AcDbText
  0
TEXT
  5
1281
330
18
100
AcDbEntity
  8
文字
100
AcDbText
 10
333.1760852328667
 20
269.7972268628359
 30
0.0
 40
1.0
  1
O
 50
27.73777743938884
  7
STYLE3
100
AcDbText
  0
TEXT
  5
1282
330
18
100
AcDbEntity
  8
文字
100
AcDbText
 10
329.8602079146268
 20
268.2999416573727
 30
0.0
 40
1.0
  1
K
 50
16.11080334047189
  7
STYLE3
100
AcDbText
  0
TEXT
  5
1283
330
18
100
AcDbEntity
  8
文字
100
AcDbText
 10
328.7629520237199
 20
268.0834359560243
 30
0.0
 40
1.0
  1
C
 50
5.687207778684769
  7
STYLE3
100
AcDbText
  0
TEXT
  5
1284
330
18
100
AcDbEntity
  8
文字
100
AcDbText
 10
325.8864603615561
 20
267.7679161836603
 30
0.0
 40
1.0
  1
S
  7
STYLE3
100
AcDbText
  0
TEXT
  5
1285
330
18
100
AcDbEntity
  8
文字
100
AcDbText
 10
327.7406893504269
 20
267.920829359625
 30
0.0
 40
1.0
  1
O
 50
1.760930144340787
  7
STYLE3
100
AcDbText
  0
TEXT
  5
1286
330
18
100
AcDbEntity
  8
文字
100
AcDbText
 10
326.7792389729091
 20
267.8149448173087
 30
0.0
 40
1.0
  1
H
 50
3.041391095489256
  7
STYLE3
100
AcDbText
  0
HATCH
  5
1288
330
18
100
AcDbEntity
  8
ROGO
 62
     4
100
AcDbHatch
 10
0.0
 20
0.0
 30
0.0
210
0.0
220
0.0
230
1.0
  2
SOLID
 70
     1
 71
     1
 91
        1
 92
        7
 72
     0
 73
     1
 93
       11
 10
330.8454018438551
 20
291.3620966911947
 10
331.5632453388441
 20
291.3620966911947
 10
331.8167881467268
 20
291.8705731966507
 10
332.0703309546096
 20
291.3620966911948
 10
332.7881587437602
 20
291.3620966911947
 10
332.3024655923243
 20
292.3361474182824
 10
333.4825120707023
 20
293.3101981453698
 10
332.7646842815517
 20
293.3101981453699
 10
332.428576024565
 20
293.0975051092584
 10
332.5346316417157
 20
293.3101981453699
 10
331.8167881467268
 20
293.3101981453699
 97
       11
330
12D0
330
12D3
330
12D4
330
128A
330
12C0
330
1293
330
12BF
330
1289
330
12CF
330
12D2
330
12D1
 75
     0
 76
     1
 47
0.0514683685270805
 98
        1
 10
331.7550079915456
 20
292.4744246591084
450
        0
451
        0
460
0.0
461
0.0
452
        0
462
0.0
453
        0
470

  0
LINE
  5
1289
102
{ACAD_REACTORS
330
1288
102
}
330
18
100
AcDbEntity
  8
ROGO
 62
     4
100
AcDbLine
 10
331.8167881467268
 20
291.8705731966507
 30
0.0
 11
332.0703309546096
 21
291.3620966911947
 31
0.0
  0
LINE
  5
128A
102
{ACAD_REACTORS
330
1288
102
}
330
18
100
AcDbEntity
  8
ROGO
 62
     4
100
AcDbLine
 10
331.8167881467268
 20
293.3101981453699
 30
0.0
 11
332.5346316417157
 21
293.3101981453699
 31
0.0
  0
TEXT
  5
128B
330
18
100
AcDbEntity
  8
文字
100
AcDbText
 10
323.5343483343766
 20
286.7215839820064
 30
0.0
 40
1.3
  1
NO.5
  7
STYLE3
100
AcDbText
  0
TEXT
  5
128C
330
18
100
AcDbEntity
  8
文字
100
AcDbText
 10
319.5983808163889
 20
289.0312104825292
 30
0.0
 40
1.0
  1
MADE  IN  JAPAN
  7
STYLE3
100
AcDbText
  0
HATCH
  5
128D
330
18
100
AcDbEntity
  8
ROGO
 62
     4
100
AcDbHatch
 10
0.0
 20
0.0
 30
0.0
210
0.0
220
0.0
230
1.0
  2
SOLID
 70
     1
 71
     1
 91
        2
 92
        5
 93
        6
 72
     1
 10
318.3765373177728
 20
291.3620966911947
 11
319.2820981349722
 21
291.3620966911947
 72
     1
 10
319.2820981349722
 20
291.3620966911947
 11
319.5994183193024
 21
292.0634677987335
 72
     1
 10
319.5994183193024
 20
292.0634677987335
 11
320.4459319518608
 21
292.0634677987334
 72
     4
 94
        3
 73
     0
 74
     0
 95
       18
 96
       14
 40
0.108740278791501
 40
0.108740278791501
 40
0.108740278791501
 40
0.108740278791501
 40
0.6623149649549278
 40
1.384304701649787
 40
2.097394834876493
 40
2.774073369849618
 40
3.428974823686337
 40
4.005208313035923
 40
4.455173659284313
 40
4.720999734343524
 40
5.086034088486724
 40
5.569973738255373
 40
6.060470601257719
 40
6.060470601257719
 40
6.060470601257719
 40
6.060470601257719
 10
320.4459319518609
 20
292.0634677987334
 10
320.5055081828017
 20
292.0639114448862
 10
320.6427856316002
 20
292.0649337084813
 10
320.8348357082817
 20
292.1675310794701
 10
321.0169540533181
 20
292.2982326549649
 10
321.1636379909881
 20
292.4615306374206
 10
321.2550265035589
 20
292.6482339035123
 10
321.2691822952925
 20
292.827171834874
 10
321.2605405322227
 20
292.9687095140057
 10
321.198790794532
 20
293.0673647901719
 10
321.1345944069678
 20
293.1674898066578
 10
321.0168799398937
 20
293.2542218148329
 10
320.9204299788191
 20
293.2922233272271
 10
320.8713832119578
 20
293.3101981453699
 72
     1
 10
320.8713832119579
 20
293.3101981453699
 11
319.3404397997595
 21
293.3101981453699
 72
     1
 10
319.3404397997595
 20
293.3101981453699
 11
318.3765373177728
 21
291.3620966911947
 97
        6
330
12B5
330
1294
330
1297
330
1293
330
1295
330
1292
 92
       20
 93
        4
 72
     1
 10
319.7953455692533
 20
292.4965247521866
 11
319.9453523528434
 21
292.8280839442595
 72
     1
 10
319.9453523528434
 20
292.8280839442595
 11
320.3308058548416
 21
292.8280839442595
 72
     4
 94
        3
 73
     0
 74
     0
 95
       15
 96
       11
 40
0.0
 40
0.0
 40
0.0
 40
0.0
 40
0.1461831775054869
 40
0.2128346657926855
 40
0.2884885421222081
 40
0.3400274801801145
 40
0.4215368452530754
 40
0.4703587283434508
 40
0.5541210812769089
 40
0.5820418834082098
 40
0.5820418834082098
 40
0.5820418834082098
 40
0.5820418834082098
 10
320.3308058548416
 20
292.8280839442594
 10
320.3857094214899
 20
292.8283354319014
 10
320.4656459946156
 20
292.8287015840752
 10
320.5093581598201
 20
292.7298198119506
 10
320.4897642831721
 20
292.6661553760706
 10
320.4651331832991
 20
292.6007918431922
 10
320.4216044512477
 20
292.5563763367793
 10
320.3631825170536
 20
292.5135967166831
 10
320.3079709973776
 20
292.5084180521123
 10
320.2720621015304
 20
292.4989034130827
 10
320.2630848732714
 20
292.4965247521866
 72
     1
 10
320.2630848732714
 20
292.4965247521866
 11
319.7953455692533
 21
292.4965247521866
 97
        4
330
1296
330
1291
330
12B4
330
1290
 75
     0
 76
     1
 47
0.0514683685270805
 98
        2
 10
319.3486224547748
 20
292.7042868924834
 10
319.3486224547748
 20
292.7042868924834
450
        0
451
        0
460
0.0
461
0.0
452
        0
462
0.0
453
        0
470

  0
HATCH
  5
128E
330
18
100
AcDbEntity
  8
ROGO
 62
     4
100
AcDbHatch
 10
0.0
 20
0.0
 30
0.0
210
0.0
220
0.0
230
1.0
  2
SOLID
 70
     1
 71
     0
 91
        1
 92
        7
 72
     0
 73
     1
 93
        4
 10
319.3704429527809
 20
291.5573647698472
 10
319.2820981349722
 20
291.3620966911947
 10
330.8454018438551
 20
291.3620966911947
 10
330.9427688144432
 20
291.5573647698472
 97
        0
 75
     0
 76
     1
 47
0.0514683685270805
 98
        1
 10
326.6774277579762
 20
291.5057195012286
450
        0
451
        0
460
0.0
461
0.0
452
        0
462
0.0
453
        0
470

  0
LINE
  5
128F
330
18
100
AcDbEntity
  8
ROGO
 62
     4
100
AcDbLine
 10
319.3569009044473
 20
291.5573647698472
 30
0.0
 11
330.9427688144432
 21
291.5573647698472
 31
0.0
  0
LINE
  5
1290
102
{ACAD_REACTORS
330
128D
102
}
330
18
100
AcDbEntity
  8
ROGO
 62
     4
100
AcDbLine
 10
320.2630848732716
 20
292.4965247521866
 30
0.0
 11
319.7953455692533
 21
292.4965247521866
 31
0.0
  0
LINE
  5
1291
102
{ACAD_REACTORS
330
128D
102
}
330
18
100
AcDbEntity
  8
ROGO
 62
     4
100
AcDbLine
 10
320.3308058548417
 20
292.8280839442594
 30
0.0
 11
319.9453523528434
 21
292.8280839442594
 31
0.0
  0
LINE
  5
1292
102
{ACAD_REACTORS
330
128D
102
}
330
18
100
AcDbEntity
  8
ROGO
 62
     4
100
AcDbLine
 10
320.4459319521544
 20
292.0634677987334
 30
0.0
 11
319.5994183193023
 21
292.0634677987334
 31
0.0
  0
LINE
  5
1293
102
{ACAD_REACTORS
330
128D
330
1288
102
}
330
18
100
AcDbEntity
  8
ROGO
 62
     4
100
AcDbLine
 10
318.3765373177728
 20
291.3620966911947
 30
0.0
 11
331.5632453388441
 21
291.3620966911947
 31
0.0
  0
LINE
  5
1294
102
{ACAD_REACTORS
330
128D
102
}
330
18
100
AcDbEntity
  8
ROGO
 62
     4
100
AcDbLine
 10
319.3404397997595
 20
293.3101981453699
 30
0.0
 11
320.8713832119578
 21
293.3101981453699
 31
0.0
  0
LINE
  5
1295
102
{ACAD_REACTORS
330
128D
102
}
330
18
100
AcDbEntity
  8
ROGO
 62
     4
100
AcDbLine
 10
319.5994183193023
 20
292.0634677987334
 30
0.0
 11
319.2820981349722
 21
291.3620966911947
 31
0.0
  0
LINE
  5
1296
102
{ACAD_REACTORS
330
128D
102
}
330
18
100
AcDbEntity
  8
ROGO
 62
     4
100
AcDbLine
 10
319.9453523528434
 20
292.8280839442594
 30
0.0
 11
319.7953455692533
 21
292.4965247521866
 31
0.0
  0
LINE
  5
1297
102
{ACAD_REACTORS
330
128D
102
}
330
18
100
AcDbEntity
  8
ROGO
 62
     4
100
AcDbLine
 10
319.3404397997595
 20
293.3101981453699
 30
0.0
 11
318.3765373177728
 21
291.3620966911947
 31
0.0
  0
HATCH
  5
1298
330
18
100
AcDbEntity
  8
ROGO
 62
     4
100
AcDbHatch
 10
0.0
 20
0.0
 30
0.0
210
0.0
220
0.0
230
1.0
  2
SOLID
 70
     1
 71
     1
 91
        1
 92
        5
 93
        8
 72
     1
 10
327.3072970864574
 20
292.8463336243762
 11
327.5385949180543
 21
293.3101981453699
 72
     1
 10
327.5385949180543
 20
293.3101981453699
 11
326.2900688212913
 21
293.3101981453699
 72
     4
 94
        3
 73
     0
 74
     0
 95
       26
 96
       22
 40
0.0
 40
0.0
 40
0.0
 40
0.0
 40
0.2261711682465229
 40
0.3775752524709292
 40
0.4867499270747143
 40
0.568267124049349
 40
0.6739992068898783
 40
0.7511733198246171
 40
0.8905317800930589
 40
1.003967563249478
 40
1.081122071918962
 40
1.156776017963922
 40
1.292106219407743
 40
1.387800824155796
 40
1.439339762213627
 40
1.512549301287547
 40
1.565415552119591
 40
1.642001295672489
 40
1.685342202005951
 40
1.779656875742602
 40
1.822721775074863
 40
1.822721775074863
 40
1.822721775074863
 40
1.822721775074863
 10
326.2900688212907
 20
293.3101981453699
 10
326.2133028322501
 20
293.3056181548238
 10
326.0851479577013
 20
293.2979722152458
 10
325.944434685049
 20
293.2124904132581
 10
325.8413399036976
 20
293.1627950500714
 10
325.7678128306662
 20
293.0952384375855
 10
325.7139171880778
 20
293.0254573918045
 10
325.6459716127567
 20
292.9423137874045
 10
325.5905639376292
 20
292.8454964245779
 10
325.5623481771363
 20
292.7387868122671
 10
325.5373549242883
 20
292.6537386321065
 10
325.5188195095657
 20
292.5589635343314
 10
325.5235354438018
 20
292.4565730885984
 10
325.5302888774593
 20
292.3614780844475
 10
325.5604413165207
 20
292.2935944891586
 10
325.5947796036945
 20
292.2452660471158
 10
325.6368263660784
 20
292.1920376261279
 10
325.6828347189984
 20
292.1567846152679
 10
325.720887382326
 20
292.0929214171497
 10
325.7874972857994
 20
292.0847720124855
 10
325.8298371904214
 20
292.0685522649317
 10
325.8431096419915
 20
292.0634677987334
 72
     1
 10
325.8431096419914
 20
292.0634677987334
 11
326.9169349015793
 21
292.0634677987334
 72
     1
 10
326.9169349015793
 20
292.0634677987334
 11
327.1482302837954
 21
292.5273274075286
 72
     1
 10
327.1482302837954
 20
292.5273274075286
 11
326.3510175878811
 21
292.5273274075286
 72
     4
 94
        3
 73
     0
 74
     0
 95
       16
 96
       12
 40
0.0
 40
0.0
 40
0.0
 40
0.0
 40
0.0683030918787651
 40
0.1373106805328241
 40
0.1784706056911381
 40
0.2179345026857031
 40
0.2612752368189221
 40
0.2915411730568249
 40
0.3202609197926786
 40
0.3785004428982989
 40
0.4977391777073984
 40
0.4977391777073984
 40
0.4977391777073984
 40
0.4977391777073984
 10
326.3510175878811
 20
292.5273274075286
 10
326.3269708435509
 20
292.5344023122992
 10
326.2786293301908
 20
292.5486250943436
 10
326.2745835358891
 20
292.617571916666
 10
326.2800953453004
 20
292.66670216947
 10
326.3031788154253
 20
292.7024718625333
 10
326.3311830684614
 20
292.7284990205895
 10
326.3416102938899
 20
292.7623953244525
 10
326.3722601730172
 20
292.7879912746666
 10
326.4266106211775
 20
292.8310144914592
 10
326.4867128082224
 20
292.8401774753447
 10
326.5270924514908
 20
292.8463336243762
 72
     1
 10
326.5270924514908
 20
292.8463336243762
 11
327.3072970864574
 21
292.8463336243762
 97
        8
330
12C9
330
1299
330
129A
330
12CA
330
12CC
330
12CB
330
12CD
330
12CE
 75
     0
 76
     1
 47
0.0514683685270805
 98
        1
 10
326.7267246232024
 20
293.0326613540227
450
        0
451
        0
460
0.0
461
0.0
452
        0
462
0.0
453
        0
470

  0
SPLINE
  5
1299
102
{ACAD_REACTORS
330
1298
102
}
330
18
100
AcDbEntity
  8
ROGO
 62
     4
100
AcDbSpline
210
0.0
220
0.0
230
1.0
 70
     8
 71
     3
 72
    26
 73
    22
 74
    20
 42
0.0000000001
 43
0.0000000001
 44
0.0000000001
 40
0.0
 40
0.0
 40
0.0
 40
0.0
 40
0.2261711682465229
 40
0.3775752524709292
 40
0.4867499270747143
 40
0.568267124049349
 40
0.6739992068898783
 40
0.7511733198246171
 40
0.8905317800930589
 40
1.003967563249478
 40
1.081122071918962
 40
1.156776017963922
 40
1.292106219407743
 40
1.387800824155796
 40
1.439339762213627
 40
1.512549301287547
 40
1.565415552119591
 40
1.642001295672489
 40
1.685342202005951
 40
1.779656875742602
 40
1.822721775074863
 40
1.822721775074863
 40
1.822721775074863
 40
1.822721775074863
 10
326.2900688212907
 20
293.3101981453699
 30
0.0
 10
326.2133028322501
 20
293.3056181548238
 30
0.0
 10
326.0851479577013
 20
293.2979722152458
 30
0.0
 10
325.944434685049
 20
293.2124904132581
 30
0.0
 10
325.8413399036976
 20
293.1627950500714
 30
0.0
 10
325.7678128306662
 20
293.0952384375855
 30
0.0
 10
325.7139171880778
 20
293.0254573918045
 30
0.0
 10
325.6459716127567
 20
292.9423137874045
 30
0.0
 10
325.5905639376292
 20
292.8454964245779
 30
0.0
 10
325.5623481771363
 20
292.7387868122671
 30
0.0
 10
325.5373549242883
 20
292.6537386321065
 30
0.0
 10
325.5188195095657
 20
292.5589635343314
 30
0.0
 10
325.5235354438018
 20
292.4565730885984
 30
0.0
 10
325.5302888774593
 20
292.3614780844475
 30
0.0
 10
325.5604413165207
 20
292.2935944891586
 30
0.0
 10
325.5947796036945
 20
292.2452660471158
 30
0.0
 10
325.6368263660784
 20
292.1920376261279
 30
0.0
 10
325.6828347189984
 20
292.1567846152679
 30
0.0
 10
325.720887382326
 20
292.0929214171497
 30
0.0
 10
325.7874972857994
 20
292.0847720124855
 30
0.0
 10
325.8298371904214
 20
292.0685522649317
 30
0.0
 10
325.8431096419915
 20
292.0634677987334
 30
0.0
 11
326.2900688212907
 21
293.3101981453699
 31
0.0
 11
326.066589231641
 21
293.2754092052307
 31
0.0
 11
325.9311468790916
 21
293.2077441045088
 31
0.0
 11
325.8363374270116
 21
293.1536120680503
 31
0.0
 11
325.7753886604212
 21
293.0994798109968
 31
0.0
 11
325.7076676788512
 21
293.0182816460115
 31
0.0
 11
325.6602629528111
 21
292.9573830774213
 31
0.0
 11
325.5925415818319
 21
292.8355857196459
 31
0.0
 11
325.5586812857513
 21
292.7273214261339
 31
0.0
 11
325.5383650302213
 21
292.6528897932802
 31
0.0
 11
325.5248206002617
 21
292.5784581604266
 31
0.0
 11
325.5248206002617
 21
292.4431279589828
 31
0.0
 11
325.5383650302213
 21
292.3483967297342
 31
0.0
 11
325.5586812857513
 21
292.3010310048124
 31
0.0
 11
325.5993137968116
 21
292.240132436222
 31
0.0
 11
325.6331744823013
 21
292.199533243432
 31
0.0
 11
325.6873510339117
 21
292.1454012069734
 31
0.0
 11
325.7144395044218
 21
292.1115685463149
 31
0.0
 11
325.8024771309312
 21
292.0777361062515
 31
0.0
 11
325.8431096419915
 21
292.0634677987334
 31
0.0
  0
LINE
  5
129A
102
{ACAD_REACTORS
330
1298
102
}
330
18
100
AcDbEntity
  8
ROGO
 62
     4
100
AcDbLine
 10
325.8431096419914
 20
292.0634677987334
 30
0.0
 11
326.9169349015794
 21
292.0634677987334
 31
0.0
  0
HATCH
  5
129B
330
18
100
AcDbEntity
  8
ROGO
 62
     4
100
AcDbHatch
 10
0.0
 20
0.0
 30
0.0
210
0.0
220
0.0
230
1.0
  2
SOLID
 70
     1
 71
     1
 91
        2
 92
        7
 72
     0
 73
     1
 93
        8
 10
324.9478315824597
 20
293.3101981453699
 10
323.9505540788808
 20
293.3101981453699
 10
323.0515125959996
 20
292.0634677987334
 10
323.7419780557466
 20
292.0634677987334
 10
323.9131499915397
 20
292.3008375429659
 10
324.7010545113047
 20
292.3008375429659
 10
324.8065035572631
 20
292.0634677987335
 10
325.501678603045
 20
292.0634677987335
 97
        8
330
12A2
330
12A8
330
12A3
330
12A4
330
12A6
330
129C
330
12A1
330
129E
 92
       22
 72
     0
 73
     1
 93
        3
 10
324.5898342227338
 20
292.5511985700534
 10
324.0936901938823
 20
292.5511985700534
 10
324.4007020962802
 20
292.976942056629
 97
        3
330
12A5
330
12A7
330
129D
 75
     0
 76
     1
 47
0.0128389261915577
 98
        2
 10
324.8697368739113
 20
293.0110900202815
 10
324.8697368739113
 20
293.0110900202815
450
        0
451
        0
460
0.0
461
0.0
452
        0
462
0.0
453
        0
470

  0
LINE
  5
129C
102
{ACAD_REACTORS
330
129B
102
}
330
18
100
AcDbEntity
  8
ROGO
 62
     4
100
AcDbLine
 10
324.7010545113047
 20
292.3008375429658
 30
0.0
 11
324.8065035572631
 21
292.0634677987334
 31
0.0
  0
LINE
  5
129D
102
{ACAD_REACTORS
330
129B
102
}
330
18
100
AcDbEntity
  8
ROGO
 62
     4
100
AcDbLine
 10
324.4007020962802
 20
292.9769420566289
 30
0.0
 11
324.5898342227337
 21
292.5511985700534
 31
0.0
  0
LINE
  5
129E
102
{ACAD_REACTORS
330
129B
102
}
330
18
100
AcDbEntity
  8
ROGO
 62
     4
100
AcDbLine
 10
324.9478315824598
 20
293.3101981453699
 30
0.0
 11
325.501678603045
 21
292.0634677987334
 31
0.0
  0
HATCH
  5
129F
330
18
100
AcDbEntity
  8
ROGO
 62
     4
100
AcDbHatch
 10
0.0
 20
0.0
 30
0.0
210
0.0
220
0.0
230
1.0
  2
SOLID
 70
     1
 71
     1
 91
        1
 92
        1
 93
       12
 72
     1
 10
321.7758265933591
 20
293.3101981453699
 11
323.4620812540875
 21
293.3101981453699
 72
     1
 10
323.4620812540875
 20
293.3101981453699
 11
323.3207746061148
 21
293.0246094146168
 72
     1
 10
323.3207746061148
 20
293.0246094146168
 11
322.4345217671455
 21
293.0246094146168
 72
     1
 10
322.4345217671455
 20
293.0246094146168
 11
322.3240375280028
 21
292.801314516056
 72
     1
 10
322.3240375280028
 20
292.801314516056
 11
323.210290366972
 21
292.801314516056
 72
     1
 10
323.210290366972
 20
292.801314516056
 11
323.0969991298948
 21
292.5723465158489
 72
     1
 10
323.0969991298948
 20
292.5723465158489
 11
322.2107462909256
 21
292.5723465158489
 72
     1
 10
322.2107462909256
 20
292.5723465158489
 11
322.1002573744111
 21
292.3490421640556
 72
     1
 10
322.1002573744112
 20
292.3490421640556
 11
322.9865102133804
 21
292.3490421640556
 72
     1
 10
322.9865102133804
 20
292.3490421640556
 11
322.8452106732893
 21
292.0634677987334
 72
     1
 10
322.8452106732893
 20
292.0634677987334
 11
321.1589560125609
 21
292.0634677987334
 72
     1
 10
321.1589560125609
 20
292.0634677987334
 11
321.7758265933591
 21
293.3101981453699
 97
       12
330
12A0
330
12B2
330
12AF
330
12B0
330
12AE
330
12AB
330
12AC
330
12A9
330
12AD
330
12AA
330
12B1
330
12B3
 75
     0
 76
     1
 98
        1
 10
252.8001039773075
 20
207.1043733915618
450
        0
451
        0
460
0.0
461
0.0
452
        0
462
0.0
453
        0
470

  0
LINE
  5
12A0
102
{ACAD_REACTORS
330
129F
102
}
330
18
100
AcDbEntity
  8
ROGO
 62
     4
100
AcDbLine
 10
321.7758265933591
 20
293.3101981453699
 30
0.0
 11
323.4620812540875
 21
293.3101981453699
 31
0.0
  0
LINE
  5
12A1
102
{ACAD_REACTORS
330
129B
102
}
330
18
100
AcDbEntity
  8
ROGO
 62
     4
100
AcDbLine
 10
325.501678603045
 20
292.0634677987335
 30
0.0
 11
324.8065035572631
 21
292.0634677987334
 31
0.0
  0
LINE
  5
12A2
102
{ACAD_REACTORS
330
129B
102
}
330
18
100
AcDbEntity
  8
ROGO
 62
     4
100
AcDbLine
 10
323.9505540788808
 20
293.3101981453699
 30
0.0
 11
324.9478315824598
 21
293.3101981453699
 31
0.0
  0
LINE
  5
12A3
102
{ACAD_REACTORS
330
129B
102
}
330
18
100
AcDbEntity
  8
ROGO
 62
     4
100
AcDbLine
 10
323.0515125959996
 20
292.0634677987334
 30
0.0
 11
323.7419780557465
 21
292.0634677987334
 31
0.0
  0
LINE
  5
12A4
102
{ACAD_REACTORS
330
129B
102
}
330
18
100
AcDbEntity
  8
ROGO
 62
     4
100
AcDbLine
 10
323.9131499915397
 20
292.3008375429658
 30
0.0
 11
323.7419780557467
 21
292.0634677987335
 31
0.0
  0
LINE
  5
12A5
102
{ACAD_REACTORS
330
129B
102
}
330
18
100
AcDbEntity
  8
ROGO
 62
     4
100
AcDbLine
 10
324.0936901938823
 20
292.5511985700534
 30
0.0
 11
324.5898342227337
 21
292.5511985700534
 31
0.0
  0
LINE
  5
12A6
102
{ACAD_REACTORS
330
129B
102
}
330
18
100
AcDbEntity
  8
ROGO
 62
     4
100
AcDbLine
 10
323.9131499915397
 20
292.3008375429658
 30
0.0
 11
324.7010545113047
 21
292.3008375429658
 31
0.0
  0
LINE
  5
12A7
102
{ACAD_REACTORS
330
129B
102
}
330
18
100
AcDbEntity
  8
ROGO
 62
     4
100
AcDbLine
 10
324.4007020962801
 20
292.9769420566289
 30
0.0
 11
324.0936901938823
 21
292.5511985700534
 31
0.0
  0
LINE
  5
12A8
102
{ACAD_REACTORS
330
129B
102
}
330
18
100
AcDbEntity
  8
ROGO
 62
     4
100
AcDbLine
 10
323.9505540788808
 20
293.3101981453699
 30
0.0
 11
323.0515125959996
 21
292.0634677987334
 31
0.0
  0
LINE
  5
12A9
102
{ACAD_REACTORS
330
129F
102
}
330
18
100
AcDbEntity
  8
ROGO
 62
     4
100
AcDbLine
 10
322.2107462909256
 20
292.5723465158489
 30
0.0
 11
322.1002573744111
 21
292.3490421640556
 31
0.0
  0
LINE
  5
12AA
102
{ACAD_REACTORS
330
129F
102
}
330
18
100
AcDbEntity
  8
ROGO
 62
     4
100
AcDbLine
 10
322.9865102133804
 20
292.3490421640556
 30
0.0
 11
322.8452106732893
 21
292.0634677987334
 31
0.0
  0
LINE
  5
12AB
102
{ACAD_REACTORS
330
129F
102
}
330
18
100
AcDbEntity
  8
ROGO
 62
     4
100
AcDbLine
 10
323.210290366972
 20
292.801314516056
 30
0.0
 11
323.0969991298948
 21
292.5723465158489
 31
0.0
  0
LINE
  5
12AC
102
{ACAD_REACTORS
330
129F
102
}
330
18
100
AcDbEntity
  8
ROGO
 62
     4
100
AcDbLine
 10
322.2107462909256
 20
292.5723465158489
 30
0.0
 11
323.0969991298948
 21
292.5723465158489
 31
0.0
  0
LINE
  5
12AD
102
{ACAD_REACTORS
330
129F
102
}
330
18
100
AcDbEntity
  8
ROGO
 62
     4
100
AcDbLine
 10
322.1002573744112
 20
292.3490421640556
 30
0.0
 11
322.9865102133804
 21
292.3490421640556
 31
0.0
  0
LINE
  5
12AE
102
{ACAD_REACTORS
330
129F
102
}
330
18
100
AcDbEntity
  8
ROGO
 62
     4
100
AcDbLine
 10
322.3240375280028
 20
292.801314516056
 30
0.0
 11
323.210290366972
 21
292.801314516056
 31
0.0
  0
LINE
  5
12AF
102
{ACAD_REACTORS
330
129F
102
}
330
18
100
AcDbEntity
  8
ROGO
 62
     4
100
AcDbLine
 10
322.4345217671455
 20
293.0246094146168
 30
0.0
 11
323.3207746061148
 21
293.0246094146168
 31
0.0
  0
LINE
  5
12B0
102
{ACAD_REACTORS
330
129F
102
}
330
18
100
AcDbEntity
  8
ROGO
 62
     4
100
AcDbLine
 10
322.4345217671455
 20
293.0246094146168
 30
0.0
 11
322.3240375280028
 21
292.801314516056
 31
0.0
  0
LINE
  5
12B1
102
{ACAD_REACTORS
330
129F
102
}
330
18
100
AcDbEntity
  8
ROGO
 62
     4
100
AcDbLine
 10
321.1589560125609
 20
292.0634677987334
 30
0.0
 11
322.8452106732893
 21
292.0634677987334
 31
0.0
  0
LINE
  5
12B2
102
{ACAD_REACTORS
330
129F
102
}
330
18
100
AcDbEntity
  8
ROGO
 62
     4
100
AcDbLine
 10
323.4620812540875
 20
293.3101981453699
 30
0.0
 11
323.3207746061148
 21
293.0246094146168
 31
0.0
  0
LINE
  5
12B3
102
{ACAD_REACTORS
330
129F
102
}
330
18
100
AcDbEntity
  8
ROGO
 62
     4
100
AcDbLine
 10
321.7758265933591
 20
293.3101981453699
 30
0.0
 11
321.1589560125609
 21
292.0634677987334
 31
0.0
  0
SPLINE
  5
12B4
102
{ACAD_REACTORS
330
128D
102
}
330
18
100
AcDbEntity
  8
ROGO
 62
     4
100
AcDbSpline
210
0.0
220
0.0
230
1.0
 70
     8
 71
     3
 72
    15
 73
    11
 74
     9
 42
0.0000000001
 43
0.0000000001
 44
0.0000000001
 40
0.0
 40
0.0
 40
0.0
 40
0.0
 40
0.1461831775054869
 40
0.2128346657926855
 40
0.2884885421222081
 40
0.3400274801801145
 40
0.4215368452530754
 40
0.4703587283434508
 40
0.5541210812769089
 40
0.5820418834082098
 40
0.5820418834082098
 40
0.5820418834082098
 40
0.5820418834082098
 10
320.3308058548416
 20
292.8280839442594
 30
0.0
 10
320.3857094214899
 20
292.8283354319014
 30
0.0
 10
320.4656459946156
 20
292.8287015840752
 30
0.0
 10
320.5093581598201
 20
292.7298198119506
 30
0.0
 10
320.4897642831721
 20
292.6661553760706
 30
0.0
 10
320.4651331832991
 20
292.6007918431922
 30
0.0
 10
320.4216044512477
 20
292.5563763367793
 30
0.0
 10
320.3631825170536
 20
292.5135967166831
 30
0.0
 10
320.3079709973776
 20
292.5084180521123
 30
0.0
 10
320.2720621015304
 20
292.4989034130827
 30
0.0
 10
320.2630848732714
 20
292.4965247521866
 30
0.0
 11
320.3308058548416
 21
292.8280839442594
 31
0.0
 11
320.4730200329616
 21
292.7942512836009
 31
0.0
 11
320.5001085034715
 21
292.7333527150107
 31
0.0
 11
320.4865644629212
 21
292.6589210821571
 31
0.0
 11
320.466248207391
 21
292.6115553572353
 31
0.0
 11
320.4120712663713
 21
292.5506567886452
 31
0.0
 11
320.371438755311
 21
292.5235906601184
 31
0.0
 11
320.2901733437814
 21
292.5032912843183
 31
0.0
 11
320.2630848732714
 21
292.4965247521866
 31
0.0
  0
SPLINE
  5
12B5
102
{ACAD_REACTORS
330
128D
102
}
330
18
100
AcDbEntity
  8
ROGO
 62
     4
100
AcDbSpline
210
0.0
220
0.0
230
1.0
 70
     8
 71
     3
 72
    18
 73
    14
 74
     0
 42
0.0000000001
 43
0.0000000001
 40
0.1087402787915014
 40
0.1087402787915014
 40
0.1087402787915014
 40
0.1087402787915014
 40
0.5992371417938475
 40
1.083176791562496
 40
1.448211145705696
 40
1.714037220764907
 40
2.164002567013297
 40
2.740236056362883
 40
3.395137510199602
 40
4.071816045172726
 40
4.784906178399433
 40
5.506895915094292
 40
6.060470601257719
 40
6.060470601257719
 40
6.060470601257719
 40
6.060470601257719
 10
320.8713832119578
 20
293.3101981453699
 30
0.0
 10
320.9204299788191
 20
293.2922233272271
 30
0.0
 10
321.0168799398937
 20
293.2542218148329
 30
0.0
 10
321.1345944069678
 20
293.1674898066578
 30
0.0
 10
321.198790794532
 20
293.0673647901719
 30
0.0
 10
321.2605405322227
 20
292.9687095140057
 30
0.0
 10
321.2691822952925
 20
292.827171834874
 30
0.0
 10
321.2550265035589
 20
292.6482339035123
 30
0.0
 10
321.1636379909881
 20
292.4615306374206
 30
0.0
 10
321.0169540533181
 20
292.2982326549649
 30
0.0
 10
320.8348357082817
 20
292.1675310794701
 30
0.0
 10
320.6427856316002
 20
292.0649337084813
 30
0.0
 10
320.5055081828017
 20
292.0639114448862
 30
0.0
 10
320.4459319518609
 20
292.0634677987334
 30
0.0
  0
HATCH
  5
12B6
330
18
100
AcDbEntity
  8
ROGO
 62
     4
100
AcDbHatch
 10
0.0
 20
0.0
 30
0.0
210
0.0
220
0.0
230
1.0
  2
SOLID
 70
     1
 71
     1
 91
        2
 92
        5
 93
        6
 72
     4
 94
        3
 73
     0
 74
     0
 95
       38
 96
       34
 40
0.0
 40
0.0
 40
0.0
 40
0.0
 40
0.1716253587406623
 40
0.2255253290976248
 40
0.2947831262912113
 40
0.352498070257192
 40
0.401194707389018
 40
0.4658749546664991
 40
0.4989240118098149
 40
0.5361459251283493
 40
0.5910040209698863
 40
0.6531463397142244
 40
0.6934574532944029
 40
0.7372488460652118
 40
0.7859279681112547
 40
0.8598010024797554
 40
0.9299880888722469
 40
0.962617715058074
 40
0.99982743872465
 40
1.043908673224191
 40
1.075288847593852
 40
1.101594470956001
 40
1.139152958423429
 40
1.180423302418936
 40
1.221693416627877
 40
1.257804824007385
 40
1.340506365805091
 40
1.373135991990864
 40
1.438395283121515
 40
1.496081593396144
 40
1.606517709645446
 40
1.74278444224538
 40
1.93957343352095
 40
1.93957343352095
 40
1.93957343352095
 40
1.93957343352095
 10
328.2309384019125
 20
293.3153983446764
 10
328.1737305255993
 20
293.3113570114742
 10
328.0985561735853
 20
293.3060464734097
 10
328.0031023239877
 20
293.279894964481
 10
327.9510694151202
 20
293.2487400962966
 10
327.896918773156
 20
293.2258397748342
 10
327.8507503075337
 20
293.1919289399844
 10
327.8040518792466
 20
293.174455013492
 10
327.771352210243
 20
293.1429464007243
 10
327.7335050106336
 20
293.1236995801094
 10
327.7033666136262
 20
293.0806196001115
 10
327.6696804338893
 20
293.0403413798975
 10
327.6306002275202
 20
293.0109400754819
 10
327.5985265776615
 20
292.9800601037799
 10
327.5691034637144
 20
292.9324030290676
 10
327.5516895480093
 20
292.8690808887111
 10
327.502602642596
 20
292.8291015729298
 10
327.4952116915356
 20
292.7810345064028
 10
327.4680602272474
 20
292.7526757460017
 10
327.4562538209702
 20
292.7160686604146
 10
327.4517573731598
 20
292.6825301038531
 10
327.446360563609
 20
292.6512074137418
 10
327.4322435319041
 20
292.6182573273628
 10
327.4368513797595
 20
292.5775552871895
 10
327.4355387422428
 20
292.5381421507231
 10
327.4363112309623
 20
292.4849331891971
 10
327.4335232121902
 20
292.4331277218138
 10
327.4557565693298
 20
292.3767510859406
 10
327.4689135322388
 20
292.3264991145126
 10
327.5049460154341
 20
292.2569191663296
 10
327.5671012938368
 20
292.1766389507343
 10
327.6852947548883
 20
292.0791939794172
 10
327.7989412233658
 20
292.0693086406724
 10
327.8660902686771
 20
292.0634677987334
 72
     1
 10
327.8660902686772
 20
292.0634677987334
 11
328.5785885872884
 21
292.0634677987333
 72
     4
 94
        3
 73
     0
 74
     0
 95
       11
 96
        7
 40
0.1647869275458135
 40
0.1647869275458135
 40
0.1647869275458135
 40
0.1647869275458135
 40
0.2545010798212315
 40
0.5111620267764023
 40
0.7602998271033902
 40
0.8850764140209603
 40
0.8850764140209603
 40
0.8850764140209603
 40
0.8850764140209603
 10
328.5785885872878
 20
292.0634677987334
 10
328.5885308530744
 20
292.0632761902669
 10
328.6269166953415
 20
292.0625364139891
 10
328.6925185598994
 20
292.0719608930611
 10
328.7615404607155
 20
292.0809921815796
 10
328.8026894252749
 20
292.0875693964869
 10
328.8159609790128
 20
292.0912635385283
 72
     4
 94
        3
 73
     0
 74
     0
 95
        9
 96
        5
 40
0.0
 40
0.0
 40
0.0
 40
0.0
 40
0.1078348623950619
 40
0.2528255661270943
 40
0.2528255661270943
 40
0.2528255661270943
 40
0.2528255661270943
 10
328.8159609790128
 20
292.0912635385283
 10
328.8506006567358
 20
292.1018613235469
 10
328.9318155434271
 20
292.1267084920556
 10
328.9989176440366
 20
292.1792232933601
 10
329.0373994358043
 20
292.2093395435246
 72
     4
 94
        3
 73
     0
 74
     0
 95
       25
 96
       21
 40
0.0
 40
0.0
 40
0.0
 40
0.0
 40
0.165525918914855
 40
0.3412380755365305
 40
0.5940540902285263
 40
0.7697671103696209
 40
0.9377330196075423
 40
1.11479469302833
 40
1.274661249598185
 40
1.574522170874768
 40
1.815540668866877
 40
2.15849091873445
 40
2.536227739636605
 40
2.738070817316548
 40
2.925680654369045
 40
3.162706124480894
 40
3.395643218188267
 40
3.648478129958861
 40
3.928509979727306
 40
4.337226830236035
 40
4.337226830236035
 40
4.337226830236035
 40
4.337226830236035
 10
329.0373994358043
 20
292.2093395435246
 10
329.0515388712031
 20
292.221023852536
 10
329.0783575143195
 20
292.2488135884754
 10
329.1259247939618
 20
292.2938545588606
 10
329.1678419828104
 20
292.3463308635957
 10
329.2195498530879
 20
292.3888610694751
 10
329.2464688086919
 20
292.4408573988744
 10
329.2852703582858
 20
292.4817514044225
 10
329.3178185045975
 20
292.5449081621816
 10
329.3454339980863
 20
292.6174552696854
 10
329.3717615578996
 20
292.7120190456004
 10
329.3818505504215
 20
292.8187010410705
 10
329.3669175868176
 20
292.9219158181492
 10
329.3308433216585
 20
292.9990654736676
 10
329.304321979552
 20
293.0633617602516
 10
329.2640725202323
 20
293.1242616645586
 10
329.2181533271353
 20
293.1904970453071
 10
329.1534613151497
 20
293.2452844284252
 10
329.0689154975654
 20
293.3113668409851
 10
328.9901673814736
 20
293.3138969367367
 10
328.9434367205233
 20
293.3153983446764
 72
     1
 10
328.9434367205232
 20
293.3153983446764
 11
328.2309384019126
 21
293.3153983446764
 97
        6
330
12BC
330
12BB
330
12BD
330
12BA
330
12B9
330
12B8
 92
       20
 93
        1
 72
     3
 10
328.3946744139207
 20
292.6719780034544
 11
0.1692676504802256
 21
0.148849717495386
 40
0.6788083417438791
 50
0.0
 51
360.0
 73
     1
 97
        1
330
12B7
 75
     0
 76
     1
 47
0.088756267210375
 98
        2
 10
328.4444538869191
 20
292.9696101110019
 10
328.4444538869191
 20
292.9696101110019
450
        0
451
        0
460
0.0
461
0.0
452
        0
462
0.0
453
        0
470

  0
ELLIPSE
  5
12B7
102
{ACAD_REACTORS
330
12B6
102
}
330
18
100
AcDbEntity
  8
ROGO
 62
     4
100
AcDbEllipse
 10
328.3946744139207
 20
292.6719780034544
 30
0.0
 11
0.1692676504802256
 21
0.148849717495386
 31
0.0
210
0.0
220
0.0
230
1.0
 40
0.6788083417438791
 41
0.0
 42
6.283185307179586
  0
SPLINE
  5
12B8
102
{ACAD_REACTORS
330
12B6
102
}
330
18
100
AcDbEntity
  8
ROGO
 62
     4
100
AcDbSpline
210
0.0
220
0.0
230
1.0
 70
     8
 71
     3
 72
     9
 73
     5
 74
     3
 42
0.0000000001
 43
0.0000000001
 44
0.0000000001
 40
0.0
 40
0.0
 40
0.0
 40
0.0
 40
0.1078348623950619
 40
0.2528255661270943
 40
0.2528255661270943
 40
0.2528255661270943
 40
0.2528255661270943
 10
328.8159609790128
 20
292.0912635385283
 30
0.0
 10
328.8506006567358
 20
292.1018613235469
 30
0.0
 10
328.9318155434271
 20
292.1267084920556
 30
0.0
 10
328.9989176440366
 20
292.1792232933601
 30
0.0
 10
329.0373994358043
 20
292.2093395435246
 30
0.0
 11
328.8159609790128
 21
292.0912635385283
 31
0.0
 11
328.9173126380632
 21
292.1280901424377
 31
0.0
 11
329.0373994358043
 21
292.2093395435246
 31
0.0
  0
SPLINE
  5
12B9
102
{ACAD_REACTORS
330
12B6
102
}
330
18
100
AcDbEntity
  8
ROGO
 62
     4
100
AcDbSpline
210
0.0
220
0.0
230
1.0
 70
     8
 71
     3
 72
    11
 73
     7
 74
     0
 42
0.0000000001
 43
0.0000000001
 40
0.1647869275458134
 40
0.1647869275458134
 40
0.1647869275458134
 40
0.1647869275458134
 40
0.2895635144633836
 40
0.5387013147903714
 40
0.7953622617455423
 40
0.8850764140209602
 40
0.8850764140209602
 40
0.8850764140209602
 40
0.8850764140209602
 10
328.8159609790128
 20
292.0912635385283
 30
0.0
 10
328.8026894252749
 20
292.0875693964869
 30
0.0
 10
328.7615404607155
 20
292.0809921815796
 30
0.0
 10
328.6925185598994
 20
292.0719608930611
 30
0.0
 10
328.6269166953415
 20
292.0625364139891
 30
0.0
 10
328.5885308530744
 20
292.0632761902669
 30
0.0
 10
328.5785885872878
 20
292.0634677987334
 30
0.0
  0
LINE
  5
12BA
102
{ACAD_REACTORS
330
12B6
102
}
330
18
100
AcDbEntity
  8
ROGO
 62
     4
100
AcDbLine
 10
327.8660902686771
 20
292.0634677987334
 30
0.0
 11
328.5785885872878
 21
292.0634677987334
 31
0.0
  0
LINE
  5
12BB
102
{ACAD_REACTORS
330
12B6
102
}
330
18
100
AcDbEntity
  8
ROGO
 62
     4
100
AcDbLine
 10
328.2309384019125
 20
293.3153983446764
 30
0.0
 11
328.9434367205233
 21
293.3153983446764
 31
0.0
  0
SPLINE
  5
12BC
102
{ACAD_REACTORS
330
12B6
102
}
330
18
100
AcDbEntity
  8
ROGO
 62
     4
100
AcDbSpline
210
0.0
220
0.0
230
1.0
 70
     8
 71
     3
 72
    25
 73
    21
 74
     0
 42
0.0000000001
 43
0.0000000001
 40
0.0
 40
0.0
 40
0.0
 40
0.0
 40
0.4087168505087288
 40
0.6887487002771746
 40
0.9415836120477687
 40
1.17452070575514
 40
1.41154617586699
 40
1.599156012919487
 40
1.80099909059943
 40
2.178735911501585
 40
2.521686161369157
 40
2.762704659361267
 40
3.06256558063785
 40
3.222432137207705
 40
3.399493810628493
 40
3.567459719866414
 40
3.743172740007509
 40
3.995988754699505
 40
4.17170091132118
 40
4.337226830236035
 40
4.337226830236035
 40
4.337226830236035
 40
4.337226830236035
 10
328.9434367205233
 20
293.3153983446764
 30
0.0
 10
328.9901673814736
 20
293.3138969367367
 30
0.0
 10
329.0689154975654
 20
293.3113668409851
 30
0.0
 10
329.1534613151497
 20
293.2452844284252
 30
0.0
 10
329.2181533271353
 20
293.1904970453071
 30
0.0
 10
329.2640725202323
 20
293.1242616645586
 30
0.0
 10
329.304321979552
 20
293.0633617602516
 30
0.0
 10
329.3308433216585
 20
292.9990654736676
 30
0.0
 10
329.3669175868176
 20
292.9219158181492
 30
0.0
 10
329.3818505504215
 20
292.8187010410705
 30
0.0
 10
329.3717615578996
 20
292.7120190456004
 30
0.0
 10
329.3454339980863
 20
292.6174552696854
 30
0.0
 10
329.3178185045975
 20
292.5449081621816
 30
0.0
 10
329.2852703582858
 20
292.4817514044225
 30
0.0
 10
329.2464688086919
 20
292.4408573988744
 30
0.0
 10
329.2195498530879
 20
292.3888610694751
 30
0.0
 10
329.1678419828104
 20
292.3463308635957
 30
0.0
 10
329.1259247939618
 20
292.2938545588606
 30
0.0
 10
329.0783575143195
 20
292.2488135884754
 30
0.0
 10
329.0515388712031
 20
292.221023852536
 30
0.0
 10
329.0373994358043
 20
292.2093395435246
 30
0.0
  0
SPLINE
  5
12BD
102
{ACAD_REACTORS
330
12B6
102
}
330
18
100
AcDbEntity
  8
ROGO
 62
     4
100
AcDbSpline
210
0.0
220
0.0
230
1.0
 70
     8
 71
     3
 72
    38
 73
    34
 74
    32
 42
0.0000000001
 43
0.0000000001
 44
0.0000000001
 40
0.0
 40
0.0
 40
0.0
 40
0.0
 40
0.1716253587406623
 40
0.2255253290976248
 40
0.2947831262912113
 40
0.352498070257192
 40
0.401194707389018
 40
0.4658749546664991
 40
0.4989240118098149
 40
0.5361459251283493
 40
0.5910040209698863
 40
0.6531463397142244
 40
0.6934574532944029
 40
0.7372488460652118
 40
0.7859279681112547
 40
0.8598010024797554
 40
0.9299880888722469
 40
0.962617715058074
 40
0.99982743872465
 40
1.043908673224191
 40
1.075288847593852
 40
1.101594470956001
 40
1.139152958423429
 40
1.180423302418936
 40
1.221693416627877
 40
1.257804824007385
 40
1.340506365805091
 40
1.373135991990864
 40
1.438395283121515
 40
1.496081593396144
 40
1.606517709645446
 40
1.74278444224538
 40
1.93957343352095
 40
1.93957343352095
 40
1.93957343352095
 40
1.93957343352095
 10
328.2309384019125
 20
293.3153983446764
 30
0.0
 10
328.1737305255993
 20
293.3113570114742
 30
0.0
 10
328.0985561735853
 20
293.3060464734097
 30
0.0
 10
328.0031023239877
 20
293.279894964481
 30
0.0
 10
327.9510694151202
 20
293.2487400962966
 30
0.0
 10
327.896918773156
 20
293.2258397748342
 30
0.0
 10
327.8507503075337
 20
293.1919289399844
 30
0.0
 10
327.8040518792466
 20
293.174455013492
 30
0.0
 10
327.771352210243
 20
293.1429464007243
 30
0.0
 10
327.7335050106336
 20
293.1236995801094
 30
0.0
 10
327.7033666136262
 20
293.0806196001115
 30
0.0
 10
327.6696804338893
 20
293.0403413798975
 30
0.0
 10
327.6306002275202
 20
293.0109400754819
 30
0.0
 10
327.5985265776615
 20
292.9800601037799
 30
0.0
 10
327.5691034637144
 20
292.9324030290676
 30
0.0
 10
327.5516895480093
 20
292.8690808887111
 30
0.0
 10
327.502602642596
 20
292.8291015729298
 30
0.0
 10
327.4952116915356
 20
292.7810345064028
 30
0.0
 10
327.4680602272474
 20
292.7526757460017
 30
0.0
 10
327.4562538209702
 20
292.7160686604146
 30
0.0
 10
327.4517573731598
 20
292.6825301038531
 30
0.0
 10
327.446360563609
 20
292.6512074137418
 30
0.0
 10
327.4322435319041
 20
292.6182573273628
 30
0.0
 10
327.4368513797595
 20
292.5775552871895
 30
0.0
 10
327.4355387422428
 20
292.5381421507231
 30
0.0
 10
327.4363112309623
 20
292.4849331891971
 30
0.0
 10
327.4335232121902
 20
292.4331277218138
 30
0.0
 10
327.4557565693298
 20
292.3767510859406
 30
0.0
 10
327.4689135322388
 20
292.3264991145126
 30
0.0
 10
327.5049460154341
 20
292.2569191663296
 30
0.0
 10
327.5671012938368
 20
292.1766389507343
 30
0.0
 10
327.6852947548883
 20
292.0791939794172
 30
0.0
 10
327.7989412233658
 20
292.0693086406724
 30
0.0
 10
327.8660902686771
 20
292.0634677987334
 30
0.0
 11
328.2309384019125
 21
293.3153983446764
 31
0.0
 11
328.0605580958388
 21
293.2947630577854
 31
0.0
 11
328.0089277123508
 21
293.279286937297
 31
0.0
 11
327.946971495546
 21
293.248334236747
 31
0.0
 11
327.895341112058
 21
293.222540472813
 31
0.0
 11
327.8540369675215
 21
293.1967464790925
 31
0.0
 11
327.7972436673751
 21
293.165794008329
 31
0.0
 11
327.7714282728138
 21
293.1451589512246
 31
0.0
 11
327.7404499615943
 21
293.1245236643335
 31
0.0
 11
327.7043087337161
 21
293.0832535501245
 31
0.0
 11
327.6630045891796
 21
293.0368247290861
 31
0.0
 11
327.6320262779598
 21
293.0110307353656
 31
0.0
 11
327.6010483723747
 21
292.9800782646021
 31
0.0
 11
327.5752329778134
 21
292.9388081503932
 31
0.0
 11
327.5442550722284
 21
292.8717440424637
 31
0.0
 11
327.5029505220572
 21
292.8149975779798
 31
0.0
 11
327.4926246887404
 21
292.7840448774298
 31
0.0
 11
327.4719726164721
 21
292.7530924066662
 31
0.0
 11
327.4564834608623
 21
292.7118220626708
 31
0.0
 11
327.4513201385693
 21
292.6808695919072
 31
0.0
 11
327.4461572219108
 21
292.6550755981868
 31
0.0
 11
327.435831388594
 21
292.6189644205938
 31
0.0
 11
327.435831388594
 21
292.5776940765983
 31
0.0
 11
327.435831388594
 21
292.5364239623894
 31
0.0
 11
327.435831388594
 21
292.5003125550099
 31
0.0
 11
327.4409943052524
 21
292.4177723265919
 31
0.0
 11
327.4513201385693
 21
292.3868196260419
 31
0.0
 11
327.4719726164721
 21
292.3249144547284
 31
0.0
 11
327.4977876053989
 21
292.273326697074
 31
0.0
 11
327.5649071444965
 21
292.1856277618265
 31
0.0
 11
327.673330828131
 21
292.1030873036221
 31
0.0
 11
327.8660902686771
 21
292.0634677987334
 31
0.0
  0
HATCH
  5
12BE
330
18
100
AcDbEntity
  8
ROGO
 62
     4
100
AcDbHatch
 10
0.0
 20
0.0
 30
0.0
210
0.0
220
0.0
230
1.0
  2
SOLID
 70
     1
 71
     1
 91
        1
 92
        5
 93
        8
 72
     4
 94
        3
 73
     0
 74
     0
 95
       26
 96
       22
 40
0.0
 40
0.0
 40
0.0
 40
0.0
 40
0.2261711682465229
 40
0.3775752524709292
 40
0.4867499270747143
 40
0.568267124049349
 40
0.6739992068899219
 40
0.7511733198246508
 40
0.8905317800930927
 40
1.003967563249621
 40
1.081122071918995
 40
1.156776017963945
 40
1.292106219407766
 40
1.38780082415581
 40
1.439339762213746
 40
1.512549301287572
 40
1.565415552119695
 40
1.642001295672594
 40
1.68534220200602
 40
1.779656875742671
 40
1.822721775074878
 40
1.822721775074878
 40
1.822721775074878
 40
1.822721775074878
 10
330.307144895226
 20
293.3101981453699
 10
330.2303789061853
 20
293.3056181548238
 10
330.1022240316365
 20
293.2979722152458
 10
329.9615107589842
 20
293.2124904132581
 10
329.8584159776329
 20
293.1627950500714
 10
329.7848889046016
 20
293.0952384375856
 10
329.7309932620131
 20
293.0254573918046
 10
329.6630476866918
 20
292.9423137874045
 10
329.6076400115645
 20
292.8454964245779
 10
329.5794242510715
 20
292.7387868122669
 10
329.5544309982234
 20
292.6537386321065
 10
329.5358955835009
 20
292.5589635343314
 10
329.5406115177371
 20
292.4565730885984
 10
329.5473649513945
 20
292.3614780844476
 10
329.5775173904558
 20
292.2935944891585
 10
329.6118556776298
 20
292.2452660471158
 10
329.6539024400137
 20
292.1920376261281
 10
329.6999107929337
 20
292.1567846152679
 10
329.7379634562612
 20
292.0929214171497
 10
329.8045733597348
 20
292.0847720124856
 10
329.8469132643565
 20
292.0685522649317
 10
329.8601857159267
 20
292.0634677987334
 72
     1
 10
329.8601857159267
 20
292.0634677987334
 11
330.9340109755146
 21
292.0634677987334
 72
     1
 10
330.9340109755146
 20
292.0634677987334
 11
331.1653063577307
 21
292.5273274075286
 72
     1
 10
331.1653063577307
 20
292.5273274075286
 11
330.3680936618163
 21
292.5273274075286
 72
     4
 94
        3
 73
     0
 74
     0
 95
       16
 96
       12
 40
0.0
 40
0.0
 40
0.0
 40
0.0
 40
0.0683030918787657
 40
0.1373106805328135
 40
0.1784706056910715
 40
0.2179345026856072
 40
0.261275236818835
 40
0.2915411730567379
 40
0.3202609197925513
 40
0.3785004428982377
 40
0.4977391777072823
 40
0.4977391777072823
 40
0.4977391777072823
 40
0.4977391777072823
 10
330.3680936618163
 20
292.5273274075285
 10
330.3440469174861
 20
292.5344023122992
 10
330.295705404126
 20
292.5486250943436
 10
330.2916596098245
 20
292.617571916666
 10
330.2971714192357
 20
292.66670216947
 10
330.3202548893606
 20
292.7024718625332
 10
330.3482591423966
 20
292.7284990205895
 10
330.3586863678249
 20
292.7623953244524
 10
330.3893362469527
 20
292.7879912746665
 10
330.4436866951127
 20
292.8310144914593
 10
330.5037888821575
 20
292.8401774753447
 10
330.544168525426
 20
292.8463336243762
 72
     1
 10
330.544168525426
 20
292.8463336243762
 11
331.3243731603926
 21
292.8463336243762
 72
     1
 10
331.3243731603926
 20
292.8463336243762
 11
331.5556709919893
 21
293.3101981453699
 72
     1
 10
331.5556709919893
 20
293.3101981453699
 11
330.307144895226
 21
293.3101981453699
 97
        8
330
12C7
330
12C5
330
12C8
330
12C4
330
12C3
330
12C6
330
12C2
330
12C1
 75
     0
 76
     1
 47
0.0514683685270805
 98
        1
 10
330.5225855820729
 20
293.0819175784024
450
        0
451
        0
460
0.0
461
0.0
452
        0
462
0.0
453
        0
470

  0
LINE
  5
12BF
102
{ACAD_REACTORS
330
1288
102
}
330
18
100
AcDbEntity
  8
ROGO
 62
     4
100
AcDbLine
 10
331.8167881467268
 20
291.8705731966507
 30
0.0
 11
331.5632453388441
 21
291.3620966911947
 31
0.0
  0
LINE
  5
12C0
102
{ACAD_REACTORS
330
1288
102
}
330
18
100
AcDbEntity
  8
ROGO
 62
     4
100
AcDbLine
 10
331.8167881467268
 20
293.3101981453699
 30
0.0
 11
330.8454018438551
 21
291.3620966911947
 31
0.0
  0
LINE
  5
12C1
102
{ACAD_REACTORS
330
12BE
102
}
330
18
100
AcDbEntity
  8
ROGO
 62
     4
100
AcDbLine
 10
331.5556709919894
 20
293.3101981453699
 30
0.0
 11
331.3243731603927
 21
292.8463336243762
 31
0.0
  0
LINE
  5
12C2
102
{ACAD_REACTORS
330
12BE
102
}
330
18
100
AcDbEntity
  8
ROGO
 62
     4
100
AcDbLine
 10
330.544168525426
 20
292.8463336243762
 30
0.0
 11
331.3243731603927
 21
292.8463336243762
 31
0.0
  0
LINE
  5
12C3
102
{ACAD_REACTORS
330
12BE
102
}
330
18
100
AcDbEntity
  8
ROGO
 62
     4
100
AcDbLine
 10
330.3680936618164
 20
292.5273274075286
 30
0.0
 11
331.1653063577307
 21
292.5273274075286
 31
0.0
  0
LINE
  5
12C4
102
{ACAD_REACTORS
330
12BE
102
}
330
18
100
AcDbEntity
  8
ROGO
 62
     4
100
AcDbLine
 10
331.1653063577307
 20
292.5273274075286
 30
0.0
 11
330.9340109755146
 21
292.0634677987334
 31
0.0
  0
SPLINE
  5
12C5
102
{ACAD_REACTORS
330
12BE
102
}
330
18
100
AcDbEntity
  8
ROGO
 62
     4
100
AcDbSpline
210
0.0
220
0.0
230
1.0
 70
     8
 71
     3
 72
    26
 73
    22
 74
    20
 42
0.0000000001
 43
0.0000000001
 44
0.0000000001
 40
0.0
 40
0.0
 40
0.0
 40
0.0
 40
0.2261711682465229
 40
0.3775752524709292
 40
0.4867499270747143
 40
0.568267124049349
 40
0.6739992068899219
 40
0.7511733198246508
 40
0.8905317800930927
 40
1.003967563249621
 40
1.081122071918995
 40
1.156776017963945
 40
1.292106219407766
 40
1.38780082415581
 40
1.439339762213746
 40
1.512549301287572
 40
1.565415552119695
 40
1.642001295672594
 40
1.68534220200602
 40
1.779656875742671
 40
1.822721775074878
 40
1.822721775074878
 40
1.822721775074878
 40
1.822721775074878
 10
330.307144895226
 20
293.3101981453699
 30
0.0
 10
330.2303789061853
 20
293.3056181548238
 30
0.0
 10
330.1022240316365
 20
293.2979722152458
 30
0.0
 10
329.9615107589842
 20
293.2124904132581
 30
0.0
 10
329.8584159776329
 20
293.1627950500714
 30
0.0
 10
329.7848889046016
 20
293.0952384375856
 30
0.0
 10
329.7309932620131
 20
293.0254573918046
 30
0.0
 10
329.6630476866918
 20
292.9423137874045
 30
0.0
 10
329.6076400115645
 20
292.8454964245779
 30
0.0
 10
329.5794242510715
 20
292.7387868122669
 30
0.0
 10
329.5544309982234
 20
292.6537386321065
 30
0.0
 10
329.5358955835009
 20
292.5589635343314
 30
0.0
 10
329.5406115177371
 20
292.4565730885984
 30
0.0
 10
329.5473649513945
 20
292.3614780844476
 30
0.0
 10
329.5775173904558
 20
292.2935944891585
 30
0.0
 10
329.6118556776298
 20
292.2452660471158
 30
0.0
 10
329.6539024400137
 20
292.1920376261281
 30
0.0
 10
329.6999107929337
 20
292.1567846152679
 30
0.0
 10
329.7379634562612
 20
292.0929214171497
 30
0.0
 10
329.8045733597348
 20
292.0847720124856
 30
0.0
 10
329.8469132643565
 20
292.0685522649317
 30
0.0
 10
329.8601857159267
 20
292.0634677987334
 30
0.0
 11
330.307144895226
 21
293.3101981453699
 31
0.0
 11
330.0836653055763
 21
293.2754092052307
 31
0.0
 11
329.9482229530269
 21
293.2077441045088
 31
0.0
 11
329.8534135009469
 21
293.1536120680503
 31
0.0
 11
329.7924647343565
 21
293.0994798109968
 31
0.0
 11
329.7247437527864
 21
293.0182816460114
 31
0.0
 11
329.6773390267463
 21
292.9573830774213
 31
0.0
 11
329.6096176557671
 21
292.8355857196459
 31
0.0
 11
329.5757573596865
 21
292.7273214261338
 31
0.0
 11
329.5554411041565
 21
292.6528897932802
 31
0.0
 11
329.541896674197
 21
292.5784581604266
 31
0.0
 11
329.541896674197
 21
292.4431279589828
 31
0.0
 11
329.5554411041565
 21
292.3483967297342
 31
0.0
 11
329.5757573596865
 21
292.3010310048123
 31
0.0
 11
329.6163898707468
 21
292.240132436222
 31
0.0
 11
329.6502505562366
 21
292.1995332434319
 31
0.0
 11
329.704427107847
 21
292.1454012069734
 31
0.0
 11
329.731515578357
 21
292.1115685463149
 31
0.0
 11
329.8195532048664
 21
292.0777361062515
 31
0.0
 11
329.8601857159267
 21
292.0634677987334
 31
0.0
  0
SPLINE
  5
12C6
102
{ACAD_REACTORS
330
12BE
102
}
330
18
100
AcDbEntity
  8
ROGO
 62
     4
100
AcDbSpline
210
0.0
220
0.0
230
1.0
 70
     8
 71
     3
 72
    16
 73
    12
 74
    10
 42
0.0000000001
 43
0.0000000001
 44
0.0000000001
 40
0.0
 40
0.0
 40
0.0
 40
0.0
 40
0.1192387348090446
 40
0.177478257914731
 40
0.2061980046505444
 40
0.2364639408884473
 40
0.2798046750216751
 40
0.3192685720162108
 40
0.3604284971744688
 40
0.4294360858285167
 40
0.4977391777072823
 40
0.4977391777072823
 40
0.4977391777072823
 40
0.4977391777072823
 10
330.544168525426
 20
292.8463336243762
 30
0.0
 10
330.5037888821575
 20
292.8401774753447
 30
0.0
 10
330.4436866951127
 20
292.8310144914593
 30
0.0
 10
330.3893362469527
 20
292.7879912746665
 30
0.0
 10
330.3586863678249
 20
292.7623953244524
 30
0.0
 10
330.3482591423966
 20
292.7284990205895
 30
0.0
 10
330.3202548893606
 20
292.7024718625332
 30
0.0
 10
330.2971714192357
 20
292.66670216947
 30
0.0
 10
330.2916596098245
 20
292.617571916666
 30
0.0
 10
330.295705404126
 20
292.5486250943436
 30
0.0
 10
330.3440469174861
 20
292.5344023122992
 30
0.0
 10
330.3680936618163
 20
292.5273274075285
 30
0.0
 11
330.544168525426
 21
292.8463336243762
 31
0.0
 11
330.4290428178159
 21
292.8152861232508
 31
0.0
 11
330.3816380917759
 21
292.7814536831873
 31
0.0
 11
330.3613218362457
 21
292.7611540867922
 31
0.0
 11
330.3477774062862
 21
292.7340879582654
 31
0.0
 11
330.3206889357763
 21
292.700255518202
 31
0.0
 11
330.3003726802462
 21
292.6664228575436
 31
0.0
 11
330.2936004652665
 21
292.6258238853484
 31
0.0
 11
330.307144895226
 21
292.5581585640316
 31
0.0
 11
330.3680936618163
 21
292.5273274075285
 31
0.0
  0
LINE
  5
12C7
102
{ACAD_REACTORS
330
12BE
102
}
330
18
100
AcDbEntity
  8
ROGO
 62
     4
100
AcDbLine
 10
330.3071448952263
 20
293.3101981453699
 30
0.0
 11
331.5556709919894
 21
293.3101981453699
 31
0.0
  0
LINE
  5
12C8
102
{ACAD_REACTORS
330
12BE
102
}
330
18
100
AcDbEntity
  8
ROGO
 62
     4
100
AcDbLine
 10
329.8601857159266
 20
292.0634677987334
 30
0.0
 11
330.9340109755147
 21
292.0634677987334
 31
0.0
  0
LINE
  5
12C9
102
{ACAD_REACTORS
330
1298
102
}
330
18
100
AcDbEntity
  8
ROGO
 62
     4
100
AcDbLine
 10
326.2900688212911
 20
293.3101981453699
 30
0.0
 11
327.5385949180542
 21
293.3101981453699
 31
0.0
  0
LINE
  5
12CA
102
{ACAD_REACTORS
330
1298
102
}
330
18
100
AcDbEntity
  8
ROGO
 62
     4
100
AcDbLine
 10
327.1482302837954
 20
292.5273274075286
 30
0.0
 11
326.9169349015794
 21
292.0634677987334
 31
0.0
  0
SPLINE
  5
12CB
102
{ACAD_REACTORS
330
1298
102
}
330
18
100
AcDbEntity
  8
ROGO
 62
     4
100
AcDbSpline
210
0.0
220
0.0
230
1.0
 70
     8
 71
     3
 72
    16
 73
    12
 74
    10
 42
0.0000000001
 43
0.0000000001
 44
0.0000000001
 40
0.0
 40
0.0
 40
0.0
 40
0.0
 40
0.1192387348090995
 40
0.1774782579147198
 40
0.2061980046505734
 40
0.2364639408884763
 40
0.2798046750216953
 40
0.3192685720162602
 40
0.3604284971745742
 40
0.4294360858286333
 40
0.4977391777073984
 40
0.4977391777073984
 40
0.4977391777073984
 40
0.4977391777073984
 10
326.5270924514908
 20
292.8463336243762
 30
0.0
 10
326.4867128082224
 20
292.8401774753447
 30
0.0
 10
326.4266106211775
 20
292.8310144914592
 30
0.0
 10
326.3722601730172
 20
292.7879912746666
 30
0.0
 10
326.3416102938899
 20
292.7623953244525
 30
0.0
 10
326.3311830684614
 20
292.7284990205895
 30
0.0
 10
326.3031788154253
 20
292.7024718625333
 30
0.0
 10
326.2800953453004
 20
292.66670216947
 30
0.0
 10
326.2745835358891
 20
292.617571916666
 30
0.0
 10
326.2786293301908
 20
292.5486250943436
 30
0.0
 10
326.3269708435509
 20
292.5344023122992
 30
0.0
 10
326.3510175878811
 20
292.5273274075286
 30
0.0
 11
326.5270924514908
 21
292.8463336243762
 31
0.0
 11
326.4119667438806
 21
292.8152861232508
 31
0.0
 11
326.3645620178406
 21
292.7814536831874
 31
0.0
 11
326.3442457623106
 21
292.7611540867922
 31
0.0
 11
326.330701332351
 21
292.7340879582654
 31
0.0
 11
326.3036128618411
 21
292.7002555182021
 31
0.0
 11
326.2832966063109
 21
292.6664228575436
 31
0.0
 11
326.2765243913312
 21
292.6258238853484
 31
0.0
 11
326.2900688212907
 21
292.5581585640316
 31
0.0
 11
326.3510175878811
 21
292.5273274075286
 31
0.0
  0
LINE
  5
12CC
102
{ACAD_REACTORS
330
1298
102
}
330
18
100
AcDbEntity
  8
ROGO
 62
     4
100
AcDbLine
 10
326.3510175878811
 20
292.5273274075286
 30
0.0
 11
327.1482302837954
 21
292.5273274075286
 31
0.0
  0
LINE
  5
12CD
102
{ACAD_REACTORS
330
1298
102
}
330
18
100
AcDbEntity
  8
ROGO
 62
     4
100
AcDbLine
 10
326.5270924514907
 20
292.8463336243762
 30
0.0
 11
327.3072970864574
 21
292.8463336243762
 31
0.0
  0
LINE
  5
12CE
102
{ACAD_REACTORS
330
1298
102
}
330
18
100
AcDbEntity
  8
ROGO
 62
     4
100
AcDbLine
 10
327.5385949180542
 20
293.3101981453699
 30
0.0
 11
327.3072970864574
 21
292.8463336243762
 31
0.0
  0
LINE
  5
12CF
102
{ACAD_REACTORS
330
1288
102
}
330
18
100
AcDbEntity
  8
ROGO
 62
     4
100
AcDbLine
 10
332.0703309546096
 20
291.3620966911947
 30
0.0
 11
332.7881587437601
 21
291.3620966911947
 31
0.0
  0
LINE
  5
12D0
102
{ACAD_REACTORS
330
1288
102
}
330
18
100
AcDbEntity
  8
ROGO
 62
     4
100
AcDbLine
 10
332.7646842815517
 20
293.3101981453699
 30
0.0
 11
333.4825120707023
 21
293.3101981453699
 31
0.0
  0
LINE
  5
12D1
102
{ACAD_REACTORS
330
1288
102
}
330
18
100
AcDbEntity
  8
ROGO
 62
     4
100
AcDbLine
 10
332.3024655923243
 20
292.3361474182824
 30
0.0
 11
333.4825120707023
 21
293.3101981453699
 31
0.0
  0
LINE
  5
12D2
102
{ACAD_REACTORS
330
1288
102
}
330
18
100
AcDbEntity
  8
ROGO
 62
     4
100
AcDbLine
 10
332.3024655923243
 20
292.3361474182824
 30
0.0
 11
332.7881587437601
 21
291.3620966911947
 31
0.0
  0
LINE
  5
12D3
102
{ACAD_REACTORS
330
1288
102
}
330
18
100
AcDbEntity
  8
ROGO
 62
     4
100
AcDbLine
 10
332.4285760245649
 20
293.0975051092583
 30
0.0
 11
332.7646842815517
 21
293.3101981453699
 31
0.0
  0
LINE
  5
12D4
102
{ACAD_REACTORS
330
1288
102
}
330
18
100
AcDbEntity
  8
ROGO
 62
     4
100
AcDbLine
 10
332.5346316417157
 20
293.3101981453699
 30
0.0
 11
332.4285760245649
 21
293.0975051092583
 31
0.0
  0
LINE
  5
12D6
330
18
100
AcDbEntity
  8
外形線
100
AcDbLine
 10
322.6765373177728
 20
276.3984640013589
 30
0.0
 11
322.6765373177728
 21
276.8984640013589
 31
0.0
  0
ARC
  5
12D7
330
18
100
AcDbEntity
  8
外形線
100
AcDbCircle
 10
322.6765373177728
 20
272.1484640013589
 30
0.0
 40
4.75
100
AcDbArc
 50
0.0
 51
180.0
  0
POINT
  5
12D8
330
18
100
AcDbEntity
  8
DEFPOINTS
  6
ByBlock
 62
     0
100
AcDbPoint
 10
321.2087065944918
 20
276.6659824537609
 30
0.0
  0
LINE
  5
12D9
330
18
100
AcDbEntity
  8
外形線
100
AcDbLine
 10
321.3632150916792
 20
276.1904541956133
 30
0.0
 11
321.2087065944918
 21
276.6659824537609
 31
0.0
  0
LINE
  5
12DA
330
18
100
AcDbEntity
  8
外形線
100
AcDbLine
 10
320.1784499955298
 20
275.5867862274524
 30
0.0
 11
319.8845573693836
 21
275.9912947246399
 31
0.0
  0
LINE
  5
12DB
330
18
100
AcDbEntity
  8
外形線
100
AcDbLine
 10
319.2382150916793
 20
274.6465513236019
 30
0.0
 11
318.8337065944918
 21
274.9404439497482
 31
0.0
  0
LINE
  5
12DC
330
18
100
AcDbEntity
  8
外形線
100
AcDbLine
 10
318.6345471235183
 20
273.4617862274524
 30
0.0
 11
318.1590188653708
 21
273.6162947246399
 31
0.0
  0
LINE
  5
12DD
330
18
100
AcDbEntity
  8
外形線
100
AcDbLine
 10
318.4265373177728
 20
272.1484640013589
 30
0.0
 11
317.9265373177728
 21
272.1484640013589
 31
0.0
  0
LINE
  5
12DE
330
18
100
AcDbEntity
  8
外形線
100
AcDbLine
 10
326.9265373177728
 20
272.1484640013589
 30
0.0
 11
327.4265373177728
 21
272.1484640013589
 31
0.0
  0
LINE
  5
12DF
330
18
100
AcDbEntity
  8
外形線
100
AcDbLine
 10
326.7185275120272
 20
273.4617862274524
 30
0.0
 11
327.1940557701748
 21
273.6162947246399
 31
0.0
  0
LINE
  5
12E0
330
18
100
AcDbEntity
  8
外形線
100
AcDbLine
 10
326.1148595438663
 20
274.6465513236019
 30
0.0
 11
326.5193680410538
 21
274.9404439497482
 31
0.0
  0
LINE
  5
12E1
330
18
100
AcDbEntity
  8
外形線
100
AcDbLine
 10
325.1746246400158
 20
275.5867862274524
 30
0.0
 11
325.468517266162
 21
275.9912947246399
 31
0.0
  0
LINE
  5
12E2
330
18
100
AcDbEntity
  8
外形線
100
AcDbLine
 10
323.9898595438663
 20
276.1904541956133
 30
0.0
 11
324.1443680410538
 21
276.6659824537609
 31
0.0
  0
POINT
  5
12E3
330
18
100
AcDbEntity
  8
DEFPOINTS
  6
ByBlock
 62
     0
100
AcDbPoint
 10
324.1443680410537
 20
276.6659824537609
 30
0.0
  0
HATCH
  5
12EA
330
18
100
AcDbEntity
  8
外形線
100
AcDbHatch
 10
0.0
 20
0.0
 30
0.0
210
0.0
220
0.0
230
1.0
  2
SOLID
 70
     1
 71
     1
 91
        2
 92
        1
 93
        7
 72
     1
 10
334.3819929219072
 20
283.6724354128728
 11
333.2153262552404
 21
283.2478034728956
 72
     1
 10
333.2153262552404
 20
283.2478034728956
 11
333.2153262552405
 21
283.5828520795395
 72
     1
 10
333.2153262552405
 20
283.5828520795395
 11
332.2153262552404
 21
283.5828520795395
 72
     1
 10
332.2153262552404
 20
283.5828520795395
 11
332.2153262552404
 21
283.7620187462061
 72
     1
 10
332.2153262552404
 20
283.7620187462061
 11
333.2153262552404
 21
283.7620187462061
 72
     1
 10
333.2153262552404
 20
283.7620187462061
 11
333.2153262552404
 21
284.09706735285
 72
     1
 10
333.2153262552404
 20
284.09706735285
 11
334.3819929219072
 21
283.6724354128728
 97
        7
330
12EF
330
12F2
330
12F3
330
12EE
330
12FC
330
12FB
330
12ED
 92
        1
 93
        4
 72
     1
 10
334.3819929219072
 20
284.4224354128727
 11
334.3819929219072
 21
282.9224354128728
 72
     1
 10
334.3819929219072
 20
282.9224354128728
 11
334.5486595885738
 21
282.9224354128728
 72
     1
 10
334.5486595885738
 20
282.9224354128728
 11
334.5486595885738
 21
284.4224354128727
 72
     1
 10
334.5486595885738
 20
284.4224354128727
 11
334.3819929219072
 21
284.4224354128727
 97
        4
330
12EC
330
12F4
330
12EB
330
12FD
 75
     0
 76
     1
 98
        1
 10
426.7115496283874
 20
215.0102846056918
450
        0
451
        0
460
0.0
461
0.0
452
        0
462
0.0
453
        0
470

  0
LINE
  5
12EB
102
{ACAD_REACTORS
330
12EA
102
}
330
18
100
AcDbEntity
  8
外形線
100
AcDbLine
 10
334.5486595885738
 20
284.4224354128727
 30
0.0
 11
334.5486595885738
 21
282.9224354128728
 31
0.0
  0
LINE
  5
12EC
102
{ACAD_REACTORS
330
12EA
102
}
330
18
100
AcDbEntity
  8
外形線
100
AcDbLine
 10
334.3819929219072
 20
284.4224354128727
 30
0.0
 11
334.3819929219072
 21
282.9224354128728
 31
0.0
  0
LINE
  5
12ED
102
{ACAD_REACTORS
330
12EA
102
}
330
18
100
AcDbEntity
  8
外形線
100
AcDbLine
 10
334.3819929219072
 20
283.6724354128728
 30
0.0
 11
333.2153262552404
 21
284.09706735285
 31
0.0
  0
LINE
  5
12EE
102
{ACAD_REACTORS
330
12EA
102
}
330
18
100
AcDbEntity
  8
外形線
100
AcDbLine
 10
332.2153262552404
 20
283.7620187462061
 30
0.0
 11
332.2153262552404
 21
283.5828520795395
 31
0.0
  0
LINE
  5
12EF
102
{ACAD_REACTORS
330
12EA
102
}
330
18
100
AcDbEntity
  8
外形線
100
AcDbLine
 10
334.3819929219072
 20
283.6724354128728
 30
0.0
 11
333.2153262552404
 21
283.2478034728956
 31
0.0
  0
POINT
  5
12F0
330
18
100
AcDbEntity
  8
DEFPOINTS
  6
ByBlock
 62
     0
100
AcDbPoint
 10
333.2153262552404
 20
283.2478034728956
 30
0.0
  0
POINT
  5
12F1
330
18
100
AcDbEntity
  8
DEFPOINTS
  6
ByBlock
 62
     0
100
AcDbPoint
 10
333.2153262552404
 20
283.2478034728956
 30
0.0
  0
LINE
  5
12F2
102
{ACAD_REACTORS
330
12EA
102
}
330
18
100
AcDbEntity
  8
外形線
100
AcDbLine
 10
333.2153262552405
 20
283.5828520795395
 30
0.0
 11
333.2153262552404
 21
283.2478034728956
 31
0.0
  0
LINE
  5
12F3
102
{ACAD_REACTORS
330
12EA
102
}
330
18
100
AcDbEntity
  8
外形線
100
AcDbLine
 10
332.2153262552404
 20
283.5828520795395
 30
0.0
 11
333.2153262552405
 21
283.5828520795395
 31
0.0
  0
LINE
  5
12F4
102
{ACAD_REACTORS
330
12EA
102
}
330
18
100
AcDbEntity
  8
外形線
100
AcDbLine
 10
334.5486595885738
 20
282.9224354128728
 30
0.0
 11
334.3819929219072
 21
282.9224354128728
 31
0.0
  0
POINT
  5
12F5
330
18
100
AcDbEntity
  8
DEFPOINTS
  6
ByBlock
 62
     0
100
AcDbPoint
 10
334.3819929219072
 20
282.9224354128728
 30
0.0
  0
POINT
  5
12F6
330
18
100
AcDbEntity
  8
DEFPOINTS
  6
ByBlock
 62
     0
100
AcDbPoint
 10
334.5486595885738
 20
282.9224354128728
 30
0.0
  0
POINT
  5
12F7
330
18
100
AcDbEntity
  8
DEFPOINTS
  6
ByBlock
 62
     0
100
AcDbPoint
 10
334.3819929219072
 20
282.9224354128728
 30
0.0
  0
POINT
  5
12F8
330
18
100
AcDbEntity
  8
DEFPOINTS
  6
ByBlock
 62
     0
100
AcDbPoint
 10
334.5486595885738
 20
282.9224354128728
 30
0.0
  0
POINT
  5
12F9
330
18
100
AcDbEntity
  8
DEFPOINTS
  6
ByBlock
 62
     0
100
AcDbPoint
 10
333.2153262552404
 20
284.09706735285
 30
0.0
  0
POINT
  5
12FA
330
18
100
AcDbEntity
  8
DEFPOINTS
  6
ByBlock
 62
     0
100
AcDbPoint
 10
333.2153262552404
 20
284.09706735285
 30
0.0
  0
LINE
  5
12FB
102
{ACAD_REACTORS
330
12EA
102
}
330
18
100
AcDbEntity
  8
外形線
100
AcDbLine
 10
333.2153262552404
 20
284.09706735285
 30
0.0
 11
333.2153262552404
 21
283.7620187462061
 31
0.0
  0
LINE
  5
12FC
102
{ACAD_REACTORS
330
12EA
102
}
330
18
100
AcDbEntity
  8
外形線
100
AcDbLine
 10
332.2153262552404
 20
283.7620187462061
 30
0.0
 11
333.2153262552404
 21
283.7620187462061
 31
0.0
  0
LINE
  5
12FD
102
{ACAD_REACTORS
330
12EA
102
}
330
18
100
AcDbEntity
  8
外形線
100
AcDbLine
 10
334.5486595885738
 20
284.4224354128727
 30
0.0
 11
334.3819929219072
 21
284.4224354128727
 31
0.0
  0
HATCH
  5
12FE
330
18
100
AcDbEntity
  8
外形線
100
AcDbHatch
 10
0.0
 20
0.0
 30
0.0
210
0.0
220
0.0
230
1.0
  2
SOLID
 70
     1
 71
     1
 91
        2
 92
        1
 93
        7
 72
     1
 10
335.5486595885738
 20
283.6724354128728
 11
336.7153262552404
 21
283.2478034728956
 72
     1
 10
336.7153262552404
 20
283.2478034728956
 11
336.7153262552404
 21
283.5828520795395
 72
     1
 10
336.7153262552404
 20
283.5828520795395
 11
337.7153262552404
 21
283.5828520795395
 72
     1
 10
337.7153262552404
 20
283.5828520795395
 11
337.7153262552404
 21
283.7620187462061
 72
     1
 10
337.7153262552404
 20
283.7620187462061
 11
336.7153262552404
 21
283.7620187462061
 72
     1
 10
336.7153262552404
 20
283.7620187462061
 11
336.7153262552404
 21
284.09706735285
 72
     1
 10
336.7153262552404
 20
284.09706735285
 11
335.5486595885738
 21
283.6724354128728
 97
        7
330
130B
330
1304
330
1303
330
12FF
330
130D
330
130E
330
1300
 92
        1
 93
        4
 72
     1
 10
335.5486595885738
 20
284.4224354128727
 11
335.5486595885738
 21
282.9224354128728
 72
     1
 10
335.5486595885738
 20
282.9224354128728
 11
335.3819929219071
 21
282.9224354128728
 72
     1
 10
335.3819929219071
 20
282.9224354128728
 11
335.3819929219071
 21
284.4224354128727
 72
     1
 10
335.3819929219071
 20
284.4224354128727
 11
335.5486595885738
 21
284.4224354128727
 97
        4
330
1301
330
130C
330
1302
330
1311
 75
     0
 76
     1
 98
        1
 10
243.2191028820934
 20
215.0102846056918
450
        0
451
        0
460
0.0
461
0.0
452
        0
462
0.0
453
        0
470

  0
LINE
  5
12FF
102
{ACAD_REACTORS
330
12FE
102
}
330
18
100
AcDbEntity
  8
外形線
100
AcDbLine
 10
337.7153262552404
 20
283.7620187462061
 30
0.0
 11
337.7153262552404
 21
283.5828520795395
 31
0.0
  0
LINE
  5
1300
102
{ACAD_REACTORS
330
12FE
102
}
330
18
100
AcDbEntity
  8
外形線
100
AcDbLine
 10
335.5486595885738
 20
283.6724354128728
 30
0.0
 11
336.7153262552404
 21
284.09706735285
 31
0.0
  0
LINE
  5
1301
102
{ACAD_REACTORS
330
12FE
102
}
330
18
100
AcDbEntity
  8
外形線
100
AcDbLine
 10
335.5486595885738
 20
284.4224354128727
 30
0.0
 11
335.5486595885738
 21
282.9224354128728
 31
0.0
  0
LINE
  5
1302
102
{ACAD_REACTORS
330
12FE
102
}
330
18
100
AcDbEntity
  8
外形線
100
AcDbLine
 10
335.3819929219071
 20
284.4224354128727
 30
0.0
 11
335.3819929219071
 21
282.9224354128728
 31
0.0
  0
LINE
  5
1303
102
{ACAD_REACTORS
330
12FE
102
}
330
18
100
AcDbEntity
  8
外形線
100
AcDbLine
 10
337.7153262552404
 20
283.5828520795395
 30
0.0
 11
336.7153262552404
 21
283.5828520795395
 31
0.0
  0
LINE
  5
1304
102
{ACAD_REACTORS
330
12FE
102
}
330
18
100
AcDbEntity
  8
外形線
100
AcDbLine
 10
336.7153262552404
 20
283.5828520795395
 30
0.0
 11
336.7153262552404
 21
283.2478034728956
 31
0.0
  0
POINT
  5
1305
330
18
100
AcDbEntity
  8
DEFPOINTS
  6
ByBlock
 62
     0
100
AcDbPoint
 10
335.3819929219071
 20
282.9224354128728
 30
0.0
  0
POINT
  5
1306
330
18
100
AcDbEntity
  8
DEFPOINTS
  6
ByBlock
 62
     0
100
AcDbPoint
 10
335.5486595885738
 20
282.9224354128728
 30
0.0
  0
POINT
  5
1307
330
18
100
AcDbEntity
  8
DEFPOINTS
  6
ByBlock
 62
     0
100
AcDbPoint
 10
335.3819929219071
 20
282.9224354128728
 30
0.0
  0
POINT
  5
1308
330
18
100
AcDbEntity
  8
DEFPOINTS
  6
ByBlock
 62
     0
100
AcDbPoint
 10
336.7153262552404
 20
283.2478034728956
 30
0.0
  0
POINT
  5
1309
330
18
100
AcDbEntity
  8
DEFPOINTS
  6
ByBlock
 62
     0
100
AcDbPoint
 10
335.5486595885738
 20
282.9224354128728
 30
0.0
  0
POINT
  5
130A
330
18
100
AcDbEntity
  8
DEFPOINTS
  6
ByBlock
 62
     0
100
AcDbPoint
 10
336.7153262552404
 20
283.2478034728956
 30
0.0
  0
LINE
  5
130B
102
{ACAD_REACTORS
330
12FE
102
}
330
18
100
AcDbEntity
  8
外形線
100
AcDbLine
 10
335.5486595885738
 20
283.6724354128728
 30
0.0
 11
336.7153262552404
 21
283.2478034728956
 31
0.0
  0
LINE
  5
130C
102
{ACAD_REACTORS
330
12FE
102
}
330
18
100
AcDbEntity
  8
外形線
100
AcDbLine
 10
335.3819929219071
 20
282.9224354128728
 30
0.0
 11
335.5486595885738
 21
282.9224354128728
 31
0.0
  0
LINE
  5
130D
102
{ACAD_REACTORS
330
12FE
102
}
330
18
100
AcDbEntity
  8
外形線
100
AcDbLine
 10
337.7153262552404
 20
283.7620187462061
 30
0.0
 11
336.7153262552404
 21
283.7620187462061
 31
0.0
  0
LINE
  5
130E
102
{ACAD_REACTORS
330
12FE
102
}
330
18
100
AcDbEntity
  8
外形線
100
AcDbLine
 10
336.7153262552404
 20
284.09706735285
 30
0.0
 11
336.7153262552404
 21
283.7620187462061
 31
0.0
  0
POINT
  5
130F
330
18
100
AcDbEntity
  8
DEFPOINTS
  6
ByBlock
 62
     0
100
AcDbPoint
 10
336.7153262552404
 20
284.09706735285
 30
0.0
  0
POINT
  5
1310
330
18
100
AcDbEntity
  8
DEFPOINTS
  6
ByBlock
 62
     0
100
AcDbPoint
 10
336.7153262552404
 20
284.09706735285
 30
0.0
  0
LINE
  5
1311
102
{ACAD_REACTORS
330
12FE
102
}
330
18
100
AcDbEntity
  8
外形線
100
AcDbLine
 10
335.3819929219071
 20
284.4224354128727
 30
0.0
 11
335.5486595885738
 21
284.4224354128727
 31
0.0
  0
POINT
  5
1358
330
18
100
AcDbEntity
  8
DEFPOINTS
  6
ByBlock
 62
     0
100
AcDbPoint
 10
325.2464861270663
 20
222.4103878583885
 30
0.0
  0
POINT
  5
1359
330
18
100
AcDbEntity
  8
DEFPOINTS
  6
ByBlock
 62
     0
100
AcDbPoint
 10
325.8765373177729
 20
223.3724354128728
 30
0.0
  0
TEXT
  5
13BA
330
18
100
AcDbEntity
  8
文字
100
AcDbText
 10
331.295627982423
 20
281.1861451784603
 30
0.0
 40
1.0
  1
0.001mm
  7
STYLE3
100
AcDbText
  0
TEXT
  5
13C9
330
18
100
AcDbEntity
  8
文字
100
AcDbText
 10
325.7195139188391
 20
271.4682379819192
 30
0.0
 40
1.0
  1
0
  7
STYLE3
100
AcDbText
  0
TEXT
  5
13CA
330
18
100
AcDbEntity
  8
文字
100
AcDbText
 10
324.5272032273717
 20
273.5849142551633
 30
0.0
 40
1.0
  1
.2
  7
STYLE3
100
AcDbText
  0
TEXT
  5
13CB
330
18
100
AcDbEntity
  8
文字
100
AcDbText
 10
322.9779773320213
 20
274.8225465215039
 30
0.0
 40
1.0
  1
.4
  7
STYLE3
100
AcDbText
  0
TEXT
  5
13CC
330
18
100
AcDbEntity
  8
文字
100
AcDbText
 10
321.1100210953838
 20
274.8471120422343
 30
0.0
 40
1.0
  1
.6
  7
STYLE3
100
AcDbText
  0
TEXT
  5
13CD
330
18
100
AcDbEntity
  8
文字
100
AcDbText
 10
318.4428284086962
 20
271.692238349564
 30
0.0
 40
1.0
  1
1.0
  7
STYLE3
100
AcDbText
  0
TEXT
  5
13CE
330
18
100
AcDbEntity
  8
文字
100
AcDbText
 10
319.4578047994109
 20
273.7950949205707
 30
0.0
 40
1.0
  1
.8
  7
STYLE3
100
AcDbText
  0
CIRCLE
  5
1568
330
18
100
AcDbEntity
  8
外形線
100
AcDbCircle
 10
325.8765373177728
 20
282.2224354128728
 30
0.0
 40
23.0
  0
TEXT
  5
1580
330
18
100
AcDbEntity
  8
文字
100
AcDbText
 10
316.8132844737243
 20
263.8410742098699
 30
0.0
 40
2.5
  1
90
 50
0.030000000000189
  7
STYLE3
100
AcDbText
  0
TEXT
  5
158C
330
18
100
AcDbEntity
  8
文字
100
AcDbText
 10
312.2575118389097
 20
266.7093662257653
 30
0.0
 40
2.5
  1
80
 50
0.030000000000189
  7
STYLE3
100
AcDbText
  0
TEXT
  5
1592
330
18
100
AcDbEntity
  8
文字
100
AcDbText
 10
308.9242538140783
 20
269.8835479035023
 30
0.0
 40
2.5
  1
70
 50
0.030000000000189
  7
STYLE3
100
AcDbText
  0
TEXT
  5
1598
330
18
100
AcDbEntity
  8
文字
100
AcDbText
 10
329.9685092717508
 20
263.6166847975921
 30
0.0
 40
2.5
  1
90
 50
0.030000000000189
  7
STYLE3
100
AcDbText
  0
TEXT
  5
1599
330
18
100
AcDbEntity
  8
文字
100
AcDbText
 10
322.2014532910939
 20
262.1160579591606
 30
0.0
 40
2.5
  1
100
 50
0.030000000000189
  7
STYLE3
100
AcDbText
  0
TEXT
  5
15B5
330
18
100
AcDbEntity
  8
文字
100
AcDbText
 10
305.9369413999065
 20
286.7549926989589
 30
0.0
 40
2.5
  1
40
 50
0.030000000000189
  7
STYLE3
100
AcDbText
  0
TEXT
  5
15BA
330
18
100
AcDbEntity
  8
文字
100
AcDbText
 10
306.3284910212904
 20
274.9096640773263
 30
0.0
 40
2.5
  1
60
 50
0.030000000000189
  7
STYLE3
100
AcDbText
  0
TEXT
  5
15BB
330
18
100
AcDbEntity
  8
文字
100
AcDbText
 10
305.1718651803877
 20
281.0163690480158
 30
0.0
 40
2.5
  1
50
 50
0.030000000000189
  7
STYLE3
100
AcDbText
  0
TEXT
  5
15EF
330
18
100
AcDbEntity
  8
文字
100
AcDbText
 10
309.1220687290785
 20
291.9645570023149
 30
0.0
 40
2.5
  1
30
 50
0.030000000000189
  7
STYLE3
100
AcDbText
  0
TEXT
  5
1625
330
18
100
AcDbEntity
  8
文字
100
AcDbText
 10
317.9373081527045
 20
298.9183396647847
 30
0.0
 40
2.5
  1
10
 50
0.030000000000189
  7
STYLE3
100
AcDbText
  0
TEXT
  5
162C
330
18
100
AcDbEntity
  8
文字
100
AcDbText
 10
313.2442044700805
 20
296.2712429743785
 30
0.0
 40
2.5
  1
20
 50
0.030000000000189
  7
STYLE3
100
AcDbText
  0
TEXT
  5
163C
330
18
100
AcDbEntity
  8
文字
100
AcDbText
 10
324.768979886105
 20
300.0196451295762
 30
0.0
 40
2.5
  1
0
 50
0.030000000000189
  7
STYLE3
100
AcDbText
  0
TEXT
  5
1641
330
18
100
AcDbEntity
  8
文字
100
AcDbText
 10
328.8062862553577
 20
298.8388532388105
 30
0.0
 40
2.5
  1
10
 50
0.030000000000189
  7
STYLE3
100
AcDbText
  0
LINE
  5
1643
330
18
100
AcDbEntity
  8
目盛
100
AcDbLine
 10
326.5869478486307
 20
305.2114614226378
 30
0.0
 11
326.5483385806494
 21
303.9620578351505
 31
0.0
  0
LINE
  5
1644
330
18
100
AcDbEntity
  8
目盛
100
AcDbLine
 10
325.8644945464845
 20
305.2224322600827
 30
0.0
 11
325.8656726436758
 21
302.9724325685077
 31
0.0
  0
LINE
  5
164F
330
18
100
AcDbEntity
  8
目盛
100
AcDbLine
 10
327.3087000613517
 20
305.17780319202
 30
0.0
 11
327.2308651296354
 21
303.9302288561967
 31
0.0
  0
LINE
  5
1650
330
18
100
AcDbEntity
  8
目盛
100
AcDbLine
 10
328.029038902352
 20
305.1214907848394
 30
0.0
 11
327.9120551205815
 21
303.876976905928
 31
0.0
  0
LINE
  5
1653
330
18
100
AcDbEntity
  8
目盛
100
AcDbLine
 10
328.7472534841628
 20
305.042579774643
 30
0.0
 11
328.5912363012069
 21
303.8023545375902
 31
0.0
  0
TEXT
  5
1668
330
18
100
AcDbEntity
  8
文字
100
AcDbText
 10
338.129653451425
 20
270.2967178494686
 30
0.0
 40
2.5
  1
70
 50
0.030000000000189
  7
STYLE3
100
AcDbText
  0
TEXT
  5
1669
330
18
100
AcDbEntity
  8
文字
100
AcDbText
 10
334.2961584363284
 20
266.2056792978543
 30
0.0
 40
2.5
  1
80
 50
0.030000000000189
  7
STYLE3
100
AcDbText
  0
TEXT
  5
1674
330
18
100
AcDbEntity
  8
文字
100
AcDbText
 10
337.9996932324173
 20
291.9471668576736
 30
0.0
 40
2.5
  1
30
 50
0.030000000000189
  7
STYLE3
100
AcDbText
  0
TEXT
  5
167A
330
18
100
AcDbEntity
  8
文字
100
AcDbText
 10
341.7533441064303
 20
281.0745361848169
 30
0.0
 40
2.5
  1
50
 50
0.030000000000189
  7
STYLE3
100
AcDbText
  0
TEXT
  5
167B
330
18
100
AcDbEntity
  8
文字
100
AcDbText
 10
340.7415456425488
 20
275.5391161155722
 30
0.0
 40
2.5
  1
60
 50
0.030000000000189
  7
STYLE3
100
AcDbText
  0
TEXT
  5
167C
330
18
100
AcDbEntity
  8
文字
100
AcDbText
 10
340.7271175257607
 20
286.5640354809236
 30
0.0
 40
2.5
  1
40
 50
0.030000000000189
  7
STYLE3
100
AcDbText
  0
TEXT
  5
169E
330
18
100
AcDbEntity
  8
文字
100
AcDbText
 10
333.9251491963338
 20
296.0271984514067
 30
0.0
 40
2.5
  1
20
 50
0.030000000000189
  7
STYLE3
100
AcDbText
  0
LINE
  5
16B6
330
18
100
AcDbEntity
  8
目盛
100
AcDbLine
 10
322.2666506102627
 20
304.9373802281029
 30
0.0
 11
322.6197917012147
 21
302.7152660613954
 31
0.0
  0
LINE
  5
16B7
330
18
100
AcDbEntity
  8
目盛
100
AcDbLine
 10
323.7000570831078
 20
305.1192241350521
 30
0.0
 11
323.8183440523831
 21
303.8748334436292
 31
0.0
  0
LINE
  5
16B8
330
18
100
AcDbEntity
  8
目盛
100
AcDbLine
 10
322.9819255305037
 20
305.0395610557097
 30
0.0
 11
323.1392413885075
 21
303.7994998794685
 31
0.0
  0
LINE
  5
16B9
330
18
100
AcDbEntity
  8
目盛
100
AcDbLine
 10
325.1420531290998
 20
305.2107048774626
 30
0.0
 11
325.1819707480494
 21
303.9613424065609
 31
0.0
  0
LINE
  5
16BA
330
18
100
AcDbEntity
  8
目盛
100
AcDbLine
 10
324.4203365589341
 20
305.1762908482885
 30
0.0
 11
324.4994779045232
 21
303.9287987050593
 31
0.0
  0
LINE
  5
16BB
330
18
100
AcDbEntity
  8
目盛
100
AcDbLine
 10
318.7576940653067
 20
304.0930108681923
 30
0.0
 11
319.4541026443524
 21
301.953498051911
 31
0.0
  0
LINE
  5
16BC
330
18
100
AcDbEntity
  8
目盛
100
AcDbLine
 10
320.1450062715651
 20
304.4968501496591
 30
0.0
 11
320.4565025240764
 21
303.2862841313554
 31
0.0
  0
LINE
  5
16BD
330
18
100
AcDbEntity
  8
目盛
100
AcDbLine
 10
319.4481781612448
 20
304.3058273297566
 30
0.0
 11
319.7975455067084
 21
303.1056429864476
 31
0.0
  0
LINE
  5
16BE
330
18
100
AcDbEntity
  8
目盛
100
AcDbLine
 10
321.5549382123752
 20
304.8127824923719
 30
0.0
 11
321.789807728973
 21
303.5850462380512
 31
0.0
  0
LINE
  5
16BF
330
18
100
AcDbEntity
  8
目盛
100
AcDbLine
 10
320.8474907110519
 20
304.6658908114391
 30
0.0
 11
321.1208084614173
 21
303.4461378006474
 31
0.0
  0
LINE
  5
16C0
330
18
100
AcDbEntity
  8
目盛
100
AcDbLine
 10
315.4240270673128
 20
302.7101153562933
 30
0.0
 11
316.4465552439883
 21
300.7058857966108
 31
0.0
  0
LINE
  5
16C1
330
18
100
AcDbEntity
  8
目盛
100
AcDbLine
 10
316.731084776241
 20
303.3260061489021
 30
0.0
 11
317.2281202404547
 21
302.1790729567266
 31
0.0
  0
LINE
  5
16C2
330
18
100
AcDbEntity
  8
目盛
100
AcDbLine
 10
316.0727183289206
 20
303.028327204234
 30
0.0
 11
316.605534578315
 21
301.897572215573
 31
0.0
  0
LINE
  5
16C3
330
18
100
AcDbEntity
  8
目盛
100
AcDbLine
 10
318.0742354081906
 20
303.8586107891202
 30
0.0
 11
318.4982735554506
 21
302.682731692585
 31
0.0
  0
LINE
  5
16C4
330
18
100
AcDbEntity
  8
目盛
100
AcDbLine
 10
317.3984766810761
 20
303.602858417119
 30
0.0
 11
317.859240846114
 21
302.4408789060186
 31
0.0
  0
LINE
  5
16C5
330
18
100
AcDbEntity
  8
目盛
100
AcDbLine
 10
312.3477355615779
 20
300.8227451694759
 30
0.0
 11
313.671205298597
 21
299.003149649808
 31
0.0
  0
LINE
  5
16C6
330
18
100
AcDbEntity
  8
目盛
100
AcDbLine
 10
313.5423546745062
 20
301.6355221978884
 30
0.0
 11
314.2126906877273
 21
300.5804631334853
 31
0.0
  0
LINE
  5
16C7
330
18
100
AcDbEntity
  8
目盛
100
AcDbLine
 10
312.9386610571119
 20
301.2385169720119
 30
0.0
 11
313.641806506061
 21
300.2050342785804
 31
0.0
  0
LINE
  5
16C8
330
18
100
AcDbEntity
  8
目盛
100
AcDbLine
 10
314.7856511713754
 20
302.3716846417561
 30
0.0
 11
315.3884167228102
 21
301.276616748882
 31
0.0
  0
LINE
  5
16C9
330
18
100
AcDbEntity
  8
目盛
100
AcDbLine
 10
314.1582206410457
 20
302.0133690508786
 30
0.0
 11
314.7950856778245
 21
300.9377748314216
 31
0.0
  0
LINE
  5
16CA
330
18
100
AcDbEntity
  8
目盛
100
AcDbLine
 10
309.6045680545993
 20
298.4773736255618
 30
0.0
 11
311.1963911346923
 21
296.8872166264944
 31
0.0
  0
LINE
  5
16CB
330
18
100
AcDbEntity
  8
目盛
100
AcDbLine
 10
310.657333084254
 20
299.4670236218862
 30
0.0
 11
311.4844637491192
 21
298.5298177409616
 31
0.0
  0
LINE
  5
16CC
330
18
100
AcDbEntity
  8
目盛
100
AcDbLine
 10
310.12317723719
 20
298.9804677010474
 30
0.0
 11
310.9793381111349
 21
298.0697050766901
 31
0.0
  0
LINE
  5
16CD
330
18
100
AcDbEntity
  8
目盛
100
AcDbLine
 10
311.7701613600253
 20
300.3886171068526
 30
0.0
 11
312.5368122272943
 21
299.4013246234841
 31
0.0
  0
LINE
  5
16CE
330
18
100
AcDbEntity
  8
目盛
100
AcDbLine
 10
311.2065084484598
 20
299.9365612161274
 30
0.0
 11
312.0037926261399
 21
298.9738369876895
 31
0.0
  0
LINE
  5
16CF
330
18
100
AcDbEntity
  8
目盛
100
AcDbLine
 10
307.2620704344498
 20
295.7317515558046
 30
0.0
 11
309.0830508904272
 21
294.4101880200829
 31
0.0
  0
LINE
  5
16D0
330
18
100
AcDbEntity
  8
目盛
100
AcDbLine
 10
308.147058811874
 20
296.8739060526713
 30
0.0
 11
309.1106174263251
 21
296.0776304744213
 31
0.0
  0
LINE
  5
16D1
330
18
100
AcDbEntity
  8
目盛
100
AcDbLine
 10
307.6955934248568
 20
296.3097800584277
 30
0.0
 11
308.6836882016458
 21
295.544163501604
 31
0.0
  0
LINE
  5
16D2
330
18
100
AcDbEntity
  8
目盛
100
AcDbLine
 10
309.1020173411326
 20
297.9582378885429
 30
0.0
 11
310.0136760355154
 21
297.1030312322564
 31
0.0
  0
LINE
  5
16D3
330
18
100
AcDbEntity
  8
目盛
100
AcDbLine
 10
308.6160210536708
 20
297.423572814287
 30
0.0
 11
309.5540925897634
 21
296.597424042471
 31
0.0
  0
LINE
  5
16D4
330
18
100
AcDbEntity
  8
目盛
100
AcDbLine
 10
305.3779227668415
 20
292.6534852877585
 30
0.0
 11
307.3832220163893
 21
291.6330564956501
 31
0.0
  0
LINE
  5
16D5
330
18
100
AcDbEntity
  8
目盛
100
AcDbLine
 10
306.073343141075
 20
293.9200206508612
 30
0.0
 11
307.1496036941564
 21
293.2842823227097
 31
0.0
  0
LINE
  5
16D6
330
18
100
AcDbEntity
  8
目盛
100
AcDbLine
 10
305.7156847902606
 20
293.292215237418
 30
0.0
 11
306.8113832971907
 21
292.6905967686927
 31
0.0
  0
LINE
  5
16D7
330
18
100
AcDbEntity
  8
目盛
100
AcDbLine
 10
306.846917675505
 20
295.140390989148
 30
0.0
 11
307.8811361343241
 21
294.4383281860896
 31
0.0
  0
LINE
  5
16D8
330
18
100
AcDbEntity
  8
目盛
100
AcDbLine
 10
306.4505448536733
 20
294.5362819599414
 30
0.0
 11
307.5063053136788
 21
293.8670511693398
 31
0.0
  0
LINE
  5
16D9
330
18
100
AcDbEntity
  8
目盛
100
AcDbLine
 10
303.9985190204784
 20
289.3183719531229
 30
0.0
 11
306.138759940866
 21
288.6242042480984
 31
0.0
  0
LINE
  5
16DA
330
18
100
AcDbEntity
  8
目盛
100
AcDbLine
 10
304.4872478339396
 20
290.6781018784322
 30
0.0
 11
305.6497092189307
 21
290.2185547879126
 31
0.0
  0
LINE
  5
16DB
330
18
100
AcDbEntity
  8
目盛
100
AcDbLine
 10
304.232203254925
 20
290.002075698635
 30
0.0
 11
305.4085257583408
 21
289.5792691613653
 31
0.0
  0
LINE
  5
16DC
330
18
100
AcDbEntity
  8
目盛
100
AcDbLine
 10
305.0603904011566
 20
292.0044611512284
 30
0.0
 11
306.1917027335815
 21
291.4728293176221
 31
0.0
  0
LINE
  5
16DD
330
18
100
AcDbEntity
  8
目盛
100
AcDbLine
 10
304.7634010593144
 20
291.3457833362931
 30
0.0
 11
305.9108541168395
 21
290.8499492100203
 31
0.0
  0
LINE
  5
16DE
330
18
100
AcDbEntity
  8
目盛
100
AcDbLine
 10
303.1578246935747
 20
285.8085331108032
 30
0.0
 11
305.3803074502898
 21
285.4577192055709
 31
0.0
  0
LINE
  5
16DF
330
18
100
AcDbEntity
  8
目盛
100
AcDbLine
 10
303.4278278208782
 20
287.227976534873
 30
0.0
 11
304.6478663804921
 21
286.9559362565034
 31
0.0
  0
LINE
  5
16E0
330
18
100
AcDbEntity
  8
目盛
100
AcDbLine
 10
303.2816770576434
 20
286.5203755968707
 30
0.0
 11
304.5096585935201
 21
286.2867918912186
 31
0.0
  0
LINE
  5
16E1
330
18
100
AcDbEntity
  8
目盛
100
AcDbLine
 10
303.7864257487262
 20
288.6276653749484
 30
0.0
 11
304.9869752905223
 21
288.2795550509226
 31
0.0
  0
LINE
  5
16E2
330
18
100
AcDbEntity
  8
目盛
100
AcDbLine
 10
303.596132750121
 20
287.9306376081144
 30
0.0
 11
304.8070243027109
 21
287.6204092279383
 31
0.0
  0
LINE
  5
16E3
330
18
100
AcDbEntity
  8
目盛
100
AcDbLine
 10
302.876540470563
 20
282.2103926415845
 30
0.0
 11
305.126540162138
 21
282.2115707387758
 31
0.0
  0
LINE
  5
16E4
330
18
100
AcDbEntity
  8
目盛
100
AcDbLine
 10
302.9211695386257
 20
283.6545981564516
 30
0.0
 11
304.168743874449
 21
283.5767632247354
 31
0.0
  0
LINE
  5
16E5
330
18
100
AcDbEntity
  8
目盛
100
AcDbLine
 10
302.8875113080079
 20
282.9328459437307
 30
0.0
 11
304.1369148954952
 21
282.8942366757494
 31
0.0
  0
LINE
  5
16E6
330
18
100
AcDbEntity
  8
目盛
100
AcDbLine
 10
303.0563929560027
 20
285.0931515792627
 30
0.0
 11
304.2966181930555
 21
284.9371343963068
 31
0.0
  0
LINE
  5
16E7
330
18
100
AcDbEntity
  8
目盛
100
AcDbLine
 10
302.9774819458063
 20
284.3749369974521
 30
0.0
 11
304.2219958247177
 21
284.2579532156815
 31
0.0
  0
LINE
  5
16E8
330
18
100
AcDbEntity
  8
目盛
100
AcDbLine
 10
303.1615925025428
 20
278.6125487053626
 30
0.0
 11
305.3837066692502
 21
278.9656897963147
 31
0.0
  0
LINE
  5
16E9
330
18
100
AcDbEntity
  8
目盛
100
AcDbLine
 10
302.9797485955935
 20
280.0459551782077
 30
0.0
 11
304.2241392870164
 21
280.164242147483
 31
0.0
  0
LINE
  5
16EA
330
18
100
AcDbEntity
  8
目盛
100
AcDbLine
 10
303.0594116749359
 20
279.3278236256035
 30
0.0
 11
304.2994728511771
 21
279.4851394836074
 31
0.0
  0
LINE
  5
16EB
330
18
100
AcDbEntity
  8
目盛
100
AcDbLine
 10
302.888267853183
 20
281.4879512241997
 30
0.0
 11
304.1376303240847
 21
281.5278688431494
 31
0.0
  0
LINE
  5
16EC
330
18
100
AcDbEntity
  8
目盛
100
AcDbLine
 10
302.9226818823571
 20
280.766234654034
 30
0.0
 11
304.1701740255863
 21
280.8453759996231
 31
0.0
  0
LINE
  5
16ED
330
18
100
AcDbEntity
  8
目盛
100
AcDbLine
 10
304.0059618624533
 20
275.1035921604068
 30
0.0
 11
306.1454746787347
 21
275.8000007394524
 31
0.0
  0
LINE
  5
16EE
330
18
100
AcDbEntity
  8
目盛
100
AcDbLine
 10
303.6021225809866
 20
276.490904366665
 30
0.0
 11
304.8126885992902
 21
276.8024006191764
 31
0.0
  0
LINE
  5
16EF
330
18
100
AcDbEntity
  8
目盛
100
AcDbLine
 10
303.793145400889
 20
275.7940762563448
 30
0.0
 11
304.9933297441981
 21
276.1434436018084
 31
0.0
  0
LINE
  5
16F0
330
18
100
AcDbEntity
  8
目盛
100
AcDbLine
 10
303.2861902382738
 20
277.9008363074751
 30
0.0
 11
304.5139264925944
 21
278.135705824073
 31
0.0
  0
LINE
  5
16F1
330
18
100
AcDbEntity
  8
目盛
100
AcDbLine
 10
303.4330819192064
 20
277.193388806152
 30
0.0
 11
304.6528349299983
 21
277.4667065565173
 31
0.0
  0
LINE
  5
16F2
330
18
100
AcDbEntity
  8
目盛
100
AcDbLine
 10
305.3888573743523
 20
271.7699251624128
 30
0.0
 11
307.3930869340349
 21
272.7924533390884
 31
0.0
  0
LINE
  5
16F3
330
18
100
AcDbEntity
  8
目盛
100
AcDbLine
 10
304.7729665817435
 20
273.0769828713409
 30
0.0
 11
305.9198997739191
 21
273.5740183355546
 31
0.0
  0
LINE
  5
16F4
330
18
100
AcDbEntity
  8
目盛
100
AcDbLine
 10
305.0706455264117
 20
272.4186164240206
 30
0.0
 11
306.2014005150727
 21
272.9514326734149
 31
0.0
  0
LINE
  5
16F5
330
18
100
AcDbEntity
  8
目盛
100
AcDbLine
 10
304.2403619415255
 20
274.4201335032906
 30
0.0
 11
305.4162410380607
 21
274.8441716505506
 31
0.0
  0
LINE
  5
16F6
330
18
100
AcDbEntity
  8
目盛
100
AcDbLine
 10
304.4961143135266
 20
273.744374776176
 30
0.0
 11
305.6580938246271
 21
274.205138941214
 31
0.0
  0
LINE
  5
16F7
330
18
100
AcDbEntity
  8
目盛
100
AcDbLine
 10
307.2762275611698
 20
268.6936336566779
 30
0.0
 11
309.0958230808376
 21
270.017103393697
 31
0.0
  0
LINE
  5
16F8
330
18
100
AcDbEntity
  8
目盛
100
AcDbLine
 10
306.4634505327573
 20
269.8882527696063
 30
0.0
 11
307.5185095971604
 21
270.5585887828273
 31
0.0
  0
LINE
  5
16F9
330
18
100
AcDbEntity
  8
目盛
100
AcDbLine
 10
306.8604557586338
 20
269.2845591522118
 30
0.0
 11
307.8939384520653
 21
269.9877046011609
 31
0.0
  0
LINE
  5
16FA
330
18
100
AcDbEntity
  8
目盛
100
AcDbLine
 10
305.7272880888896
 20
271.1315492664754
 30
0.0
 11
306.8223559817637
 21
271.7343148179101
 31
0.0
  0
LINE
  5
16FB
330
18
100
AcDbEntity
  8
目盛
100
AcDbLine
 10
306.0856036797671
 20
270.5041187361457
 30
0.0
 11
307.161197899224
 21
271.1409837729245
 31
0.0
  0
LINE
  5
16FC
330
18
100
AcDbEntity
  8
目盛
100
AcDbLine
 10
309.6215991050838
 20
265.9504661496993
 30
0.0
 11
311.2117561041511
 21
267.5422892297924
 31
0.0
  0
LINE
  5
16FD
330
18
100
AcDbEntity
  8
目盛
100
AcDbLine
 10
308.6319491087594
 20
267.003231179354
 30
0.0
 11
309.569154989684
 21
267.8303618442192
 31
0.0
  0
LINE
  5
16FE
330
18
100
AcDbEntity
  8
目盛
100
AcDbLine
 10
309.1185050295982
 20
266.4690753322901
 30
0.0
 11
310.0292676539555
 21
267.3252362062349
 31
0.0
  0
LINE
  5
16FF
330
18
100
AcDbEntity
  8
目盛
100
AcDbLine
 10
307.710355623793
 20
268.1160594551254
 30
0.0
 11
308.6976481071615
 21
268.8827103223943
 31
0.0
  0
LINE
  5
1700
330
18
100
AcDbEntity
  8
目盛
100
AcDbLine
 10
308.1624115145182
 20
267.5524065435598
 30
0.0
 11
309.125135742956
 21
268.34969072124
 31
0.0
  0
LINE
  5
1701
330
18
100
AcDbEntity
  8
目盛
100
AcDbLine
 10
312.367221174841
 20
263.6079685295499
 30
0.0
 11
313.6887847105627
 21
265.4289489855271
 31
0.0
  0
LINE
  5
1702
330
18
100
AcDbEntity
  8
目盛
100
AcDbLine
 10
311.2250666779743
 20
264.492956906974
 30
0.0
 11
312.0213422562242
 21
265.4565155214251
 31
0.0
  0
LINE
  5
1703
330
18
100
AcDbEntity
  8
目盛
100
AcDbLine
 10
311.7891926722179
 20
264.0414915199567
 30
0.0
 11
312.5548092290415
 21
265.0295862967458
 31
0.0
  0
LINE
  5
1704
330
18
100
AcDbEntity
  8
目盛
100
AcDbLine
 10
310.1407348421027
 20
265.4479154362327
 30
0.0
 11
310.9959414983891
 21
266.3595741306154
 31
0.0
  0
LINE
  5
1705
330
18
100
AcDbEntity
  8
目盛
100
AcDbLine
 10
310.6753999163585
 20
264.9619191487707
 30
0.0
 11
311.5015486881745
 21
265.8999906848634
 31
0.0
  0
LINE
  5
1706
330
18
100
AcDbEntity
  8
目盛
100
AcDbLine
 10
315.4454874428872
 20
261.7238208619415
 30
0.0
 11
316.4659162349956
 21
263.7291201114892
 31
0.0
  0
LINE
  5
1707
330
18
100
AcDbEntity
  8
目盛
100
AcDbLine
 10
314.1789520797845
 20
262.419241236175
 30
0.0
 11
314.814690407936
 21
263.4955017892564
 31
0.0
  0
LINE
  5
1708
330
18
100
AcDbEntity
  8
目盛
100
AcDbLine
 10
314.8067574932277
 20
262.0615828853605
 30
0.0
 11
315.408375961953
 21
263.1572813922907
 31
0.0
  0
LINE
  5
1709
330
18
100
AcDbEntity
  8
目盛
100
AcDbLine
 10
312.9585817414977
 20
263.1928157706049
 30
0.0
 11
313.6606445445561
 21
264.2270342294239
 31
0.0
  0
LINE
  5
170A
330
18
100
AcDbEntity
  8
目盛
100
AcDbLine
 10
313.5626907707043
 20
262.7964429487732
 30
0.0
 11
314.2319215613059
 21
263.8522034087787
 31
0.0
  0
LINE
  5
170B
330
18
100
AcDbEntity
  8
目盛
100
AcDbLine
 10
318.7806007775228
 20
260.3444171155784
 30
0.0
 11
319.4747684825472
 21
262.484658035966
 31
0.0
  0
LINE
  5
170C
330
18
100
AcDbEntity
  8
目盛
100
AcDbLine
 10
317.4208708522134
 20
260.8331459290396
 30
0.0
 11
317.8804179427329
 21
261.9956073140306
 31
0.0
  0
LINE
  5
170D
330
18
100
AcDbEntity
  8
目盛
100
AcDbLine
 10
318.0968970320107
 20
260.5781013500251
 30
0.0
 11
318.5197035692803
 21
261.7544238534408
 31
0.0
  0
LINE
  5
170E
330
18
100
AcDbEntity
  8
目盛
100
AcDbLine
 10
316.0945115794172
 20
261.4062884962566
 30
0.0
 11
316.6261434130235
 21
262.5376008286814
 31
0.0
  0
LINE
  5
170F
330
18
100
AcDbEntity
  8
目盛
100
AcDbLine
 10
316.7531893943526
 20
261.1092991544145
 30
0.0
 11
317.2490235206253
 21
262.2567522119395
 31
0.0
  0
LINE
  5
1710
330
18
100
AcDbEntity
  8
目盛
100
AcDbLine
 10
322.2904396198424
 20
259.5037227886746
 30
0.0
 11
322.6412535250748
 21
261.7262055453898
 31
0.0
  0
LINE
  5
1711
330
18
100
AcDbEntity
  8
目盛
100
AcDbLine
 10
320.8709961957726
 20
259.7737259159782
 30
0.0
 11
321.1430364741421
 21
260.9937644755921
 31
0.0
  0
LINE
  5
1712
330
18
100
AcDbEntity
  8
目盛
100
AcDbLine
 10
321.578597133775
 20
259.6275751527433
 30
0.0
 11
321.8121808394269
 21
260.85555668862
 31
0.0
  0
LINE
  5
1713
330
18
100
AcDbEntity
  8
目盛
100
AcDbLine
 10
319.4713073556972
 20
260.1323238438261
 30
0.0
 11
319.819417679723
 21
261.3328733856222
 31
0.0
  0
LINE
  5
1714
330
18
100
AcDbEntity
  8
目盛
100
AcDbLine
 10
320.1683351225312
 20
259.9420308452209
 30
0.0
 11
320.4785635027073
 21
261.1529223978109
 31
0.0
  0
LINE
  5
1715
330
18
100
AcDbEntity
  8
目盛
100
AcDbLine
 10
325.8885800890612
 20
259.222438565663
 30
0.0
 11
325.8874019918699
 21
261.472438257238
 31
0.0
  0
LINE
  5
1716
330
18
100
AcDbEntity
  8
目盛
100
AcDbLine
 10
324.4443745741941
 20
259.2670676337257
 30
0.0
 11
324.5222095059103
 21
260.514641969549
 31
0.0
  0
LINE
  5
1717
330
18
100
AcDbEntity
  8
目盛
100
AcDbLine
 10
325.166126786915
 20
259.2334094031079
 30
0.0
 11
325.2047360548963
 21
260.4828129905952
 31
0.0
  0
LINE
  5
1718
330
18
100
AcDbEntity
  8
目盛
100
AcDbLine
 10
323.005821151383
 20
259.4022910511027
 30
0.0
 11
323.1618383343389
 21
260.6425162881555
 31
0.0
  0
LINE
  5
1719
330
18
100
AcDbEntity
  8
目盛
100
AcDbLine
 10
323.7240357331937
 20
259.3233800409063
 30
0.0
 11
323.8410195149642
 21
260.5678939198177
 31
0.0
  0
LINE
  5
171A
330
18
100
AcDbEntity
  8
目盛
100
AcDbLine
 10
329.486424025283
 20
259.5074905976428
 30
0.0
 11
329.1332829343309
 21
261.7296047643502
 31
0.0
  0
LINE
  5
171B
330
18
100
AcDbEntity
  8
目盛
100
AcDbLine
 10
328.0530175524379
 20
259.3256466906936
 30
0.0
 11
327.9347305831626
 21
260.5700373821164
 31
0.0
  0
LINE
  5
171C
330
18
100
AcDbEntity
  8
目盛
100
AcDbLine
 10
328.7711491050421
 20
259.4053097700359
 30
0.0
 11
328.6138332470382
 21
260.6453709462772
 31
0.0
  0
LINE
  5
171D
330
18
100
AcDbEntity
  8
目盛
100
AcDbLine
 10
326.6110215064458
 20
259.2341659482831
 30
0.0
 11
326.5711038874962
 21
260.4835284191848
 31
0.0
  0
LINE
  5
171E
330
18
100
AcDbEntity
  8
目盛
100
AcDbLine
 10
327.3327380766116
 20
259.2685799774571
 30
0.0
 11
327.2535967310225
 21
260.5160721206864
 31
0.0
  0
LINE
  5
171F
330
18
100
AcDbEntity
  8
目盛
100
AcDbLine
 10
332.9953805702389
 20
260.3518599575533
 30
0.0
 11
332.2989719911933
 21
262.4913727738347
 31
0.0
  0
LINE
  5
1720
330
18
100
AcDbEntity
  8
目盛
100
AcDbLine
 10
331.6080683639807
 20
259.9480206760866
 30
0.0
 11
331.2965721114693
 21
261.1585866943902
 31
0.0
  0
LINE
  5
1721
330
18
100
AcDbEntity
  8
目盛
100
AcDbLine
 10
332.3048964743009
 20
260.1390434959891
 30
0.0
 11
331.9555291288373
 21
261.3392278392981
 31
0.0
  0
LINE
  5
1722
330
18
100
AcDbEntity
  8
目盛
100
AcDbLine
 10
330.1981364231706
 20
259.6320883333738
 30
0.0
 11
329.9632669065728
 21
260.8598245876945
 31
0.0
  0
LINE
  5
1723
330
18
100
AcDbEntity
  8
目盛
100
AcDbLine
 10
330.9055839244938
 20
259.7789800143065
 30
0.0
 11
330.6322661741284
 21
260.9987330250983
 31
0.0
  0
LINE
  5
1724
330
18
100
AcDbEntity
  8
目盛
100
AcDbLine
 10
336.3290475682329
 20
261.7347554694522
 30
0.0
 11
335.3065193915573
 21
263.7389850291348
 31
0.0
  0
LINE
  5
1725
330
18
100
AcDbEntity
  8
目盛
100
AcDbLine
 10
335.0219898593047
 20
261.1188646768434
 30
0.0
 11
334.524954395091
 21
262.265797869019
 31
0.0
  0
LINE
  5
1726
330
18
100
AcDbEntity
  8
目盛
100
AcDbLine
 10
335.680356306625
 20
261.4165436215116
 30
0.0
 11
335.1475400572307
 21
262.5472986101726
 31
0.0
  0
LINE
  5
1727
330
18
100
AcDbEntity
  8
目盛
100
AcDbLine
 10
333.6788392273551
 20
260.5862600366254
 30
0.0
 11
333.2548010800951
 21
261.7621391331606
 31
0.0
  0
LINE
  5
1728
330
18
100
AcDbEntity
  8
目盛
100
AcDbLine
 10
334.3545979544696
 20
260.8420124086265
 30
0.0
 11
333.8938337894316
 21
262.003991919727
 31
0.0
  0
LINE
  5
1729
330
18
100
AcDbEntity
  8
目盛
100
AcDbLine
 10
339.4053390739677
 20
263.6221256562697
 30
0.0
 11
338.0818693369487
 21
265.4417211759375
 31
0.0
  0
LINE
  5
172A
330
18
100
AcDbEntity
  8
目盛
100
AcDbLine
 10
338.2107199610394
 20
262.8093486278572
 30
0.0
 11
337.5403839478184
 21
263.8644076922603
 31
0.0
  0
LINE
  5
172B
330
18
100
AcDbEntity
  8
目盛
100
AcDbLine
 10
338.8144135784338
 20
263.2063538537337
 30
0.0
 11
338.1112681294847
 21
264.2398365471652
 31
0.0
  0
LINE
  5
172C
330
18
100
AcDbEntity
  8
目盛
100
AcDbLine
 10
336.9674234641702
 20
262.0731861839894
 30
0.0
 11
336.3646579127355
 21
263.1682540768636
 31
0.0
  0
LINE
  5
172D
330
18
100
AcDbEntity
  8
目盛
100
AcDbLine
 10
337.5948539944999
 20
262.431501774867
 30
0.0
 11
336.9579889577211
 21
263.5070959943239
 31
0.0
  0
LINE
  5
172E
330
18
100
AcDbEntity
  8
目盛
100
AcDbLine
 10
342.1485065809463
 20
265.9674972001837
 30
0.0
 11
340.5566835008532
 21
267.5576541992512
 31
0.0
  0
LINE
  5
172F
330
18
100
AcDbEntity
  8
目盛
100
AcDbLine
 10
341.0957415512917
 20
264.9778472038593
 30
0.0
 11
340.2686108864264
 21
265.915053084784
 31
0.0
  0
LINE
  5
1730
330
18
100
AcDbEntity
  8
目盛
100
AcDbLine
 10
341.6298973983556
 20
265.4644031246982
 30
0.0
 11
340.7737365244108
 21
266.3751657490555
 31
0.0
  0
LINE
  5
1731
330
18
100
AcDbEntity
  8
目盛
100
AcDbLine
 10
339.9829132755203
 20
264.056253718893
 30
0.0
 11
339.2162624082513
 21
265.0435462022615
 31
0.0
  0
LINE
  5
1732
330
18
100
AcDbEntity
  8
目盛
100
AcDbLine
 10
340.5465661870859
 20
264.5083096096183
 30
0.0
 11
339.7492820094056
 21
265.471033838056
 31
0.0
  0
LINE
  5
1733
330
18
100
AcDbEntity
  8
目盛
100
AcDbLine
 10
344.4910042010958
 20
268.7131192699411
 30
0.0
 11
342.6700237451185
 21
270.0346828056627
 31
0.0
  0
LINE
  5
1734
330
18
100
AcDbEntity
  8
目盛
100
AcDbLine
 10
343.6060158236717
 20
267.5709647730744
 30
0.0
 11
342.6424572092205
 21
268.3672403513242
 31
0.0
  0
LINE
  5
1735
330
18
100
AcDbEntity
  8
目盛
100
AcDbLine
 10
344.0574812106889
 20
268.1350907673179
 30
0.0
 11
343.0693864338998
 21
268.9007073241416
 31
0.0
  0
LINE
  5
1736
330
18
100
AcDbEntity
  8
目盛
100
AcDbLine
 10
342.651057294413
 20
266.4866329372027
 30
0.0
 11
341.7393986000302
 21
267.3418395934892
 31
0.0
  0
LINE
  5
1737
330
18
100
AcDbEntity
  8
目盛
100
AcDbLine
 10
343.1370535818749
 20
267.0212980114586
 30
0.0
 11
342.1989820457822
 21
267.8474467832746
 31
0.0
  0
LINE
  5
1738
330
18
100
AcDbEntity
  8
目盛
100
AcDbLine
 10
346.3751518687042
 20
271.7913855379872
 30
0.0
 11
344.3698526191564
 21
272.8118143300956
 31
0.0
  0
LINE
  5
1739
330
18
100
AcDbEntity
  8
目盛
100
AcDbLine
 10
345.6797314944707
 20
270.5248501748845
 30
0.0
 11
344.6034709413892
 21
271.1605885030361
 31
0.0
  0
LINE
  5
173A
330
18
100
AcDbEntity
  8
目盛
100
AcDbLine
 10
346.0373898452851
 20
271.1526555883277
 30
0.0
 11
344.9416913383549
 21
271.754274057053
 31
0.0
  0
LINE
  5
173B
330
18
100
AcDbEntity
  8
目盛
100
AcDbLine
 10
344.9061569600407
 20
269.3044798365978
 30
0.0
 11
343.8719385012217
 21
270.0065426396562
 31
0.0
  0
LINE
  5
173C
330
18
100
AcDbEntity
  8
目盛
100
AcDbLine
 10
345.3025297818724
 20
269.9085888658043
 30
0.0
 11
344.2467693218669
 21
270.5778196564059
 31
0.0
  0
LINE
  5
173D
330
18
100
AcDbEntity
  8
目盛
100
AcDbLine
 10
347.7545556150673
 20
275.1264988726228
 30
0.0
 11
345.6143146946796
 21
275.8206665776473
 31
0.0
  0
LINE
  5
173E
330
18
100
AcDbEntity
  8
目盛
100
AcDbLine
 10
347.2658268016061
 20
273.7667689473134
 30
0.0
 11
346.103365416615
 21
274.226316037833
 31
0.0
  0
LINE
  5
173F
330
18
100
AcDbEntity
  8
目盛
100
AcDbLine
 10
347.5208713806206
 20
274.4427951271108
 30
0.0
 11
346.3445488772048
 21
274.8656016643803
 31
0.0
  0
LINE
  5
1740
330
18
100
AcDbEntity
  8
目盛
100
AcDbLine
 10
346.6926842343891
 20
272.4404096745173
 30
0.0
 11
345.5613719019642
 21
272.9720415081235
 31
0.0
  0
LINE
  5
1741
330
18
100
AcDbEntity
  8
目盛
100
AcDbLine
 10
346.9896735762312
 20
273.0990874894525
 30
0.0
 11
345.8422205187061
 21
273.5949216157254
 31
0.0
  0
LINE
  5
1742
330
18
100
AcDbEntity
  8
目盛
100
AcDbLine
 10
348.595249941971
 20
278.6363377149424
 30
0.0
 11
346.372767185256
 21
278.9871516201748
 31
0.0
  0
LINE
  5
1743
330
18
100
AcDbEntity
  8
目盛
100
AcDbLine
 10
348.3252468146675
 20
277.2168942908726
 30
0.0
 11
347.1052082550536
 21
277.4889345692422
 31
0.0
  0
LINE
  5
1744
330
18
100
AcDbEntity
  8
目盛
100
AcDbLine
 10
348.4713975779024
 20
277.924495228875
 30
0.0
 11
347.2434160420256
 21
278.1580789345269
 31
0.0
  0
LINE
  5
1745
330
18
100
AcDbEntity
  8
目盛
100
AcDbLine
 10
347.9666488868196
 20
275.8172054507972
 30
0.0
 11
346.7660993450234
 21
276.165315774823
 31
0.0
  0
LINE
  5
1746
330
18
100
AcDbEntity
  8
目盛
100
AcDbLine
 10
348.1569418854248
 20
276.5142332176312
 30
0.0
 11
346.9460503328348
 21
276.8244615978073
 31
0.0
  0
LINE
  5
1747
330
18
100
AcDbEntity
  8
目盛
100
AcDbLine
 10
348.8765341649827
 20
282.2344781841611
 30
0.0
 11
346.6265344734077
 21
282.2333000869699
 31
0.0
  0
LINE
  5
1748
330
18
100
AcDbEntity
  8
目盛
100
AcDbLine
 10
348.83190509692
 20
280.790272669294
 30
0.0
 11
347.5843307610968
 21
280.8681076010102
 31
0.0
  0
LINE
  5
1749
330
18
100
AcDbEntity
  8
目盛
100
AcDbLine
 10
348.8655633275378
 20
281.512024882015
 30
0.0
 11
347.6161597400505
 21
281.5506341499963
 31
0.0
  0
LINE
  5
174A
330
18
100
AcDbEntity
  8
目盛
100
AcDbLine
 10
348.696681679543
 20
279.3517192464829
 30
0.0
 11
347.4564564424902
 21
279.5077364294388
 31
0.0
  0
LINE
  5
174B
330
18
100
AcDbEntity
  8
目盛
100
AcDbLine
 10
348.7755926897394
 20
280.0699338282936
 30
0.0
 11
347.531078810828
 21
280.1869176100641
 31
0.0
  0
LINE
  5
174C
330
18
100
AcDbEntity
  8
目盛
100
AcDbLine
 10
348.5914821330029
 20
285.832322120383
 30
0.0
 11
346.3693679662955
 21
285.4791810294309
 31
0.0
  0
LINE
  5
174D
330
18
100
AcDbEntity
  8
目盛
100
AcDbLine
 10
348.7733260399522
 20
284.3989156475379
 30
0.0
 11
347.5289353485293
 21
284.2806286782627
 31
0.0
  0
LINE
  5
174E
330
18
100
AcDbEntity
  8
目盛
100
AcDbLine
 10
348.6936629606097
 20
285.117047200142
 30
0.0
 11
347.4536017843686
 21
284.9597313421382
 31
0.0
  0
LINE
  5
174F
330
18
100
AcDbEntity
  8
目盛
100
AcDbLine
 10
348.8648067823627
 20
282.9569196015459
 30
0.0
 11
347.615444311461
 21
282.9170019825962
 31
0.0
  0
LINE
  5
1750
330
18
100
AcDbEntity
  8
目盛
100
AcDbLine
 10
348.8303927531886
 20
283.6786361717116
 30
0.0
 11
347.5829006099593
 21
283.5994948261225
 31
0.0
  0
LINE
  5
1751
330
18
100
AcDbEntity
  8
目盛
100
AcDbLine
 10
347.7471127730924
 20
289.3412786653389
 30
0.0
 11
345.607599956811
 21
288.6448700862932
 31
0.0
  0
LINE
  5
1752
330
18
100
AcDbEntity
  8
目盛
100
AcDbLine
 10
348.1509520545591
 20
287.9539664590806
 30
0.0
 11
346.9403860362555
 21
287.6424702065693
 31
0.0
  0
LINE
  5
1753
330
18
100
AcDbEntity
  8
目盛
100
AcDbLine
 10
347.9599292346566
 20
288.6507945694008
 30
0.0
 11
346.7597448913477
 21
288.3014272239372
 31
0.0
  0
LINE
  5
1754
330
18
100
AcDbEntity
  8
目盛
100
AcDbLine
 10
348.4668843972719
 20
286.5440345182705
 30
0.0
 11
347.2391481429513
 21
286.3091650016727
 31
0.0
  0
LINE
  5
1755
330
18
100
AcDbEntity
  8
目盛
100
AcDbLine
 10
348.3199927163393
 20
287.2514820195937
 30
0.0
 11
347.1002397055475
 21
286.9781642692283
 31
0.0
  0
LINE
  5
1756
330
18
100
AcDbEntity
  8
目盛
100
AcDbLine
 10
346.3642172611934
 20
292.6749456633329
 30
0.0
 11
344.3599877015108
 21
291.6524174866573
 31
0.0
  0
LINE
  5
1757
330
18
100
AcDbEntity
  8
目盛
100
AcDbLine
 10
346.9801080538022
 20
291.3678879544047
 30
0.0
 11
345.8331748616266
 21
290.8708524901909
 31
0.0
  0
LINE
  5
1758
330
18
100
AcDbEntity
  8
目盛
100
AcDbLine
 10
346.682429109134
 20
292.026254401725
 30
0.0
 11
345.551674120473
 21
291.4934381523307
 31
0.0
  0
LINE
  5
1759
330
18
100
AcDbEntity
  8
目盛
100
AcDbLine
 10
347.5127126940202
 20
290.024737322455
 30
0.0
 11
346.3368335974851
 21
289.6006991751951
 31
0.0
  0
LINE
  5
175A
330
18
100
AcDbEntity
  8
目盛
100
AcDbLine
 10
347.2569603220191
 20
290.7004960495696
 30
0.0
 11
346.0949808109186
 21
290.2397318845316
 31
0.0
  0
LINE
  5
175B
330
18
100
AcDbEntity
  8
目盛
100
AcDbLine
 10
344.4768470743759
 20
295.7512371690677
 30
0.0
 11
342.6572515547081
 21
294.4277674320486
 31
0.0
  0
LINE
  5
175C
330
18
100
AcDbEntity
  8
目盛
100
AcDbLine
 10
345.2896241027884
 20
294.5566180561394
 30
0.0
 11
344.2345650383853
 21
293.8862820429184
 31
0.0
  0
LINE
  5
175D
330
18
100
AcDbEntity
  8
目盛
100
AcDbLine
 10
344.8926188769119
 20
295.1603116735338
 30
0.0
 11
343.8591361834804
 21
294.4571662245847
 31
0.0
  0
LINE
  5
175E
330
18
100
AcDbEntity
  8
目盛
100
AcDbLine
 10
346.0257865466561
 20
293.3133215592702
 30
0.0
 11
344.930718653782
 21
292.7105560078355
 31
0.0
  0
LINE
  5
175F
330
18
100
AcDbEntity
  8
目盛
100
AcDbLine
 10
345.6674709557786
 20
293.9407520895999
 30
0.0
 11
344.5918767363217
 21
293.3038870528211
 31
0.0
  0
LINE
  5
1760
330
18
100
AcDbEntity
  8
目盛
100
AcDbLine
 10
342.1314755304619
 20
298.4944046760464
 30
0.0
 11
340.5413185313944
 21
296.9025815959532
 31
0.0
  0
LINE
  5
1761
330
18
100
AcDbEntity
  8
目盛
100
AcDbLine
 10
343.1211255267863
 20
297.4416396463917
 30
0.0
 11
342.1839196458616
 21
296.6145089815264
 31
0.0
  0
LINE
  5
1762
330
18
100
AcDbEntity
  8
目盛
100
AcDbLine
 10
342.6345696059474
 20
297.9757954934555
 30
0.0
 11
341.7238069815902
 21
297.1196346195108
 31
0.0
  0
LINE
  5
1763
330
18
100
AcDbEntity
  8
目盛
100
AcDbLine
 10
344.0427190117526
 20
296.3288113706203
 30
0.0
 11
343.0554265283841
 21
295.5621605033513
 31
0.0
  0
LINE
  5
1764
330
18
100
AcDbEntity
  8
目盛
100
AcDbLine
 10
343.5906631210274
 20
296.8924642821859
 30
0.0
 11
342.6279388925896
 21
296.0951801045057
 31
0.0
  0
LINE
  5
1765
330
18
100
AcDbEntity
  8
目盛
100
AcDbLine
 10
339.3858534607046
 20
300.8369022961958
 30
0.0
 11
338.0642899249829
 21
299.0159218402185
 31
0.0
  0
LINE
  5
1766
330
18
100
AcDbEntity
  8
目盛
100
AcDbLine
 10
340.5280079575713
 20
299.9519139187716
 30
0.0
 11
339.7317323793214
 21
298.9883553043205
 31
0.0
  0
LINE
  5
1767
330
18
100
AcDbEntity
  8
目盛
100
AcDbLine
 10
339.9638819633278
 20
300.4033793057889
 30
0.0
 11
339.1982654065041
 21
299.4152845289998
 31
0.0
  0
LINE
  5
1768
330
18
100
AcDbEntity
  8
目盛
100
AcDbLine
 10
341.6123397934429
 20
298.996955389513
 30
0.0
 11
340.7571331371565
 21
298.0852966951303
 31
0.0
  0
LINE
  5
1769
330
18
100
AcDbEntity
  8
目盛
100
AcDbLine
 10
341.0776747191871
 20
299.4829516769749
 30
0.0
 11
340.2515259473712
 21
298.5448801408822
 31
0.0
  0
LINE
  5
176A
330
18
100
AcDbEntity
  8
目盛
100
AcDbLine
 10
336.3075871926584
 20
302.7210499638041
 30
0.0
 11
335.28715840055
 21
300.7157507142565
 31
0.0
  0
LINE
  5
176B
330
18
100
AcDbEntity
  8
目盛
100
AcDbLine
 10
337.5741225557612
 20
302.0256295895706
 30
0.0
 11
336.9383842276096
 21
300.9493690364893
 31
0.0
  0
LINE
  5
176C
330
18
100
AcDbEntity
  8
目盛
100
AcDbLine
 10
336.9463171423179
 20
302.3832879403851
 30
0.0
 11
336.3446986735927
 21
301.2875894334549
 31
0.0
  0
LINE
  5
176D
330
18
100
AcDbEntity
  8
目盛
100
AcDbLine
 10
338.7944928940479
 20
301.2520550551407
 30
0.0
 11
338.0924300909895
 21
300.2178365963217
 31
0.0
  0
LINE
  5
176E
330
18
100
AcDbEntity
  8
目盛
100
AcDbLine
 10
338.1903838648414
 20
301.6484278769724
 30
0.0
 11
337.5211530742398
 21
300.5926674169669
 31
0.0
  0
LINE
  5
176F
330
18
100
AcDbEntity
  8
目盛
100
AcDbLine
 10
332.9724738580229
 20
304.1004537101672
 30
0.0
 11
332.2783061529984
 21
301.9602127897796
 31
0.0
  0
LINE
  5
1770
330
18
100
AcDbEntity
  8
目盛
100
AcDbLine
 10
334.3322037833322
 20
303.611724896706
 30
0.0
 11
333.8726566928126
 21
302.449263511715
 31
0.0
  0
LINE
  5
1771
330
18
100
AcDbEntity
  8
目盛
100
AcDbLine
 10
333.6561776035349
 20
303.8667694757206
 30
0.0
 11
333.2333710662653
 21
302.6904469723048
 31
0.0
  0
LINE
  5
1772
330
18
100
AcDbEntity
  8
目盛
100
AcDbLine
 10
335.6585630561284
 20
303.0385823294891
 30
0.0
 11
335.1269312225221
 21
301.9072699970641
 31
0.0
  0
LINE
  5
1773
330
18
100
AcDbEntity
  8
目盛
100
AcDbLine
 10
334.9998852411931
 20
303.3355716713312
 30
0.0
 11
334.5040511149203
 21
302.1881186138061
 31
0.0
  0
LINE
  5
1774
330
18
100
AcDbEntity
  8
目盛
100
AcDbLine
 10
329.4626350157032
 20
304.9411480370711
 30
0.0
 11
329.1118211104709
 21
302.718665280356
 31
0.0
  0
LINE
  5
1775
330
18
100
AcDbEntity
  8
目盛
100
AcDbLine
 10
330.882078439773
 20
304.6711449097675
 30
0.0
 11
330.6100381614034
 21
303.4511063501536
 31
0.0
  0
LINE
  5
1776
330
18
100
AcDbEntity
  8
目盛
100
AcDbLine
 10
330.1744775017707
 20
304.8172956730024
 30
0.0
 11
329.9408937961187
 21
303.5893141371257
 31
0.0
  0
LINE
  5
1777
330
18
100
AcDbEntity
  8
目盛
100
AcDbLine
 10
332.2817672798485
 20
304.3125469819195
 30
0.0
 11
331.9336569558227
 21
303.1119974401235
 31
0.0
  0
LINE
  5
1778
330
18
100
AcDbEntity
  8
目盛
100
AcDbLine
 10
331.5847395130145
 20
304.5028399805248
 30
0.0
 11
331.2745111328384
 21
303.2919484279348
 31
0.0
  0
MTEXT
  5
181C
330
18
100
AcDbEntity
  8
DEFPOINTS
  6
Continuous
100
AcDbMText
 10
1067.717075652788
 20
104.5274976059345
 30
0.0
 40
1.0
 41
0.0
 71
     4
 72
     1
  1
\A1;
 73
     1
 44
1.0
  0
LINE
  5
1868
330
18
100
AcDbEntity
  8
0
  6
ByBlock
 62
     2
100
AcDbLine
 10
302.8765373177728
 20
282.2224354128728
 30
0.0
 11
302.8765373177728
 21
335.0728300737429
 31
0.0
  0
LINE
  5
1869
330
18
100
AcDbEntity
  8
0
  6
ByBlock
 62
     2
100
AcDbLine
 10
348.8765373177728
 20
282.2224354128728
 30
0.0
 11
348.8765373177728
 21
335.0728300737429
 31
0.0
  0
LINE
  5
186A
330
18
100
AcDbEntity
  8
0
  6
ByBlock
 62
     2
100
AcDbLine
 10
305.3765373177729
 20
333.8228300737429
 30
0.0
 11
346.3765373177728
 21
333.8228300737429
 31
0.0
  0
INSERT
  5
186B
330
18
100
AcDbEntity
  8
0
  6
ByBlock
 62
     2
100
AcDbBlockReference
  2
_OPEN
 10
302.8765373177728
 20
333.8228300737429
 30
0.0
 41
2.5
 42
2.5
 43
2.5
 50
180.0
  0
INSERT
  5
186C
330
18
100
AcDbEntity
  8
0
  6
ByBlock
 62
     2
100
AcDbBlockReference
  2
_OPEN
 10
348.8765373177728
 20
333.8228300737429
 30
0.0
 41
2.5
 42
2.5
 43
2.5
  0
MTEXT
  5
186D
330
18
100
AcDbEntity
  8
0
  6
ByBlock
 62
     6
100
AcDbMText
 10
325.8765373177728
 20
335.6978300737429
 30
0.0
 40
2.5
 41
0.0
 71
     5
 72
     1
  1
\A1;46
  7
STYLE3
 73
     1
 44
1.0
  0
POINT
  5
186E
330
18
100
AcDbEntity
  8
DEFPOINTS
  6
ByBlock
 62
     0
100
AcDbPoint
 10
302.8765373177728
 20
282.2224354128728
 30
0.0
  0
POINT
  5
186F
330
18
100
AcDbEntity
  8
DEFPOINTS
  6
ByBlock
 62
     0
100
AcDbPoint
 10
348.8765373177728
 20
282.2224354128728
 30
0.0
  0
POINT
  5
1870
330
18
100
AcDbEntity
  8
DEFPOINTS
  6
ByBlock
 62
     0
100
AcDbPoint
 10
348.8765373177728
 20
333.8228300737429
 30
0.0
  0
LINE
  5
1871
330
18
100
AcDbEntity
  8
0
  6
ByBlock
 62
     2
100
AcDbLine
 10
403.2126787509933
 20
308.6224354128728
 30
0.0
 11
373.6698569690491
 21
308.6224354128728
 31
0.0
  0
LINE
  5
1872
330
18
100
AcDbEntity
  8
0
  6
ByBlock
 62
     2
100
AcDbLine
 10
403.2126787509933
 20
255.8224354128729
 30
0.0
 11
373.6698569690491
 21
255.8224354128729
 31
0.0
  0
LINE
  5
1873
330
18
100
AcDbEntity
  8
0
  6
ByBlock
 62
     2
100
AcDbLine
 10
374.9198569690491
 20
306.1224354128728
 30
0.0
 11
374.9198569690491
 21
258.3224354128728
 31
0.0
  0
INSERT
  5
1874
330
18
100
AcDbEntity
  8
0
  6
ByBlock
 62
     2
100
AcDbBlockReference
  2
_OPEN
 10
374.9198569690491
 20
308.6224354128728
 30
0.0
 41
2.5
 42
2.5
 43
2.5
 50
90.0
  0
INSERT
  5
1875
330
18
100
AcDbEntity
  8
0
  6
ByBlock
 62
     2
100
AcDbBlockReference
  2
_OPEN
 10
374.9198569690491
 20
255.8224354128729
 30
0.0
 41
2.5
 42
2.5
 43
2.5
 50
270.0
  0
MTEXT
  5
1876
330
18
100
AcDbEntity
  8
0
  6
ByBlock
 62
     6
100
AcDbMText
 10
373.0448569690491
 20
282.2224354128728
 30
0.0
 40
2.5
 41
0.0
 71
     5
 72
     1
  1
\A1;φ53
  7
STYLE3
 11
0.0000000000000001
 21
1.0
 31
0.0
 73
     1
 44
1.0
  0
POINT
  5
1877
330
18
100
AcDbEntity
  8
DEFPOINTS
  6
ByBlock
 62
     0
100
AcDbPoint
 10
403.2126787509933
 20
308.6224354128728
 30
0.0
  0
POINT
  5
1878
330
18
100
AcDbEntity
  8
DEFPOINTS
  6
ByBlock
 62
     0
100
AcDbPoint
 10
403.2126787509933
 20
255.8224354128729
 30
0.0
  0
POINT
  5
1879
330
18
100
AcDbEntity
  8
DEFPOINTS
  6
ByBlock
 62
     0
100
AcDbPoint
 10
374.9198569690491
 20
255.8224354128729
 30
0.0
  0
LINE
  5
187A
330
18
100
AcDbEntity
  8
ﾊｯﾁﾝｸ
100
AcDbLine
 10
323.3765373177729
 20
230.6153065173932
 30
0.0
 11
323.7836662132526
 21
231.0224354128728
 31
0.0
  0
LINE
  5
187B
330
18
100
AcDbEntity
  8
ﾊｯﾁﾝｸ
100
AcDbLine
 10
323.3765373177729
 20
229.2682680992328
 30
0.0
 11
325.1307046314129
 21
231.0224354128728
 31
0.0
  0
LINE
  5
187C
330
18
100
AcDbEntity
  8
ﾊｯﾁﾝｸ
100
AcDbLine
 10
323.3777430495733
 20
227.9224354128729
 30
0.0
 11
325.8765373177729
 21
230.4212296810724
 31
0.0
  0
LINE
  5
187D
330
18
100
AcDbEntity
  8
ﾊｯﾁﾝｸ
100
AcDbLine
 10
324.7247814677336
 20
227.9224354128728
 30
0.0
 11
325.8765373177728
 21
229.074191262912
 31
0.0
  0
LINE
  5
187E
330
18
100
AcDbEntity
  8
ﾊｯﾁﾝｸ
100
AcDbLine
 10
323.4705852419583
 20
227.9224354128729
 30
0.0
 11
323.3765373177729
 21
228.0164833370582
 31
0.0
  0
LINE
  5
187F
330
18
100
AcDbEntity
  8
ﾊｯﾁﾝｸ
100
AcDbLine
 10
324.8176236601187
 20
227.9224354128728
 30
0.0
 11
323.3765373177729
 21
229.3635217552186
 31
0.0
  0
LINE
  5
1880
330
18
100
AcDbEntity
  8
ﾊｯﾁﾝｸ
100
AcDbLine
 10
325.8765373177728
 20
228.210560173379
 30
0.0
 11
323.3765373177729
 21
230.7105601733789
 31
0.0
  0
LINE
  5
1881
330
18
100
AcDbEntity
  8
ﾊｯﾁﾝｸ
100
AcDbLine
 10
325.8765373177728
 20
229.5575985915394
 30
0.0
 11
324.4117004964394
 21
231.0224354128728
 31
0.0
  0
LINE
  5
1882
330
18
100
AcDbEntity
  8
ﾊｯﾁﾝｸ
100
AcDbLine
 10
325.8765373177728
 20
230.9046370096998
 30
0.0
 11
325.7587389145998
 21
231.0224354128728
 31
0.0
  0
TEXT
  5
1883
330
18
100
AcDbEntity
  8
文字
100
AcDbText
 10
331.5811557834247
 20
249.9525204047105
 30
0.0
 40
1.0
  1
0
  7
STYLE3
100
AcDbText
  0
TEXT
  5
1884
330
18
100
AcDbEntity
  8
文字
100
AcDbText
 10
330.3906135798073
 20
248.5407422028993
 30
0.0
 40
1.0
  1
-0.022
  7
STYLE3
100
AcDbText
  0
HATCH
  5
1885
330
18
100
AcDbEntity
  8
針
100
AcDbHatch
 10
0.0
 20
0.0
 30
0.0
210
0.0
220
0.0
230
1.0
  2
SOLID
 70
     1
 71
     0
 91
        2
 92
        7
 72
     1
 73
     1
 93
        5
 10
321.6346060122521
 20
271.7957897117147
 42
0.31735696877887
 10
322.6598119979716
 20
271.0485911615826
 42
0.0
 10
322.9265200480638
 20
271.4099218388653
 42
0.0
 10
322.916997060712
 20
271.4380562930494
 42
-0.4142135623731173
 10
321.9661296094632
 20
271.9080042584197
 42
0.0
 97
        0
 92
        7
 72
     1
 73
     1
 93
        4
 10
321.6346060122521
 20
271.7957897117147
 42
0.0
 10
321.9661296094632
 20
271.9080042584197
 42
-0.4142135623730728
 10
322.4360775748335
 20
272.8588717096684
 42
0.0
 10
322.3238630281285
 20
273.1903953068796
 42
0.4142135623730844
 97
        0
 75
     0
 76
     1
 47
0.0161501285364394
 98
        2
 10
321.9802075153692
 20
271.4869169895329
 10
321.7674979734185
 20
272.1657120604501
450
        0
451
        0
460
0.0
461
0.0
452
        0
462
0.0
453
        0
470

  0
HATCH
  5
1886
330
18
100
AcDbEntity
  8
針
100
AcDbHatch
 10
0.0
 20
0.0
 30
0.0
210
0.0
220
0.0
230
1.0
  2
SOLID
 70
     1
 71
     0
 91
        4
 92
        7
 72
     1
 73
     1
 93
        4
 10
322.8391276700155
 20
273.2363814510571
 42
0.0
 10
322.78739437612
 20
272.8902258988804
 42
-0.4142135623730951
 10
323.4182992152942
 20
272.0376069430118
 42
0.0
 10
323.7644547674709
 20
271.9858736491165
 42
0.4142135623730996
 97
        0
 92
        7
 72
     1
 73
     1
 93
        5
 10
322.78739437612
 20
272.8902258988804
 42
0.0
 10
322.8391276700155
 20
273.2363814510571
 42
0.3173569687788799
 10
321.7059375145478
 20
272.6660893697286
 42
0.0
 10
321.9053992382685
 20
272.2637113595194
 42
0.0
 10
321.9347754202513
 20
272.2593210597063
 42
-0.4142135623730839
 97
        0
 92
        7
 72
     1
 73
     1
 93
        4
 10
323.7644547674709
 20
271.9858736491165
 42
0.0
 10
323.4182992152942
 20
272.0376069430118
 42
-0.4142135623730951
 10
322.5656802594256
 20
271.4067021038375
 42
0.0
 10
322.5139469655303
 20
271.0605465516609
 42
0.4142135623730996
 97
        0
 92
        7
 72
     1
 73
     1
 93
        4
 10
322.5656802594256
 20
271.4067021038375
 42
-0.1036385141593389
 10
322.2772379344733
 20
271.5135939339463
 42
0.0
 10
322.5008027461915
 20
271.0625922960682
 42
0.003023315109616
 10
322.5139469655303
 20
271.0605465516609
 42
0.0
 97
        0
 75
     0
 76
     1
 47
0.0223982890607777
 98
        4
 10
323.5282925058414
 20
272.652519502358
 10
322.3986533047384
 20
272.9798744896206
 10
323.5477409766481
 20
271.7210841521668
 10
322.4928265299349
 20
271.3352126954374
450
        0
451
        0
460
0.0
461
0.0
452
        0
462
0.0
453
        0
470

  0
CIRCLE
  5
1887
330
18
100
AcDbEntity
  8
針
100
AcDbCircle
 10
322.6765373177728
 20
272.1484640013589
 30
0.0
 40
1.1
  0
CIRCLE
  5
1888
330
18
100
AcDbEntity
  8
針
100
AcDbCircle
 10
322.6765373177728
 20
272.1484640013589
 30
0.0
 40
0.75
  0
HATCH
  5
1889
330
18
100
AcDbEntity
  8
針
100
AcDbHatch
 10
0.0
 20
0.0
 30
0.0
210
0.0
220
0.0
230
1.0
  2
SOLID
 70
     1
 71
     0
 91
        1
 92
        7
 72
     1
 73
     1
 93
        7
 10
327.3765373177729
 20
272.0484640013589
 42
0.0
 10
327.3765373177728
 20
272.148464001359
 42
0.0
 10
327.3765373177728
 20
272.248464001359
 42
0.0
 10
324.1339066631024
 20
272.2933723589973
 42
-0.2935495917910092
 10
323.6832390035142
 20
272.5918055355342
 42
-0.2104432563350663
 10
323.683239302811
 20
271.7051231468011
 42
-0.2935491884945053
 10
324.1339066631023
 20
272.0035556437206
 42
0.0
 97
        0
 75
     0
 76
     1
 47
0.0140573597042523
 98
        1
 10
325.571097363073
 20
272.0898622854615
450
        0
451
        0
460
0.0
461
0.0
452
        0
462
0.0
453
        0
470

  0
LINE
  5
188A
330
18
100
AcDbEntity
  8
針
100
AcDbLine
 10
324.1339066631024
 20
272.0035556437206
 30
0.0
 11
327.3765373177728
 21
272.048464001359
 31
0.0
  0
LINE
  5
188B
330
18
100
AcDbEntity
  8
針
100
AcDbLine
 10
324.1339066631024
 20
272.2933723589973
 30
0.0
 11
327.3765373177728
 21
272.248464001359
 31
0.0
  0
CIRCLE
  5
188C
330
18
100
AcDbEntity
  8
針
 62
     4
100
AcDbCircle
 10
322.6765373177728
 20
272.1484640013589
 30
0.0
 40
0.4
  0
ARC
  5
188D
330
18
100
AcDbEntity
  8
針
100
AcDbCircle
 10
324.1408306788508
 20
271.5036035880134
 30
0.0
 40
0.5
100
AcDbArc
 50
90.79345912073469
 51
156.2317787024804
  0
ARC
  5
188E
330
18
100
AcDbEntity
  8
針
100
AcDbCircle
 10
324.1408306788509
 20
272.7933244147045
 30
0.0
 40
0.5
100
AcDbArc
 50
203.7682212975196
 51
269.2065408792653
  0
LINE
  5
188F
330
18
100
AcDbEntity
  8
文字
100
AcDbLine
 10
327.3765373177728
 20
272.048464001359
 30
0.0
 11
327.3765373177728
 21
272.248464001359
 31
0.0
  0
LINE
  5
1890
330
18
100
AcDbEntity
  8
0
  6
ByBlock
 62
     2
100
AcDbLine
 10
413.5126787509935
 20
222.2224354128728
 30
0.0
 11
373.6698569690492
 21
222.2224354128728
 31
0.0
  0
LINE
  5
1891
330
18
100
AcDbEntity
  8
0
  6
ByBlock
 62
     2
100
AcDbLine
 10
374.9198569690492
 20
253.3224354128728
 30
0.0
 11
374.9198569690492
 21
224.7224354128728
 31
0.0
  0
INSERT
  5
1892
330
18
100
AcDbEntity
  8
0
  6
ByBlock
 62
     2
100
AcDbBlockReference
  2
_OPEN
 10
374.9198569690492
 20
255.8224354128729
 30
0.0
 41
2.5
 42
2.5
 43
2.5
 50
90.0
  0
INSERT
  5
1893
330
18
100
AcDbEntity
  8
0
  6
ByBlock
 62
     2
100
AcDbBlockReference
  2
_OPEN
 10
374.9198569690492
 20
222.2224354128728
 30
0.0
 41
2.5
 42
2.5
 43
2.5
 50
270.0
  0
MTEXT
  5
1894
330
18
100
AcDbEntity
  8
0
  6
ByBlock
 62
     6
100
AcDbMText
 10
373.0448569690492
 20
239.0224354128728
 30
0.0
 40
2.5
 41
0.0
 71
     5
 72
     1
  1
\A1;33.5
  7
STYLE3
 11
0.0000000000000001
 21
1.0
 31
0.0
 73
     1
 44
1.0
  0
POINT
  5
1895
330
18
100
AcDbEntity
  8
DEFPOINTS
  6
ByBlock
 62
     0
100
AcDbPoint
 10
403.2126787509933
 20
255.8224354128729
 30
0.0
  0
POINT
  5
1896
330
18
100
AcDbEntity
  8
DEFPOINTS
  6
ByBlock
 62
     0
100
AcDbPoint
 10
413.5126787509935
 20
222.2224354128728
 30
0.0
  0
POINT
  5
1897
330
18
100
AcDbEntity
  8
DEFPOINTS
  6
ByBlock
 62
     0
100
AcDbPoint
 10
374.9198569690492
 20
222.2224354128728
 30
0.0
  0
LINE
  5
1898
330
18
100
AcDbEntity
  8
ﾊｯﾁﾝｸ
100
AcDbLine
 10
411.0126787509934
 20
230.6153065173933
 30
0.0
 11
411.419807646473
 21
231.0224354128728
 31
0.0
  0
LINE
  5
1899
330
18
100
AcDbEntity
  8
ﾊｯﾁﾝｸ
100
AcDbLine
 10
411.0126787509934
 20
229.2682680992328
 30
0.0
 11
412.7668460646334
 21
231.0224354128728
 31
0.0
  0
LINE
  5
189A
330
18
100
AcDbEntity
  8
ﾊｯﾁﾝｸ
100
AcDbLine
 10
411.0138844827938
 20
227.9224354128728
 30
0.0
 11
413.5126787509935
 21
230.4212296810725
 31
0.0
  0
LINE
  5
189B
330
18
100
AcDbEntity
  8
ﾊｯﾁﾝｸ
100
AcDbLine
 10
412.3609229009542
 20
227.9224354128728
 30
0.0
 11
413.5126787509934
 21
229.074191262912
 31
0.0
  0
LINE
  5
189C
330
18
100
AcDbEntity
  8
ﾊｯﾁﾝｸ
100
AcDbLine
 10
411.1067266751788
 20
227.9224354128728
 30
0.0
 11
411.0126787509933
 21
228.0164833370583
 31
0.0
  0
LINE
  5
189D
330
18
100
AcDbEntity
  8
ﾊｯﾁﾝｸ
100
AcDbLine
 10
412.4537650933392
 20
227.9224354128727
 30
0.0
 11
411.0126787509933
 21
229.3635217552186
 31
0.0
  0
LINE
  5
189E
330
18
100
AcDbEntity
  8
ﾊｯﾁﾝｸ
100
AcDbLine
 10
413.5126787509933
 20
228.210560173379
 30
0.0
 11
411.0126787509934
 21
230.7105601733789
 31
0.0
  0
LINE
  5
189F
330
18
100
AcDbEntity
  8
ﾊｯﾁﾝｸ
100
AcDbLine
 10
413.5126787509935
 20
229.5575985915393
 30
0.0
 11
412.0478419296599
 21
231.0224354128728
 31
0.0
  0
LINE
  5
18A0
330
18
100
AcDbEntity
  8
ﾊｯﾁﾝｸ
100
AcDbLine
 10
413.5126787509935
 20
230.9046370096997
 30
0.0
 11
413.3948803478203
 21
231.0224354128728
 31
0.0
  0
LINE
  5
18A4
330
18
100
AcDbEntity
  8
ﾊｯﾁﾝｸ
  6
Continuous
100
AcDbLine
 10
321.8765373177729
 20
315.9889292091705
 30
0.0
 11
322.1100435214751
 21
316.2224354128727
 31
0.0
  0
LINE
  5
18A5
330
18
100
AcDbEntity
  8
ﾊｯﾁﾝｸ
  6
Continuous
100
AcDbLine
 10
321.8765373177729
 20
314.2211622562042
 30
0.0
 11
323.8778104744414
 21
316.2224354128727
 31
0.0
  0
LINE
  5
18A6
330
18
100
AcDbEntity
  8
ﾊｯﾁﾝｸ
  6
Continuous
100
AcDbLine
 10
321.8765373177729
 20
312.4533953032378
 30
0.0
 11
325.6455774274078
 21
316.2224354128727
 31
0.0
  0
LINE
  5
18A7
330
18
100
AcDbEntity
  8
ﾊｯﾁﾝｸ
  6
Continuous
100
AcDbLine
 10
321.8765373177729
 20
310.6856283502714
 30
0.0
 11
325.8765373177729
 21
314.6856283502714
 31
0.0
  0
LINE
  5
18A8
330
18
100
AcDbEntity
  8
ﾊｯﾁﾝｸ
  6
Continuous
100
AcDbLine
 10
323.1811113333405
 20
310.2224354128727
 30
0.0
 11
325.8765373177729
 21
312.9178613973051
 31
0.0
  0
LINE
  5
18A9
330
18
100
AcDbEntity
  8
ﾊｯﾁﾝｸ
  6
Continuous
100
AcDbLine
 10
324.9488782863069
 20
310.2224354128727
 30
0.0
 11
325.8765373177729
 21
311.1500944443386
 31
0.0
  0
LINE
  5
18AA
330
18
100
AcDbEntity
  8
ﾊｯﾁﾝｸ
  6
Continuous
100
AcDbLine
 10
321.9280829640918
 20
310.2224354128726
 30
0.0
 11
321.8765373177729
 21
310.2739810591916
 31
0.0
  0
LINE
  5
18AB
330
18
100
AcDbEntity
  8
ﾊｯﾁﾝｸ
  6
Continuous
100
AcDbLine
 10
323.6958499170582
 20
310.2224354128727
 30
0.0
 11
321.8765373177728
 21
312.041748012158
 31
0.0
  0
LINE
  5
18AC
330
18
100
AcDbEntity
  8
ﾊｯﾁﾝｸ
  6
Continuous
100
AcDbLine
 10
325.4636168700245
 20
310.2224354128727
 30
0.0
 11
321.8765373177728
 21
313.8095149651244
 31
0.0
  0
LINE
  5
18AD
330
18
100
AcDbEntity
  8
ﾊｯﾁﾝｸ
  6
Continuous
100
AcDbLine
 10
325.8765373177729
 20
311.5772819180907
 30
0.0
 11
321.8765373177729
 21
315.5772819180907
 31
0.0
  0
LINE
  5
18AE
330
18
100
AcDbEntity
  8
ﾊｯﾁﾝｸ
  6
Continuous
100
AcDbLine
 10
325.8765373177728
 20
313.3450488710571
 30
0.0
 11
322.9991507759573
 21
316.2224354128727
 31
0.0
  0
LINE
  5
18AF
330
18
100
AcDbEntity
  8
ﾊｯﾁﾝｸ
  6
Continuous
100
AcDbLine
 10
325.8765373177728
 20
315.1128158240235
 30
0.0
 11
324.7669177289237
 21
316.2224354128726
 31
0.0
  0
LINE
  5
18B0
330
18
100
AcDbEntity
  8
ﾊｯﾁﾝｸ
  6
Continuous
100
AcDbLine
 10
409.5126787509932
 20
315.9889292091706
 30
0.0
 11
409.7461849546954
 21
316.2224354128728
 31
0.0
  0
LINE
  5
18B1
330
18
100
AcDbEntity
  8
ﾊｯﾁﾝｸ
  6
Continuous
100
AcDbLine
 10
409.5126787509932
 20
314.2211622562042
 30
0.0
 11
411.5139519076617
 21
316.2224354128728
 31
0.0
  0
LINE
  5
18B2
330
18
100
AcDbEntity
  8
ﾊｯﾁﾝｸ
  6
Continuous
100
AcDbLine
 10
409.5126787509932
 20
312.4533953032378
 30
0.0
 11
413.2817188606281
 21
316.2224354128728
 31
0.0
  0
LINE
  5
18B3
330
18
100
AcDbEntity
  8
ﾊｯﾁﾝｸ
  6
Continuous
100
AcDbLine
 10
409.5126787509931
 20
310.6856283502714
 30
0.0
 11
413.5126787509931
 21
314.6856283502714
 31
0.0
  0
LINE
  5
18B4
330
18
100
AcDbEntity
  8
ﾊｯﾁﾝｸ
  6
Continuous
100
AcDbLine
 10
410.8172527665608
 20
310.2224354128728
 30
0.0
 11
413.5126787509932
 21
312.9178613973051
 31
0.0
  0
LINE
  5
18B5
330
18
100
AcDbEntity
  8
ﾊｯﾁﾝｸ
  6
Continuous
100
AcDbLine
 10
412.5850197195273
 20
310.2224354128728
 30
0.0
 11
413.5126787509932
 21
311.1500944443387
 31
0.0
  0
LINE
  5
18B6
330
18
100
AcDbEntity
  8
ﾊｯﾁﾝｸ
  6
Continuous
100
AcDbLine
 10
409.5642243973121
 20
310.2224354128728
 30
0.0
 11
409.5126787509932
 21
310.2739810591917
 31
0.0
  0
LINE
  5
18B7
330
18
100
AcDbEntity
  8
ﾊｯﾁﾝｸ
  6
Continuous
100
AcDbLine
 10
411.3319913502785
 20
310.2224354128728
 30
0.0
 11
409.5126787509932
 21
312.041748012158
 31
0.0
  0
LINE
  5
18B8
330
18
100
AcDbEntity
  8
ﾊｯﾁﾝｸ
  6
Continuous
100
AcDbLine
 10
413.0997583032449
 20
310.2224354128728
 30
0.0
 11
409.5126787509932
 21
313.8095149651245
 31
0.0
  0
LINE
  5
18B9
330
18
100
AcDbEntity
  8
ﾊｯﾁﾝｸ
  6
Continuous
100
AcDbLine
 10
413.5126787509932
 20
311.5772819180909
 30
0.0
 11
409.5126787509932
 21
315.5772819180909
 31
0.0
  0
LINE
  5
18BA
330
18
100
AcDbEntity
  8
ﾊｯﾁﾝｸ
  6
Continuous
100
AcDbLine
 10
413.5126787509932
 20
313.3450488710571
 30
0.0
 11
410.6352922091777
 21
316.2224354128727
 31
0.0
  0
LINE
  5
18BB
330
18
100
AcDbEntity
  8
ﾊｯﾁﾝｸ
  6
Continuous
100
AcDbLine
 10
413.5126787509932
 20
315.1128158240236
 30
0.0
 11
412.4030591621441
 21
316.2224354128727
 31
0.0
  0
LINE
  5
18BC
330
18
100
AcDbEntity
  8
外形線
 62
     2
100
AcDbLine
 10
435.9636563966631
 20
287.5834551059869
 30
0.0
 11
439.7948964005029
 21
297.2377256000486
 31
0.0
  0
LINE
  5
18BD
330
18
100
AcDbEntity
  8
外形線
 62
     2
100
AcDbLine
 10
439.7948964005029
 20
297.2377256000486
 30
0.0
 11
449.3311993775544
 21
297.2377256000486
 31
0.0
  0
LINE
  5
18C2
330
18
100
AcDbEntity
  8
外形線
 62
     2
100
AcDbLine
 10
436.3626132522032
 20
287.4632696720579
 30
0.0
 11
435.2425437930888
 21
285.1897139727467
 31
0.0
  0
LINE
  5
18C3
330
18
100
AcDbEntity
  8
外形線
 62
     2
100
AcDbLine
 10
435.2425437930888
 20
285.1897139727467
 30
0.0
 11
435.564699541123
 21
287.7036405399161
 31
0.0
  0
LINE
  5
18C4
330
18
100
AcDbEntity
  8
外形線
 62
     2
100
AcDbLine
 10
435.2425437930888
 20
285.1897139727467
 30
0.0
 11
435.9636563966632
 21
287.5834551059869
 31
0.0
  0
LINE
  5
18C5
330
18
100
AcDbEntity
  8
0
  6
ByBlock
 62
     2
100
AcDbLine
 10
424.0126787509932
 20
290.2240211563257
 30
0.0
 11
424.0126787509932
 21
298.4877256000487
 31
0.0
  0
LINE
  5
18C6
330
18
100
AcDbEntity
  8
0
  6
ByBlock
 62
     2
100
AcDbLine
 10
429.0126787509932
 20
290.2224354128728
 30
0.0
 11
429.0126787509932
 21
298.4877256000487
 31
0.0
  0
LINE
  5
18C7
330
18
100
AcDbEntity
  8
0
  6
ByBlock
 62
     2
100
AcDbLine
 10
421.5126787509932
 20
297.2377256000486
 30
0.0
 11
419.0126787509932
 21
297.2377256000486
 31
0.0
  0
LINE
  5
18C8
330
18
100
AcDbEntity
  8
0
  6
ByBlock
 62
     2
100
AcDbLine
 10
431.5126787509933
 20
297.2377256000486
 30
0.0
 11
434.0126787509933
 21
297.2377256000486
 31
0.0
  0
LINE
  5
18C9
330
18
100
AcDbEntity
  8
0
  6
ByBlock
 62
     2
100
AcDbLine
 10
424.0126787509932
 20
297.2377256000486
 30
0.0
 11
429.0126787509932
 21
297.2377256000486
 31
0.0
  0
INSERT
  5
18CA
330
18
100
AcDbEntity
  8
0
  6
ByBlock
 62
     2
100
AcDbBlockReference
  2
_OPEN
 10
424.0126787509932
 20
297.2377256000486
 30
0.0
 41
2.5
 42
2.5
 43
2.5
  0
INSERT
  5
18CB
330
18
100
AcDbEntity
  8
0
  6
ByBlock
 62
     2
100
AcDbBlockReference
  2
_OPEN
 10
429.0126787509932
 20
297.2377256000486
 30
0.0
 41
2.5
 42
2.5
 43
2.5
 50
180.0
  0
MTEXT
  5
18CC
330
18
100
AcDbEntity
  8
0
  6
ByBlock
 62
     6
100
AcDbMText
 10
426.5126787509932
 20
299.1127256000486
 30
0.0
 40
2.5
 41
0.0
 71
     5
 72
     1
  1
\A1;5
  7
STYLE3
 73
     1
 44
1.0
  0
POINT
  5
18CD
330
18
100
AcDbEntity
  8
DEFPOINTS
  6
ByBlock
 62
     0
100
AcDbPoint
 10
424.0126787509932
 20
290.2240211563257
 30
0.0
  0
POINT
  5
18CE
330
18
100
AcDbEntity
  8
DEFPOINTS
  6
ByBlock
 62
     0
100
AcDbPoint
 10
429.0126787509932
 20
290.2224354128728
 30
0.0
  0
POINT
  5
18CF
330
18
100
AcDbEntity
  8
DEFPOINTS
  6
ByBlock
 62
     0
100
AcDbPoint
 10
429.0126787509932
 20
297.2377256000486
 30
0.0
  0
TEXT
  5
18D0
330
18
100
AcDbEntity
  8
寸法線
 62
     6
100
AcDbText
 10
439.4264665978608
 20
297.6375291855542
 30
0.0
 40
2.5
  1
φ6.5
  7
STYLE3
100
AcDbText
  0
ARC
  5
1A36
330
18
100
AcDbEntity
  8
外形線
100
AcDbCircle
 10
325.8765373177729
 20
223.4224354128728
 30
0.0
 40
1.199999999999999
100
AcDbArc
 50
189.59406822686
 51
350.4059317731399
  0
ARC
  5
1A37
330
18
100
AcDbEntity
  8
外形線
100
AcDbCircle
 10
413.5126787509935
 20
223.4224354128728
 30
0.0
 40
1.199999999999999
100
AcDbArc
 50
189.59406822686
 51
350.4059317731399
  0
TEXT
  5
1A60
330
18
100
AcDbEntity
  8
文字
100
AcDbText
 10
324.4766641972238
 20
356.7656746103752
 30
0.0
 40
4.0
  1
Model No.5B Dial Gauge
  7
STYLE3
100
AcDbText
  0
LINE
  5
1A61
330
18
100
AcDbEntity
  8
外形線
100
AcDbLine
 10
323.9875741972239
 20
354.3751326103751
 30
0.0
 11
395.9875741972238
 21
354.3751326103751
 31
0.0
  0
LINE
  5
1A62
330
18
100
AcDbEntity
  8
外形線
100
AcDbLine
 10
323.9875741972239
 20
353.3751326103752
 30
0.0
 11
395.9875741972238
 21
353.3751326103752
 31
0.0
  0
LINE
  5
1A63
330
18
100
AcDbEntity
  8
外形線
100
AcDbLine
 10
350.6698601972238
 20
172.2583886103751
 30
0.0
 11
350.6698601972238
 21
192.6533726103751
 31
0.0
  0
TEXT
  5
1A64
330
18
100
AcDbEntity
  8
0
  6
Continuous
100
AcDbText
 10
352.1273281972238
 20
183.7711566103751
 30
0.0
 40
2.1
  1
Design and specifications are subject to change without notice for future improvement.
  7
STYLE3
100
AcDbText
  0
TEXT
  5
1A65
330
18
100
AcDbEntity
  8
0
  6
Continuous
100
AcDbText
 10
395.4401051972239
 20
175.7546726103751
 30
0.0
 40
2.399999999999999
  1
mm
  7
STYLE3
100
AcDbText
  0
LINE
  5
1A66
330
18
100
AcDbEntity
  8
外形線
100
AcDbLine
 10
350.6698601972238
 20
181.8731666103751
 30
0.0
 11
491.4612781972238
 21
181.8731666103751
 31
0.0
  0
TEXT
  5
1A67
330
18
100
AcDbEntity
  8
0
  6
Continuous
100
AcDbText
 10
354.4592791972239
 20
177.5028116103752
 30
0.0
 40
3.0
  1
三　　角　　法
  7
STYLE3
100
AcDbText
  0
TEXT
  5
1A68
330
18
100
AcDbEntity
  8
0
  6
Continuous
100
AcDbText
 10
351.8358361972239
 20
174.0065286103751
 30
0.0
 40
2.1
  1
3RD Angle Projection
  7
STYLE3
100
AcDbText
  0
TEXT
  5
1A69
330
18
100
AcDbEntity
  8
0
  6
Continuous
100
AcDbText
 10
387.5697781972239
 20
174.0065296103751
 30
0.0
 40
2.1
  1
Unit
  7
STYLE3
100
AcDbText
  0
TEXT
  5
1A6A
330
18
100
AcDbEntity
  8
0
  6
Continuous
100
AcDbText
 10
387.3980571972239
 20
177.5087666103751
 30
0.0
 40
3.0
  1
単位
  7
STYLE3
100
AcDbText
  0
LINE
  5
1A6B
330
18
100
AcDbEntity
  8
外形線
100
AcDbLine
 10
385.9405881972238
 20
181.8731666103751
 30
0.0
 11
385.9405881972238
 21
172.2583886103751
 31
0.0
  0
TEXT
  5
1A6C
330
18
100
AcDbEntity
  8
0
  6
Continuous
100
AcDbText
 10
454.9160691972239
 20
174.0065296103751
 30
0.0
 40
2.1
  1
OZAKI MFG. CO., LTD.
  7
STYLE3
100
AcDbText
  0
TEXT
  5
1A6D
330
18
100
AcDbEntity
  8
0
  6
Continuous
100
AcDbText
 10
454.0415901972238
 20
177.7941686103751
 30
0.0
 40
3.0
  1
株式会社　尾崎製作所
  7
STYLE3
100
AcDbText
  0
TEXT
  5
1A6E
330
18
100
AcDbEntity
  8
0
  6
Continuous
100
AcDbText
 10
433.6370361972239
 20
175.7546716103751
 30
0.0
 40
2.1
  1
2010.06.08
  7
STYLE3
100
AcDbText
  0
TEXT
  5
1A6F
330
18
100
AcDbEntity
  8
0
  6
Continuous
100
AcDbText
 10
414.7984571972238
 20
176.0460296103751
 30
0.0
 40
2.399999999999999
  1
1/1
  7
STYLE3
100
AcDbText
  0
TEXT
  5
1A70
330
18
100
AcDbEntity
  8
0
  6
Continuous
100
AcDbText
 10
405.1791681972238
 20
174.2978866103752
 30
0.0
 40
2.1
  1
Scale
  7
STYLE3
100
AcDbText
  0
TEXT
  5
1A71
330
18
100
AcDbEntity
  8
0
  6
Continuous
100
AcDbText
 10
404.7159531972239
 20
177.2174086103752
 30
0.0
 40
3.0
  1
尺 度
  7
STYLE3
100
AcDbText
  0
LINE
  5
1A72
330
18
100
AcDbEntity
  8
外形線
100
AcDbLine
 10
403.4302051972238
 20
181.8731666103751
 30
0.0
 11
403.4302051972238
 21
172.2583886103751
 31
0.0
  0
TEXT
  5
1A73
330
18
100
AcDbEntity
  8
0
  6
Continuous
100
AcDbText
 10
424.5088681972238
 20
177.3396136103752
 30
0.0
 40
3.0
  1
日 付
  7
STYLE3
100
AcDbText
  0
TEXT
  5
1A74
330
18
100
AcDbEntity
  8
0
  6
Continuous
100
AcDbText
 10
424.8922291972238
 20
174.0065306103751
 30
0.0
 40
2.1
  1
Date
  7
STYLE3
100
AcDbText
  0
LINE
  5
1A75
330
18
100
AcDbEntity
  8
外形線
100
AcDbLine
 10
422.9602781972238
 20
181.8731666103751
 30
0.0
 11
422.9602781972238
 21
172.2583886103751
 31
0.0
  0
LINE
  5
1A76
330
18
100
AcDbEntity
  8
外形線
100
AcDbLine
 10
452.6926271972238
 20
181.8731666103751
 30
0.0
 11
452.6926271972238
 21
172.2583886103751
 31
0.0
  0
TEXT
  5
1A77
330
18
100
AcDbEntity
  8
0
  6
Continuous
100
AcDbText
 10
352.4188221972238
 20
187.7003046103751
 30
0.0
 40
3.5
  1
仕様及び外観は予告なく変更される場合がございますのでご了承下さい。
  7
STYLE3
100
AcDbText
  0
LINE
  5
1A78
330
18
100
AcDbEntity
  8
外形線
100
AcDbLine
 10
350.6698601972238
 20
192.6533726103751
 30
0.0
 11
491.4612781972238
 21
192.6533726103751
 31
0.0
  0
ENDSEC
  0
SECTION
  2
OBJECTS
  0
DICTIONARY
  5
C
330
0
100
AcDbDictionary
281
     1
  3
ACAD_COLOR
350
1A28
  3
ACAD_GROUP
350
D
  3
ACAD_IMAGE_DICT
350
E58
  3
ACAD_LAYOUT
350
1A2B
  3
ACAD_MATERIAL
350
1A27
  3
ACAD_MLINESTYLE
350
1B
  3
ACAD_PLOTSETTINGS
350
1A2C
  3
ACAD_PLOTSTYLENAME
350
1A25
  3
ACAD_TABLESTYLE
350
1A29
  3
ACDBVARIABLEDICTIONARY
350
1025
  0
DICTIONARY
  5
1A28
102
{ACAD_REACTORS
330
C
102
}
330
C
100
AcDbDictionary
281
     1
  0
DICTIONARY
  5
D
102
{ACAD_REACTORS
330
C
102
}
330
C
100
AcDbDictionary
281
     1
  0
DICTIONARY
  5
E58
102
{ACAD_REACTORS
330
C
102
}
330
C
100
AcDbDictionary
281
     1
  3
ROGO01
350
E59
  0
DICTIONARY
  5
1A2B
102
{ACAD_REACTORS
330
C
102
}
330
C
100
AcDbDictionary
281
     1
  3
Model
350
1A2D
  3
レイアウト1
350
1A2E
  0
DICTIONARY
  5
1A27
102
{ACAD_REACTORS
330
C
102
}
330
C
100
AcDbDictionary
281
     1
  0
DICTIONARY
  5
1B
102
{ACAD_REACTORS
330
C
102
}
330
C
100
AcDbDictionary
281
     1
  3
STANDARD
350
1C
  0
DICTIONARY
  5
1A2C
102
{ACAD_REACTORS
330
C
102
}
330
C
100
AcDbDictionary
281
     1
  0
ACDBDICTIONARYWDFLT
  5
1A25
102
{ACAD_REACTORS
330
C
102
}
330
C
100
AcDbDictionary
281
     1
  3
Normal
350
1A26
100
AcDbDictionaryWithDefault
340
1A26
  0
DICTIONARY
  5
1A29
102
{ACAD_REACTORS
330
C
102
}
330
C
100
AcDbDictionary
281
     1
  3
Standard
350
1A2A
  0
DICTIONARY
  5
1025
102
{ACAD_REACTORS
330
C
102
}
330
C
100
AcDbDictionary
281
     1
  3
CTABLESTYLE
350
1A39
  3
SORTENTS
350
1026
  0
IMAGEDEF
  5
E59
102
{ACAD_REACTORS
330
E58
102
}
330
E58
100
AcDbRasterImageDef
 90
        0
  1
D:\ﾃｽﾄ\rogo01.TIF
 10
3388.0
 20
4668.0
 11
0.0635
 21
0.0635
280
     1
281
     5
  0
LAYOUT
  5
1A2D
102
{ACAD_REACTORS
330
1A2B
102
}
330
1A2B
100
AcDbPlotSettings
  1

  2
WIDR Printer
  4

  6

 40
0.0
 41
0.0
 42
0.0
 43
0.0
 44
0.0
 45
0.0
 46
0.0
 47
0.0
 48
0.0
 49
0.0
140
0.0
141
0.0
142
1.0
143
1.0
 70
  1712
 72
     0
 73
     0
 74
     0
  7
AutoCad LT 98.ctb
 75
     0
147
1.0
 76
     0
 77
     2
 78
   300
148
0.0
149
0.0
100
AcDbLayout
  1
Model
 70
     1
 71
     0
 10
0.0
 20
0.0
 11
12.0
 21
9.0
 12
0.0
 22
0.0
 32
0.0
 14
0.0
 24
0.0
 34
0.0
 15
0.0
 25
0.0
 35
0.0
146
0.0
 13
0.0
 23
0.0
 33
0.0
 16
1.0
 26
0.0
 36
0.0
 17
0.0
 27
1.0
 37
0.0
 76
     0
330
18
  0
LAYOUT
  5
1A2E
102
{ACAD_REACTORS
330
1A2B
102
}
330
1A2B
100
AcDbPlotSettings
  1

  2
WIDR Printer
  4

  6

 40
0.0
 41
0.0
 42
0.0
 43
0.0
 44
0.0
 45
0.0
 46
0.0
 47
0.0
 48
0.0
 49
0.0
140
0.0
141
0.0
142
1.0
143
1.0
 70
   688
 72
     0
 73
     0
 74
     5
  7
AutoCad LT 98.ctb
 75
    16
147
1.0
 76
     0
 77
     2
 78
   300
148
0.0
149
0.0
100
AcDbLayout
  1
レイアウト1
 70
     1
 71
     1
 10
0.0
 20
0.0
 11
420.0
 21
297.0
 12
0.0
 22
0.0
 32
0.0
 14
1.000000000000000E+20
 24
1.000000000000000E+20
 34
1.000000000000000E+20
 15
-1.000000000000000E+20
 25
-1.000000000000000E+20
 35
-1.000000000000000E+20
146
0.0
 13
0.0
 23
0.0
 33
0.0
 16
1.0
 26
0.0
 36
0.0
 17
0.0
 27
1.0
 37
0.0
 76
     0
330
15
  0
MLINESTYLE
  5
1C
102
{ACAD_REACTORS
330
1B
102
}
330
1B
100
AcDbMlineStyle
  2
STANDARD
 70
     0
  3

 62
   256
 51
90.0
 52
90.0
 71
     2
 49
0.5
 62
   256
  6
BYLAYER
 49
-0.5
 62
   256
  6
BYLAYER
  0
ACDBPLACEHOLDER
  5
1A26
102
{ACAD_REACTORS
330
1A25
102
}
330
1A25
  0
ACAD_PROXY_OBJECT
  5
1A2A
102
{ACAD_REACTORS
330
1A29
102
}
330
1A29
100
AcDbProxyObject
 90
      499
 91
      505
 95
  2555929
 70
     0
 93
     1849
310
4214DD185B99185C992420000000000000F83F0000000000003E0FC00000000000004901028000000C1008070000C3001FDFF8000000C1003FBFF000000182007F7FE00000030400FEFFC00000060801FDFF8000000C1003FBFF000000182000000000000000C2020B0000001820100E000186003FBFF000000182007F7FE0
310
0000030400FEFFC00000060801FDFF8000000C1003FBFF000000182007F7FE0000003040000000000000012404160000003040201C00030C007F7FE00000030400FEFFC00000060801FDFF8000000C1003FBFF000000182007F7FE00000030400FEFFC000000608001
340
F
340
F
340
F
 94
        0
  0
DICTIONARYVAR
  5
1A39
102
{ACAD_REACTORS
330
1025
102
}
330
1025
100
DictionaryVariables
280
     0
  1
STANDARD
  0
DICTIONARYVAR
  5
1026
102
{ACAD_REACTORS
330
1025
102
}
330
1025
100
DictionaryVariables
280
     0
  1
96
  0
ENDSEC
  0
EOF
