  0
SECTION
  2
HEADER
  9
$ACADVER
  1
AC1018
  9
$ACADMAINTVER
 70
     0
  9
$DWGCODEPAGE
  3
ANSI_932
  9
$INSBASE
 10
0.0
 20
0.0
 30
0.0
  9
$EXTMIN
 10
236.4655427980613
 20
171.6339896600951
 30
-0.0000000000112498
  9
$EXTMAX
 10
491.8990686337299
 20
367.055777876885
 30
0.0000000000002956
  9
$LIMMIN
 10
0.0
 20
0.0
  9
$LIMMAX
 10
420.0
 20
297.0
  9
$ORTHOMODE
 70
     0
  9
$REGENMODE
 70
     1
  9
$FILLMODE
 70
     1
  9
$QTEXTMODE
 70
     0
  9
$MIRRTEXT
 70
     1
  9
$LTSCALE
 40
1.0
  9
$ATTMODE
 70
     1
  9
$TEXTSIZE
 40
2.5
  9
$TRACEWID
 40
1.0
  9
$TEXTSTYLE
  7
STYLE3
  9
$CLAYER
  8
針
  9
$CELTYPE
  6
BYLAYER
  9
$CECOLOR
 62
   256
  9
$CELTSCALE
 40
1.0
  9
$DISPSILH
 70
     0
  9
$DIMSCALE
 40
1.0
  9
$DIMASZ
 40
2.5
  9
$DIMEXO
 40
0.0
  9
$DIMDLI
 40
3.75
  9
$DIMRND
 40
0.0
  9
$DIMDLE
 40
0.0
  9
$DIMEXE
 40
1.25
  9
$DIMTP
 40
0.0
  9
$DIMTM
 40
0.0
  9
$DIMTXT
 40
2.5
  9
$DIMCEN
 40
2.5
  9
$DIMTSZ
 40
0.0
  9
$DIMTOL
 70
     0
  9
$DIMLIM
 70
     0
  9
$DIMTIH
 70
     0
  9
$DIMTOH
 70
     0
  9
$DIMSE1
 70
     0
  9
$DIMSE2
 70
     0
  9
$DIMTAD
 70
     1
  9
$DIMZIN
 70
     8
  9
$DIMBLK
  1

  9
$DIMASO
 70
     1
  9
$DIMSHO
 70
     1
  9
$DIMPOST
  1

  9
$DIMAPOST
  1

  9
$DIMALT
 70
     0
  9
$DIMALTD
 70
     4
  9
$DIMALTF
 40
0.0394
  9
$DIMLFAC
 40
1.0
  9
$DIMTOFL
 70
     1
  9
$DIMTVP
 40
0.0
  9
$DIMTIX
 70
     0
  9
$DIMSOXD
 70
     0
  9
$DIMSAH
 70
     1
  9
$DIMBLK1
  1
OPEN
  9
$DIMBLK2
  1
OPEN
  9
$DIMSTYLE
  2
STYLE2
  9
$DIMCLRD
 70
     2
  9
$DIMCLRE
 70
     2
  9
$DIMCLRT
 70
     6
  9
$DIMTFAC
 40
1.0
  9
$DIMGAP
 40
0.625
  9
$DIMJUST
 70
     0
  9
$DIMSD1
 70
     0
  9
$DIMSD2
 70
     0
  9
$DIMTOLJ
 70
     1
  9
$DIMTZIN
 70
     0
  9
$DIMALTZ
 70
     0
  9
$DIMALTTZ
 70
     0
  9
$DIMUPT
 70
     0
  9
$DIMDEC
 70
     2
  9
$DIMTDEC
 70
     4
  9
$DIMALTU
 70
     8
  9
$DIMALTTD
 70
     4
  9
$DIMTXSTY
  7
STYLE3
  9
$DIMAUNIT
 70
     0
  9
$DIMADEC
 70
     0
  9
$DIMALTRND
 40
0.0
  9
$DIMAZIN
 70
     0
  9
$DIMDSEP
 70
    46
  9
$DIMATFIT
 70
     3
  9
$DIMFRAC
 70
     0
  9
$DIMLDRBLK
  1

  9
$DIMLUNIT
 70
     2
  9
$DIMLWD
 70
    -2
  9
$DIMLWE
 70
    -2
  9
$DIMTMOVE
 70
     0
  9
$LUNITS
 70
     2
  9
$LUPREC
 70
     4
  9
$SKETCHINC
 40
1.0
  9
$FILLETRAD
 40
1.0
  9
$AUNITS
 70
     0
  9
$AUPREC
 70
     0
  9
$MENU
  1
.
  9
$ELEVATION
 40
0.0
  9
$PELEVATION
 40
0.0
  9
$THICKNESS
 40
0.0
  9
$LIMCHECK
 70
     0
  9
$CHAMFERA
 40
1.0
  9
$CHAMFERB
 40
1.0
  9
$CHAMFERC
 40
20.0
  9
$CHAMFERD
 40
0.0
  9
$SKPOLY
 70
     0
  9
$TDCREATE
 40
2450717.578556713
  9
$TDUCREATE
 40
2450717.203556713
  9
$TDUPDATE
 40
2455356.444545174
  9
$TDUUPDATE
 40
2455356.069545174
  9
$TDINDWG
 40
0.6116055440
  9
$TDUSRTIMER
 40
0.6116055440
  9
$USRTIMER
 70
     1
  9
$ANGBASE
 50
0.0
  9
$ANGDIR
 70
     0
  9
$PDMODE
 70
     0
  9
$PDSIZE
 40
0.0
  9
$PLINEWID
 40
0.0
  9
$SPLFRAME
 70
     0
  9
$SPLINETYPE
 70
     6
  9
$SPLINESEGS
 70
     8
  9
$HANDSEED
  5
1A52
  9
$SURFTAB1
 70
     6
  9
$SURFTAB2
 70
     6
  9
$SURFTYPE
 70
     6
  9
$SURFU
 70
     6
  9
$SURFV
 70
     6
  9
$UCSBASE
  2

  9
$UCSNAME
  2

  9
$UCSORG
 10
0.0
 20
0.0
 30
0.0
  9
$UCSXDIR
 10
1.0
 20
0.0
 30
0.0
  9
$UCSYDIR
 10
0.0
 20
1.0
 30
0.0
  9
$UCSORTHOREF
  2

  9
$UCSORTHOVIEW
 70
     0
  9
$UCSORGTOP
 10
0.0
 20
0.0
 30
0.0
  9
$UCSORGBOTTOM
 10
0.0
 20
0.0
 30
0.0
  9
$UCSORGLEFT
 10
0.0
 20
0.0
 30
0.0
  9
$UCSORGRIGHT
 10
0.0
 20
0.0
 30
0.0
  9
$UCSORGFRONT
 10
0.0
 20
0.0
 30
0.0
  9
$UCSORGBACK
 10
0.0
 20
0.0
 30
0.0
  9
$PUCSBASE
  2

  9
$PUCSNAME
  2

  9
$PUCSORG
 10
0.0
 20
0.0
 30
0.0
  9
$PUCSXDIR
 10
1.0
 20
0.0
 30
0.0
  9
$PUCSYDIR
 10
0.0
 20
1.0
 30
0.0
  9
$PUCSORTHOREF
  2

  9
$PUCSORTHOVIEW
 70
     0
  9
$PUCSORGTOP
 10
0.0
 20
0.0
 30
0.0
  9
$PUCSORGBOTTOM
 10
0.0
 20
0.0
 30
0.0
  9
$PUCSORGLEFT
 10
0.0
 20
0.0
 30
0.0
  9
$PUCSORGRIGHT
 10
0.0
 20
0.0
 30
0.0
  9
$PUCSORGFRONT
 10
0.0
 20
0.0
 30
0.0
  9
$PUCSORGBACK
 10
0.0
 20
0.0
 30
0.0
  9
$USERI1
 70
     0
  9
$USERI2
 70
     0
  9
$USERI3
 70
     0
  9
$USERI4
 70
     0
  9
$USERI5
 70
     0
  9
$USERR1
 40
0.0
  9
$USERR2
 40
0.0
  9
$USERR3
 40
0.0
  9
$USERR4
 40
0.0
  9
$USERR5
 40
0.0
  9
$WORLDVIEW
 70
     1
  9
$SHADEDGE
 70
     3
  9
$SHADEDIF
 70
    70
  9
$TILEMODE
 70
     1
  9
$MAXACTVP
 70
    48
  9
$PINSBASE
 10
0.0
 20
0.0
 30
0.0
  9
$PLIMCHECK
 70
     0
  9
$PEXTMIN
 10
1.000000000000000E+20
 20
1.000000000000000E+20
 30
1.000000000000000E+20
  9
$PEXTMAX
 10
-1.000000000000000E+20
 20
-1.000000000000000E+20
 30
-1.000000000000000E+20
  9
$PLIMMIN
 10
0.0
 20
0.0
  9
$PLIMMAX
 10
420.0
 20
297.0
  9
$UNITMODE
 70
     0
  9
$VISRETAIN
 70
     1
  9
$PLINEGEN
 70
     0
  9
$PSLTSCALE
 70
     1
  9
$TREEDEPTH
 70
  3020
  9
$CMLSTYLE
  2
STANDARD
  9
$CMLJUST
 70
     0
  9
$CMLSCALE
 40
20.0
  9
$PROXYGRAPHICS
 70
     1
  9
$MEASUREMENT
 70
     1
  9
$CELWEIGHT
370
    -1
  9
$ENDCAPS
280
     0
  9
$JOINSTYLE
280
     0
  9
$LWDISPLAY
290
     0
  9
$INSUNITS
 70
     0
  9
$HYPERLINKBASE
  1

  9
$STYLESHEET
  1
monochrome.ctb
  9
$XEDIT
290
     1
  9
$CEPSNTYPE
380
     0
  9
$PSTYLEMODE
290
     1
  9
$FINGERPRINTGUID
  2
{E2619C9A-40C0-41A4-B5B3-E31F0012C281}
  9
$VERSIONGUID
  2
{E122CABB-3ABE-48B4-8FED-298018F786A7}
  9
$EXTNAMES
290
     1
  9
$PSVPSCALE
 40
0.0
  9
$OLESTARTUP
290
     0
  9
$SORTENTS
280
    96
  9
$INDEXCTL
280
     0
  9
$HIDETEXT
280
     0
  9
$XCLIPFRAME
290
     0
  9
$HALOGAP
280
     0
  9
$OBSCOLOR
 70
   257
  9
$OBSLTYPE
280
     0
  9
$INTERSECTIONDISPLAY
280
     0
  9
$INTERSECTIONCOLOR
 70
   257
  9
$DIMASSOC
280
     1
  9
$PROJECTNAME
  1

  0
ENDSEC
  0
SECTION
  2
CLASSES
  0
CLASS
  1
HATCH
  2
AcDbHatch
  3
ObjectDBX Classes
 90
        0
 91
       14
280
     0
281
     1
  0
CLASS
  1
LWPOLYLINE
  2
AcDbPolyline
  3
ObjectDBX Classes
 90
        0
 91
        1
280
     0
281
     1
  0
CLASS
  1
IMAGEDEF
  2
AcDbRasterImageDef
  3
ISM
 90
        0
 91
        1
280
     0
281
     0
  0
CLASS
  1
DICTIONARYVAR
  2
AcDbDictionaryVar
  3
ObjectDBX Classes
 90
        0
 91
        2
280
     0
281
     0
  0
CLASS
  1
ACDBDICTIONARYWDFLT
  2
AcDbDictionaryWithDefault
  3
ObjectDBX Classes
 90
        0
 91
        1
280
     0
281
     0
  0
CLASS
  1
TABLESTYLE
  2
AcDbTableStyle
  3
ObjectDBX Classes
 90
     2047
 91
        1
280
     0
281
     0
  0
ENDSEC
  0
SECTION
  2
TABLES
  0
TABLE
  2
VPORT
  5
8
330
0
100
AcDbSymbolTable
 70
     2
  0
VPORT
  5
1A51
330
8
100
AcDbSymbolTableRecord
100
AcDbViewportTableRecord
  2
*Active
 70
     0
 10
0.0
 20
0.0
 11
1.0
 21
1.0
 12
364.1823057158956
 22
269.3448837684901
 13
0.0
 23
0.0
 14
10.0
 24
10.0
 15
10.0
 25
10.0
 16
0.0
 26
0.0
 36
1.0
 17
0.0
 27
0.0
 37
0.0
 40
196.9078854655868
 41
1.530456852791878
 42
50.0
 43
0.0
 44
0.0
 50
0.0
 51
0.0
 71
     0
 72
   100
 73
     1
 74
     1
 75
     0
 76
     0
 77
     0
 78
     0
281
     0
 65
     1
110
0.0
120
0.0
130
0.0
111
1.0
121
0.0
131
0.0
112
0.0
122
1.0
132
0.0
 79
     0
146
0.0
  0
ENDTAB
  0
TABLE
  2
LTYPE
  5
5
330
0
100
AcDbSymbolTable
 70
     5
  0
LTYPE
  5
12
330
5
100
AcDbSymbolTableRecord
100
AcDbLinetypeTableRecord
  2
BYBLOCK
 70
     0
  3

 72
    65
 73
     0
 40
0.0
  0
LTYPE
  5
13
330
5
100
AcDbSymbolTableRecord
100
AcDbLinetypeTableRecord
  2
BYLAYER
 70
     0
  3

 72
    65
 73
     0
 40
0.0
  0
LTYPE
  5
14
330
5
100
AcDbSymbolTableRecord
100
AcDbLinetypeTableRecord
  2
CONTINUOUS
 70
     0
  3
Solid line
 72
    65
 73
     0
 40
0.0
  0
LTYPE
  5
22
330
5
100
AcDbSymbolTableRecord
100
AcDbLinetypeTableRecord
  2
CENTER2
 70
     0
  3
Center (.5x) ___ _ ___ _ ___ _ ___ _ ___ _ ___
 72
    65
 73
     4
 40
28.575
 49
19.05
 74
     0
 49
-3.174999999999999
 74
     0
 49
3.174999999999999
 74
     0
 49
-3.174999999999999
 74
     0
  0
LTYPE
  5
24
330
5
100
AcDbSymbolTableRecord
100
AcDbLinetypeTableRecord
  2
PHANTOM2
 70
     0
  3
Phantom (.5x) ___ _ _ ___ _ _ ___ _ _ ___ _ _
 72
    65
 73
     6
 40
31.75
 49
15.875
 74
     0
 49
-3.174999999999999
 74
     0
 49
3.174999999999999
 74
     0
 49
-3.174999999999999
 74
     0
 49
3.174999999999999
 74
     0
 49
-3.174999999999999
 74
     0
  0
ENDTAB
  0
TABLE
  2
LAYER
  5
2
330
0
100
AcDbSymbolTable
 70
    16
  0
LAYER
  5
E
330
2
100
AcDbSymbolTableRecord
100
AcDbLayerTableRecord
  2
0
 70
     0
 62
     7
  6
CONTINUOUS
370
    -3
390
19D2
  0
LAYER
  5
25
330
2
100
AcDbSymbolTableRecord
100
AcDbLayerTableRecord
  2
外形線
 70
     0
 62
     7
  6
CONTINUOUS
370
    -3
390
19D2
  0
LAYER
  5
27
330
2
100
AcDbSymbolTableRecord
100
AcDbLayerTableRecord
  2
中心線
 70
     0
 62
     4
  6
CENTER2
370
    -3
390
19D2
  0
LAYER
  5
29
330
2
100
AcDbSymbolTableRecord
100
AcDbLayerTableRecord
  2
想像線
 70
     0
 62
     1
  6
PHANTOM2
370
    -3
390
19D2
  0
LAYER
  5
2A
330
2
100
AcDbSymbolTableRecord
100
AcDbLayerTableRecord
  2
ﾊｯﾁﾝｸ
 70
     0
 62
     4
  6
CONTINUOUS
370
    -3
390
19D2
  0
LAYER
  5
2B
330
2
100
AcDbSymbolTableRecord
100
AcDbLayerTableRecord
  2
文字
 70
     0
 62
     6
  6
CONTINUOUS
370
    -3
390
19D2
  0
LAYER
  5
2C
330
2
100
AcDbSymbolTableRecord
100
AcDbLayerTableRecord
  2
目盛
 70
     0
 62
    70
  6
CONTINUOUS
370
    -3
390
19D2
  0
LAYER
  5
2D
330
2
100
AcDbSymbolTableRecord
100
AcDbLayerTableRecord
  2
針
 70
     0
 62
     5
  6
CONTINUOUS
370
    -3
390
19D2
  0
LAYER
  5
53
330
2
100
AcDbSymbolTableRecord
100
AcDbLayerTableRecord
  2
DEFPOINTS
 70
     0
 62
     7
  6
CONTINUOUS
290
     0
370
    -3
390
19D2
  0
LAYER
  5
A5
330
2
100
AcDbSymbolTableRecord
100
AcDbLayerTableRecord
  2
C
 70
     0
 62
     7
  6
CONTINUOUS
370
    -3
390
19D2
  0
LAYER
  5
E00
330
2
100
AcDbSymbolTableRecord
100
AcDbLayerTableRecord
  2
ROGO
 70
     0
 62
     6
  6
CONTINUOUS
370
    -3
390
19D2
  0
ENDTAB
  0
TABLE
  2
STYLE
  5
3
330
0
100
AcDbSymbolTable
 70
     3
  0
STYLE
  5
F
330
3
100
AcDbSymbolTableRecord
100
AcDbTextStyleTableRecord
  2
STANDARD
 70
     0
 40
0.0
 41
1.0
 50
0.0
 71
     0
 42
2.5
  3
txt
  4

  0
STYLE
  5
3F
330
3
100
AcDbSymbolTableRecord
100
AcDbTextStyleTableRecord
  2
STYLE3
 70
     0
 40
0.0
 41
1.0
 50
0.0
 71
     0
 42
2.5
  3
romans.shx
  4
bigfont.shx
  0
ENDTAB
  0
TABLE
  2
VIEW
  5
6
330
0
100
AcDbSymbolTable
 70
     0
  0
ENDTAB
  0
TABLE
  2
UCS
  5
7
330
0
100
AcDbSymbolTable
 70
     0
  0
ENDTAB
  0
TABLE
  2
APPID
  5
9
330
0
100
AcDbSymbolTable
 70
     2
  0
APPID
  5
10
330
9
100
AcDbSymbolTableRecord
100
AcDbRegAppTableRecord
  2
ACAD
 70
     0
  0
APPID
  5
19F6
330
9
100
AcDbSymbolTableRecord
100
AcDbRegAppTableRecord
  2
ACAD_PSEXT
 70
     0
  0
ENDTAB
  0
TABLE
  2
DIMSTYLE
  5
A
330
0
100
AcDbSymbolTable
 70
     3
100
AcDbDimStyleTable
 71
     1
340
66
  0
DIMSTYLE
105
1D
330
A
100
AcDbSymbolTableRecord
100
AcDbDimStyleTableRecord
  2
STANDARD
 70
     0
 41
2.5
 42
0.625
 43
3.75
 44
1.25
 73
     0
 74
     0
 77
     1
 78
     8
140
2.5
141
2.5
143
0.0394
147
0.625
171
     4
172
     1
273
     8
274
     4
277
     6
340
F
  0
DIMSTYLE
105
66
330
A
100
AcDbSymbolTableRecord
100
AcDbDimStyleTableRecord
  2
STYLE2
 70
     0
 41
2.5
 42
0.0
 43
3.75
 44
1.25
 73
     0
 74
     0
 77
     1
 78
     8
140
2.5
141
2.5
143
0.0394
147
0.625
171
     4
172
     1
173
     1
176
     2
177
     2
178
     6
271
     1
273
     8
274
     4
340
3F
341
45
343
45
344
45
  0
ENDTAB
  0
TABLE
  2
BLOCK_RECORD
  5
1
330
0
100
AcDbSymbolTable
 70
     2
  0
BLOCK_RECORD
  5
18
330
1
100
AcDbSymbolTableRecord
100
AcDbBlockTableRecord
  2
*MODEL_SPACE
340
19D9
  0
BLOCK_RECORD
  5
15
330
1
100
AcDbSymbolTableRecord
100
AcDbBlockTableRecord
  2
*PAPER_SPACE
340
19DA
  0
BLOCK_RECORD
  5
45
330
1
100
AcDbSymbolTableRecord
100
AcDbBlockTableRecord
  2
_OPEN
340
0
102
{BLKREFS
331
875
331
876
331
FD7
331
FD8
331
10D5
331
10D6
331
130F
331
1310
331
142B
331
142C
331
1434
331
1435
331
18E4
331
18E5
331
18ED
331
18EE
331
18F6
331
18F7
331
18FF
331
1900
331
1908
331
1909
331
1913
331
1914
331
191D
331
191E
331
1925
331
1926
331
192D
331
192E
331
194A
331
194B
331
195C
331
195D
331
1964
331
1965
331
1985
331
1986
331
1990
331
1991
331
199F
331
19A0
102
}
  0
ENDTAB
  0
ENDSEC
  0
SECTION
  2
BLOCKS
  0
BLOCK
  5
19
330
18
100
AcDbEntity
  8
0
100
AcDbBlockBegin
  2
*MODEL_SPACE
 70
     0
 10
0.0
 20
0.0
 30
0.0
  3
*MODEL_SPACE
  1

  0
ENDBLK
  5
1A
330
18
100
AcDbEntity
  8
0
100
AcDbBlockEnd
  0
BLOCK
  5
16
330
15
100
AcDbEntity
 67
     1
  8
0
100
AcDbBlockBegin
  2
*PAPER_SPACE
 70
     0
 10
0.0
 20
0.0
 30
0.0
  3
*PAPER_SPACE
  1

  0
ENDBLK
  5
17
330
15
100
AcDbEntity
 67
     1
  8
0
100
AcDbBlockEnd
  0
BLOCK
  5
46
330
45
100
AcDbEntity
  8
0
100
AcDbBlockBegin
  2
_OPEN
 70
     0
 10
0.0
 20
0.0
 30
0.0
  3
_OPEN
  1

  0
LINE
  5
47
330
45
100
AcDbEntity
  8
0
  6
ByBlock
 62
     0
100
AcDbLine
 10
-1.0
 20
0.1666666666666666
 30
0.0
 11
0.0
 21
0.0
 31
0.0
  0
LINE
  5
48
330
45
100
AcDbEntity
  8
0
  6
ByBlock
 62
     0
100
AcDbLine
 10
0.0
 20
0.0
 30
0.0
 11
-1.0
 21
-0.1666666666666666
 31
0.0
  0
LINE
  5
49
330
45
100
AcDbEntity
  8
0
  6
ByBlock
 62
     0
100
AcDbLine
 10
0.0
 20
0.0
 30
0.0
 11
-1.0
 21
0.0
 31
0.0
  0
ENDBLK
  5
4A
330
45
100
AcDbEntity
  8
0
100
AcDbBlockEnd
  0
ENDSEC
  0
SECTION
  2
ENTITIES
  0
LINE
  5
244
330
18
100
AcDbEntity
  8
中心線
 48
0.5
100
AcDbLine
 10
287.8320061745741
 20
281.6690517808
 30
0.0
 11
355.4755648155805
 21
281.6690517808
 31
0.0
  0
LINE
  5
245
330
18
100
AcDbEntity
  8
中心線
 48
0.5
100
AcDbLine
 10
325.8749334699483
 20
330.0418563235569
 30
0.0
 11
325.8749334699483
 21
218.8047967957747
 31
0.0
  0
LINE
  5
2B7
330
18
100
AcDbEntity
  8
中心線
 48
0.2
100
AcDbLine
 10
322.1749334699483
 20
279.6310017036275
 30
0.0
 11
322.1749334699483
 21
263.941407681592
 31
0.0
  0
LINE
  5
2B9
330
18
100
AcDbEntity
  8
中心線
 48
0.2
100
AcDbLine
 10
315.2156582830186
 20
271.7677942849057
 30
0.0
 11
329.7436457309988
 21
271.7677942849057
 31
0.0
  0
LINE
  5
2D3
330
18
100
AcDbEntity
  8
外形線
100
AcDbLine
 10
322.1749334699484
 20
236.6690517808
 30
0.0
 11
329.5749334699483
 21
236.6690517808
 31
0.0
  0
LINE
  5
2D4
330
18
100
AcDbEntity
  8
外形線
100
AcDbLine
 10
323.3749334699484
 20
230.6690517808
 30
0.0
 11
328.3749334699483
 21
230.6690517808
 31
0.0
  0
LINE
  5
2D5
330
18
100
AcDbEntity
  8
外形線
100
AcDbLine
 10
329.8749334699483
 20
254.107801809146
 30
0.0
 11
329.8749334699483
 21
241.1690517808001
 31
0.0
  0
LINE
  5
2D6
330
18
100
AcDbEntity
  8
外形線
100
AcDbLine
 10
321.8749334699483
 20
254.107801809146
 30
0.0
 11
321.8749334699483
 21
241.1690517808
 31
0.0
  0
LINE
  5
2DB
330
18
100
AcDbEntity
  8
外形線
100
AcDbLine
 10
328.3749334699483
 20
230.4690517808
 30
0.0
 11
328.3749334699482
 21
227.3690517808
 31
0.0
  0
LINE
  5
2DC
330
18
100
AcDbEntity
  8
外形線
100
AcDbLine
 10
323.3749334699483
 20
230.4690517808
 30
0.0
 11
323.3749334699483
 21
227.3690517808
 31
0.0
  0
LINE
  5
2DD
330
18
100
AcDbEntity
  8
外形線
100
AcDbLine
 10
323.6249334699483
 20
227.1690517808
 30
0.0
 11
328.1249334699482
 21
227.1690517808
 31
0.0
  0
LINE
  5
2DE
330
18
100
AcDbEntity
  8
外形線
100
AcDbLine
 10
323.3749334699482
 20
230.4690517808
 30
0.0
 11
328.3749334699483
 21
230.4690517808
 31
0.0
  0
LINE
  5
2DF
330
18
100
AcDbEntity
  8
外形線
100
AcDbLine
 10
323.3749334699482
 20
227.3690517808
 30
0.0
 11
328.3749334699483
 21
227.3690517808
 31
0.0
  0
LINE
  5
2E0
330
18
100
AcDbEntity
  8
外形線
100
AcDbLine
 10
328.1249334699483
 20
230.6690517808
 30
0.0
 11
328.3749334699483
 21
230.4690517808
 31
0.0
  0
LINE
  5
2E1
330
18
100
AcDbEntity
  8
外形線
100
AcDbLine
 10
323.6249334699483
 20
230.6690517808
 30
0.0
 11
323.3749334699483
 21
230.4690517808
 31
0.0
  0
LINE
  5
2E2
330
18
100
AcDbEntity
  8
外形線
100
AcDbLine
 10
328.3749334699483
 20
227.3690517808
 30
0.0
 11
328.1249334699483
 21
227.1690517808
 31
0.0
  0
LINE
  5
2E3
330
18
100
AcDbEntity
  8
外形線
100
AcDbLine
 10
323.3749334699483
 20
227.3690517808
 30
0.0
 11
323.6249334699483
 21
227.1690517808
 31
0.0
  0
LINE
  5
2E5
330
18
100
AcDbEntity
  8
外形線
100
AcDbLine
 10
324.5749334699482
 20
222.6690517808
 30
0.0
 11
327.1749334699483
 21
222.6690517808
 31
0.0
  0
LINE
  5
2E6
330
18
100
AcDbEntity
  8
外形線
100
AcDbLine
 10
328.1249334699483
 20
227.1690517808
 30
0.0
 11
327.1749334699483
 21
222.6690517808
 31
0.0
  0
LINE
  5
2E7
330
18
100
AcDbEntity
  8
外形線
100
AcDbLine
 10
323.6249334699483
 20
227.1690517808
 30
0.0
 11
324.5749334699482
 21
222.6690517808
 31
0.0
  0
ARC
  5
692
330
18
100
AcDbEntity
  8
外形線
  6
Continuous
100
AcDbCircle
 10
561.2118852345337
 20
281.6690517808
 30
0.0
 40
162.2099468255786
100
AcDbArc
 50
170.8659473968362
 51
189.1340526031637
  0
LINE
  5
6BD
330
18
100
AcDbEntity
  8
外形線
  6
Continuous
 62
     4
100
AcDbLine
 10
405.8588198590716
 20
281.6690517808
 30
0.0
 11
402.0588198590716
 21
281.6690517808001
 31
0.0
  0
LINE
  5
6BE
330
18
100
AcDbEntity
  8
外形線
  6
Continuous
 62
     4
100
AcDbLine
 10
405.8588198590716
 20
282.6690517808
 30
0.0
 11
402.0588198590716
 21
282.6690517808
 31
0.0
  0
LINE
  5
6BF
330
18
100
AcDbEntity
  8
外形線
  6
Continuous
 62
     4
100
AcDbLine
 10
405.8588198590716
 20
284.6690517808
 30
0.0
 11
402.0588198590716
 21
284.6690517808001
 31
0.0
  0
LINE
  5
6C0
330
18
100
AcDbEntity
  8
外形線
  6
Continuous
 62
     4
100
AcDbLine
 10
405.8588198590716
 20
283.6690517808
 30
0.0
 11
402.0588198590716
 21
283.6690517808001
 31
0.0
  0
MTEXT
  5
778
330
18
100
AcDbEntity
  8
DEFPOINTS
  6
Continuous
100
AcDbMText
 10
735.8166661286731
 20
235.565234348894
 30
0.0
 40
1.0
 41
0.0
 71
     4
 72
     1
  1
\A1;
 73
     1
 44
1.0
  0
LINE
  5
789
330
18
100
AcDbEntity
  8
中心線
 48
0.5
100
AcDbLine
 10
413.5088198590715
 20
334.6878573095532
 30
0.0
 11
413.5088198590716
 21
218.7504694447518
 31
0.0
  0
LINE
  5
7C1
330
18
100
AcDbEntity
  8
外形線
100
AcDbLine
 10
417.5088198590716
 20
254.6690517808
 30
0.0
 11
417.5088198590716
 21
241.1690517808001
 31
0.0
  0
LINE
  5
7C2
330
18
100
AcDbEntity
  8
外形線
100
AcDbLine
 10
409.5088198590717
 20
254.6690517808
 30
0.0
 11
409.5088198590716
 21
241.1690517808
 31
0.0
  0
LINE
  5
7D6
330
18
100
AcDbEntity
  8
中心線
 48
0.5
100
AcDbLine
 10
395.5321201131176
 20
281.6690517808
 30
0.0
 11
444.1906645225542
 21
281.6690517808
 31
0.0
  0
POINT
  5
842
330
18
100
AcDbEntity
  8
DEFPOINTS
  6
ByBlock
 62
     0
100
AcDbPoint
 10
325.8749334699483
 20
221.6690517808
 30
0.0
  0
LINE
  5
874
330
18
100
AcDbEntity
  8
0
  6
ByBlock
 62
     2
100
AcDbLine
 10
324.3749334699483
 20
247.0188240763712
 30
0.0
 11
327.3749334699483
 21
247.0188240763712
 31
0.0
  0
INSERT
  5
875
330
18
100
AcDbEntity
  8
0
  6
ByBlock
 62
     2
100
AcDbBlockReference
  2
_OPEN
 10
321.8749334699483
 20
247.0188240763712
 30
0.0
 41
2.5
 42
2.5
 43
2.5
 50
180.0
  0
INSERT
  5
876
330
18
100
AcDbEntity
  8
0
  6
ByBlock
 62
     2
100
AcDbBlockReference
  2
_OPEN
 10
329.8749334699483
 20
247.0188240763712
 30
0.0
 41
2.5
 42
2.5
 43
2.5
  0
MTEXT
  5
877
330
18
100
AcDbEntity
  8
0
  6
ByBlock
 62
     6
100
AcDbMText
 10
326.6860359600894
 20
248.8938240763712
 30
0.0
 40
2.5
 41
0.0
 71
     5
 72
     1
  1
\A1;8.0
  7
STYLE3
 73
     1
 44
1.0
  0
POINT
  5
878
330
18
100
AcDbEntity
  8
DEFPOINTS
  6
ByBlock
 62
     0
100
AcDbPoint
 10
321.8749334699483
 20
246.4515211991024
 30
0.0
  0
POINT
  5
879
330
18
100
AcDbEntity
  8
DEFPOINTS
  6
ByBlock
 62
     0
100
AcDbPoint
 10
329.8749334699483
 20
246.2894348577568
 30
0.0
  0
POINT
  5
87A
330
18
100
AcDbEntity
  8
DEFPOINTS
  6
ByBlock
 62
     0
100
AcDbPoint
 10
329.8749334699483
 20
247.0188240763712
 30
0.0
  0
TEXT
  5
885
330
18
100
AcDbEntity
  8
文字
100
AcDbText
 10
321.8185250010512
 20
249.4636394142342
 30
0.0
 40
2.5
  1
φ
  7
STYLE3
100
AcDbText
  0
MTEXT
  5
887
330
18
100
AcDbEntity
  8
文字
100
AcDbMText
 10
302.9558756866726
 20
261.6432165871282
 30
0.0
 40
1.0
 41
6.927999999999999
 71
     1
 72
     5
  1

  7
STYLE3
 73
     1
 44
1.0
  0
LWPOLYLINE
  5
96E
330
18
100
AcDbEntity
  8
C
100
AcDbPolyline
 90
        5
 70
     0
 43
0.4
 10
236.6915604445414
 20
366.8501752555372
 10
491.6915604445414
 20
366.8501752555372
 10
491.6915604445414
 20
171.8501752555372
 10
236.6915604445414
 20
171.8501752555372
 10
236.6915604445414
 20
366.8501752555372
  0
MTEXT
  5
EB4
330
18
100
AcDbEntity
  8
DEFPOINTS
  6
Continuous
100
AcDbMText
 10
624.6916853418142
 20
184.890767874579
 30
0.0
 40
0.35
 41
0.0
 71
     4
 72
     1
  1
\A1;
 73
     1
 44
1.0
  0
ARC
  5
F7B
330
18
100
AcDbEntity
  8
外形線
100
AcDbCircle
 10
434.0088198590715
 20
281.6690517807998
 30
0.0
 40
8.0
100
AcDbArc
 50
270.0
 51
90.0
  0
CIRCLE
  5
F7C
330
18
100
AcDbEntity
  8
外形線
100
AcDbCircle
 10
434.0088198590715
 20
281.6690517807998
 30
0.0
 40
3.25
  0
ARC
  5
F7D
330
18
100
AcDbEntity
  8
外形線
100
AcDbCircle
 10
434.0088198590715
 20
281.6690517807998
 30
0.0
 40
7.5
100
AcDbArc
 50
270.0
 51
90.0
  0
LINE
  5
F7E
330
18
100
AcDbEntity
  8
外形線
100
AcDbLine
 10
434.0088198590715
 20
289.6690517807999
 30
0.0
 11
424.4836931495394
 21
289.6690517807998
 31
0.0
  0
LINE
  5
F7F
330
18
100
AcDbEntity
  8
外形線
100
AcDbLine
 10
434.0088198590715
 20
273.6690517807998
 30
0.0
 11
424.4836931495394
 21
273.6690517807998
 31
0.0
  0
ARC
  5
F90
330
18
100
AcDbEntity
  8
外形線
100
AcDbCircle
 10
434.0088198590715
 20
281.6690517807998
 30
0.0
 40
8.0
100
AcDbArc
 50
270.0
 51
90.0
  0
LINE
  5
F96
330
18
100
AcDbEntity
  8
外形線
100
AcDbLine
 10
434.0088198590715
 20
289.1690517807999
 30
0.0
 11
423.5088198590714
 21
289.1690517807999
 31
0.0
  0
LINE
  5
F97
330
18
100
AcDbEntity
  8
外形線
100
AcDbLine
 10
434.0088198590715
 20
274.1690517807999
 30
0.0
 11
423.5088198590715
 21
274.1690517807999
 31
0.0
  0
LINE
  5
F9A
330
18
100
AcDbEntity
  8
中心線
 48
0.5
100
AcDbLine
 10
434.0088198590715
 20
293.9858038300881
 30
0.0
 11
434.0088198590717
 21
248.0056030648559
 31
0.0
  0
LINE
  5
FA4
330
18
100
AcDbEntity
  8
想像線
 48
0.5
100
AcDbLine
 10
429.5088198590715
 20
273.6690517807998
 30
0.0
 11
429.5088198590715
 21
289.6690517807999
 31
0.0
  0
LINE
  5
FA5
330
18
100
AcDbEntity
  8
想像線
 48
0.5
100
AcDbLine
 10
424.5088198590715
 20
273.667466037347
 30
0.0
 11
424.5088198590715
 21
289.6706375242528
 31
0.0
  0
LINE
  5
FD6
330
18
100
AcDbEntity
  8
0
  6
ByBlock
 62
     2
100
AcDbLine
 10
416.0088198590716
 20
248.8738192711456
 30
0.0
 11
431.0088198590715
 21
248.8738192711456
 31
0.0
  0
INSERT
  5
FD7
330
18
100
AcDbEntity
  8
0
  6
ByBlock
 62
     2
100
AcDbBlockReference
  2
_OPEN
 10
413.5088198590716
 20
248.8738192711456
 30
0.0
 41
2.5
 42
2.5
 43
2.5
 50
180.0
  0
INSERT
  5
FD8
330
18
100
AcDbEntity
  8
0
  6
ByBlock
 62
     2
100
AcDbBlockReference
  2
_OPEN
 10
433.5088198590716
 20
248.8738192711456
 30
0.0
 41
2.5
 42
2.5
 43
2.5
  0
MTEXT
  5
FD9
330
18
100
AcDbEntity
  8
0
  6
ByBlock
 62
     6
100
AcDbMText
 10
423.5088198590716
 20
250.7488192711456
 30
0.0
 40
2.5
 41
0.0
 71
     5
 72
     1
  1
\A1;20
  7
STYLE3
 73
     1
 44
1.0
  0
POINT
  5
FDC
330
18
100
AcDbEntity
  8
DEFPOINTS
  6
ByBlock
 62
     0
100
AcDbPoint
 10
433.5088198590716
 20
248.8738192711456
 30
0.0
  0
ARC
  5
100F
330
18
100
AcDbEntity
  8
外形線
100
AcDbCircle
 10
213.6067820614558
 20
281.6690517808003
 30
0.0
 40
209.113883082216
100
AcDbArc
 50
353.1061493042645
 51
6.89385069573544
  0
LINE
  5
10D2
330
18
100
AcDbEntity
  8
0
  6
ByBlock
 62
     2
100
AcDbLine
 10
399.0088198590715
 20
281.6690517808
 30
0.0
 11
399.0088198590715
 21
334.6878573095532
 31
0.0
  0
LINE
  5
10D4
330
18
100
AcDbEntity
  8
0
  6
ByBlock
 62
     2
100
AcDbLine
 10
401.5088198590715
 20
333.4378573095532
 30
0.0
 11
411.0088198590715
 21
333.4378573095532
 31
0.0
  0
INSERT
  5
10D5
330
18
100
AcDbEntity
  8
0
  6
ByBlock
 62
     2
100
AcDbBlockReference
  2
_OPEN
 10
399.0088198590715
 20
333.4378573095532
 30
0.0
 41
2.5
 42
2.5
 43
2.5
 50
180.0
  0
INSERT
  5
10D6
330
18
100
AcDbEntity
  8
0
  6
ByBlock
 62
     2
100
AcDbBlockReference
  2
_OPEN
 10
413.5088198590715
 20
333.4378573095532
 30
0.0
 41
2.5
 42
2.5
 43
2.5
  0
MTEXT
  5
10D7
330
18
100
AcDbEntity
  8
0
  6
ByBlock
 62
     6
100
AcDbMText
 10
406.2588198590715
 20
335.3128573095532
 30
0.0
 40
2.5
 41
0.0
 71
     5
 72
     1
  1
\A1;14.5
  7
STYLE3
 73
     1
 44
1.0
  0
POINT
  5
10D8
330
18
100
AcDbEntity
  8
DEFPOINTS
  6
ByBlock
 62
     0
100
AcDbPoint
 10
399.0088198590715
 20
281.6690517808
 30
0.0
  0
POINT
  5
10DA
330
18
100
AcDbEntity
  8
DEFPOINTS
  6
ByBlock
 62
     0
100
AcDbPoint
 10
413.5088198590715
 20
333.4378573095532
 30
0.0
  0
LINE
  5
11EA
330
18
100
AcDbEntity
  8
外形線
100
AcDbLine
 10
328.3749334699483
 20
236.6690517808
 30
0.0
 11
328.3749334699483
 21
230.6690517808
 31
0.0
  0
LINE
  5
11EB
330
18
100
AcDbEntity
  8
外形線
100
AcDbLine
 10
323.3749334699483
 20
236.6690517808
 30
0.0
 11
323.3749334699484
 21
230.6690517808
 31
0.0
  0
LINE
  5
11EF
330
18
100
AcDbEntity
  8
外形線
100
AcDbLine
 10
329.7749334699483
 20
241.0690517808
 30
0.0
 11
329.7749334699483
 21
236.8690517807999
 31
0.0
  0
LINE
  5
11F0
330
18
100
AcDbEntity
  8
外形線
100
AcDbLine
 10
321.9749334699484
 20
241.0690517808
 30
0.0
 11
321.9749334699484
 21
236.8690517808
 31
0.0
  0
LINE
  5
11F1
330
18
100
AcDbEntity
  8
外形線
100
AcDbLine
 10
322.1749334699484
 20
236.6690517808
 30
0.0
 11
321.9749334699484
 21
236.8690517808
 31
0.0
  0
LINE
  5
11F2
330
18
100
AcDbEntity
  8
外形線
100
AcDbLine
 10
329.5749334699483
 20
236.6690517808
 30
0.0
 11
329.7749334699483
 21
236.8690517807999
 31
0.0
  0
LINE
  5
11F4
330
18
100
AcDbEntity
  8
外形線
100
AcDbLine
 10
321.9749334699483
 20
241.0690517808
 30
0.0
 11
329.7749334699483
 21
241.0690517808001
 31
0.0
  0
LINE
  5
11F6
330
18
100
AcDbEntity
  8
外形線
100
AcDbLine
 10
321.8749334699483
 20
241.1690517808
 30
0.0
 11
321.9749334699483
 21
241.0690517808
 31
0.0
  0
LINE
  5
11F7
330
18
100
AcDbEntity
  8
外形線
100
AcDbLine
 10
329.7749334699483
 20
241.0690517808001
 30
0.0
 11
329.8749334699483
 21
241.1690517808001
 31
0.0
  0
LINE
  5
11F8
330
18
100
AcDbEntity
  8
ﾊｯﾁﾝｸ
 62
     4
100
AcDbLine
 10
321.9749334699484
 20
236.8690517808
 30
0.0
 11
329.7749334699483
 21
236.8690517807999
 31
0.0
  0
CIRCLE
  5
11F9
330
18
100
AcDbEntity
  8
外形線
100
AcDbCircle
 10
325.8749334699483
 20
281.6690517808
 30
0.0
 40
27.85
  0
CIRCLE
  5
11FA
330
18
100
AcDbEntity
  8
外形線
100
AcDbCircle
 10
325.8749334699483
 20
281.6690517808
 30
0.0
 40
24.75
  0
LINE
  5
123B
330
18
100
AcDbEntity
  8
外形線
100
AcDbLine
 10
401.0588198590715
 20
307.9190517808001
 30
0.0
 11
401.0588198590715
 21
255.4190517808
 31
0.0
  0
LINE
  5
123C
330
18
100
AcDbEntity
  8
外形線
100
AcDbLine
 10
402.0588198590716
 20
309.2690517808001
 30
0.0
 11
402.0588198590716
 21
254.0690517807998
 31
0.0
  0
LINE
  5
123D
330
18
100
AcDbEntity
  8
外形線
100
AcDbLine
 10
405.8588198590716
 20
309.2690517808001
 30
0.0
 11
405.8588198590716
 21
254.0690517808
 31
0.0
  0
LINE
  5
123E
330
18
100
AcDbEntity
  8
外形線
100
AcDbLine
 10
407.2588198590715
 20
308.0690517808001
 30
0.0
 11
407.2588198590716
 21
255.2690517808
 31
0.0
  0
LINE
  5
123F
330
18
100
AcDbEntity
  8
外形線
100
AcDbLine
 10
402.3088198590715
 20
309.5190517808001
 30
0.0
 11
405.6088198590716
 21
309.5190517808001
 31
0.0
  0
LINE
  5
1240
330
18
100
AcDbEntity
  8
外形線
100
AcDbLine
 10
402.0588198590716
 20
309.2690517808001
 30
0.0
 11
402.3088198590715
 21
309.5190517808001
 31
0.0
  0
LINE
  5
1241
330
18
100
AcDbEntity
  8
外形線
100
AcDbLine
 10
405.6088198590716
 20
309.5190517808001
 30
0.0
 11
405.8588198590716
 21
309.2690517808001
 31
0.0
  0
LINE
  5
1247
330
18
100
AcDbEntity
  8
外形線
100
AcDbLine
 10
401.0588198590715
 20
307.9190517808001
 30
0.0
 11
402.0588198590716
 21
308.2690517808001
 31
0.0
  0
LINE
  5
1248
330
18
100
AcDbEntity
  8
外形線
100
AcDbLine
 10
407.2588198590715
 20
308.0690517808001
 30
0.0
 11
405.8588198590716
 21
308.0690517808
 31
0.0
  0
LINE
  5
126C
330
18
100
AcDbEntity
  8
外形線
  6
Continuous
 62
     4
100
AcDbLine
 10
402.0588198590716
 20
307.8158142291106
 30
0.0
 11
405.8588198590716
 21
307.8158142291106
 31
0.0
  0
LINE
  5
126D
330
18
100
AcDbEntity
  8
外形線
  6
Continuous
 62
     4
100
AcDbLine
 10
402.0588198590716
 20
306.8158142291107
 30
0.0
 11
405.8588198590716
 21
306.8158142291107
 31
0.0
  0
LINE
  5
126E
330
18
100
AcDbEntity
  8
外形線
  6
Continuous
 62
     4
100
AcDbLine
 10
402.0588198590716
 20
305.8158142291107
 30
0.0
 11
405.8588198590716
 21
305.8158142291107
 31
0.0
  0
LINE
  5
126F
330
18
100
AcDbEntity
  8
外形線
  6
Continuous
 62
     4
100
AcDbLine
 10
402.0588198590716
 20
308.8158142291106
 30
0.0
 11
405.8588198590716
 21
308.8158142291106
 31
0.0
  0
LINE
  5
1270
330
18
100
AcDbEntity
  8
外形線
  6
Continuous
 62
     4
100
AcDbLine
 10
402.0588198590716
 20
303.8158142291106
 30
0.0
 11
405.8588198590716
 21
303.8158142291106
 31
0.0
  0
LINE
  5
1271
330
18
100
AcDbEntity
  8
外形線
  6
Continuous
 62
     4
100
AcDbLine
 10
402.0588198590716
 20
304.8158142291106
 30
0.0
 11
405.8588198590716
 21
304.8158142291106
 31
0.0
  0
LINE
  5
1272
330
18
100
AcDbEntity
  8
外形線
  6
Continuous
 62
     4
100
AcDbLine
 10
402.0588198590716
 20
259.5222893324894
 30
0.0
 11
405.8588198590716
 21
259.5222893324894
 31
0.0
  0
LINE
  5
1273
330
18
100
AcDbEntity
  8
外形線
  6
Continuous
 62
     4
100
AcDbLine
 10
402.0588198590716
 20
258.5222893324894
 30
0.0
 11
405.8588198590716
 21
258.5222893324894
 31
0.0
  0
LINE
  5
1274
330
18
100
AcDbEntity
  8
外形線
  6
Continuous
 62
     4
100
AcDbLine
 10
402.0588198590716
 20
257.5222893324894
 30
0.0
 11
405.8588198590716
 21
257.5222893324894
 31
0.0
  0
LINE
  5
1275
330
18
100
AcDbEntity
  8
外形線
  6
Continuous
 62
     4
100
AcDbLine
 10
402.0588198590716
 20
256.5222893324894
 30
0.0
 11
405.8588198590716
 21
256.5222893324894
 31
0.0
  0
LINE
  5
1276
330
18
100
AcDbEntity
  8
外形線
  6
Continuous
 62
     4
100
AcDbLine
 10
402.0588198590716
 20
255.5222893324895
 30
0.0
 11
405.8588198590716
 21
255.5222893324895
 31
0.0
  0
LINE
  5
1277
330
18
100
AcDbEntity
  8
外形線
  6
Continuous
 62
     4
100
AcDbLine
 10
402.0588198590716
 20
254.5222893324894
 30
0.0
 11
405.8588198590716
 21
254.5222893324894
 31
0.0
  0
LINE
  5
1278
330
18
100
AcDbEntity
  8
外形線
100
AcDbLine
 10
402.3088198590715
 20
253.8190517808
 30
0.0
 11
405.6088198590716
 21
253.8190517808
 31
0.0
  0
LINE
  5
1279
330
18
100
AcDbEntity
  8
外形線
100
AcDbLine
 10
401.0588198590715
 20
255.4190517808
 30
0.0
 11
402.0588198590716
 21
255.0690517807999
 31
0.0
  0
LINE
  5
127A
330
18
100
AcDbEntity
  8
外形線
100
AcDbLine
 10
402.0588198590716
 20
254.0690517808
 30
0.0
 11
402.3088198590715
 21
253.8190517808
 31
0.0
  0
LINE
  5
127B
330
18
100
AcDbEntity
  8
外形線
100
AcDbLine
 10
407.2588198590715
 20
255.2690517808
 30
0.0
 11
405.8588198590716
 21
255.2690517808001
 31
0.0
  0
LINE
  5
127C
330
18
100
AcDbEntity
  8
外形線
100
AcDbLine
 10
405.6088198590716
 20
253.8190517808
 30
0.0
 11
405.8588198590716
 21
254.0690517808
 31
0.0
  0
LINE
  5
12A9
330
18
100
AcDbEntity
  8
外形線
  6
Continuous
100
AcDbLine
 10
407.2588198590715
 20
307.6690517808001
 30
0.0
 11
420.3088198590716
 21
307.6690517808001
 31
0.0
  0
LINE
  5
12AA
330
18
100
AcDbEntity
  8
外形線
100
AcDbLine
 10
408.5088198590716
 20
254.6690517808001
 30
0.0
 11
420.3088198590716
 21
254.6690517808
 31
0.0
  0
LINE
  5
12AE
330
18
100
AcDbEntity
  8
外形線
 48
0.5
100
AcDbLine
 10
420.5088198590716
 20
307.4690517808001
 30
0.0
 11
420.5088198590716
 21
254.8690517808
 31
0.0
  0
ARC
  5
12AF
330
18
100
AcDbEntity
  8
外形線
 48
0.5
100
AcDbCircle
 10
420.3088198590716
 20
307.4690517808001
 30
0.0
 40
0.2
100
AcDbArc
 50
0.0000000000001018
 51
89.99999999999991
  0
ARC
  5
12B0
330
18
100
AcDbEntity
  8
外形線
100
AcDbCircle
 10
420.3088198590716
 20
254.8690517808
 30
0.0
 40
0.2
100
AcDbArc
 50
269.9999999999999
 51
0.0000000000000636
  0
LINE
  5
12BE
330
18
100
AcDbEntity
  8
外形線
 48
0.5
100
AcDbLine
 10
420.5088198590715
 20
306.7690517808001
 30
0.0
 11
421.2088198590715
 21
306.7690517808001
 31
0.0
  0
LINE
  5
12BF
330
18
100
AcDbEntity
  8
外形線
 48
0.5
100
AcDbLine
 10
420.5088198590716
 20
256.5690517808
 30
0.0
 11
421.2088198590715
 21
256.5690517808
 31
0.0
  0
LINE
  5
12C2
330
18
100
AcDbEntity
  8
外形線
 48
0.5
100
AcDbLine
 10
421.2088198590715
 20
306.7690517808001
 30
0.0
 11
421.2088198590715
 21
256.5690517808
 31
0.0
  0
LINE
  5
12EC
330
18
100
AcDbEntity
  8
外形線
100
AcDbLine
 10
423.5088198590714
 20
289.1690517807999
 30
0.0
 11
423.5088198590715
 21
274.1690517807999
 31
0.0
  0
ARC
  5
12F0
330
18
100
AcDbEntity
  8
外形線
100
AcDbCircle
 10
424.4836931495394
 20
291.6690517807998
 30
0.0
 40
2.0
100
AcDbArc
 50
182.7149908937811
 51
270.0
  0
ARC
  5
12F1
330
18
100
AcDbEntity
  8
外形線
100
AcDbCircle
 10
424.4836931495394
 20
271.6690517808002
 30
0.0
 40
2.0
100
AcDbArc
 50
90.00000000000003
 51
177.2850091062188
  0
LINE
  5
130C
330
18
100
AcDbEntity
  8
0
  6
ByBlock
 62
     2
100
AcDbLine
 10
434.0088198590715
 20
289.6690517807999
 30
0.0
 11
451.4047928948183
 21
289.6690517807999
 31
0.0
  0
LINE
  5
130D
330
18
100
AcDbEntity
  8
0
  6
ByBlock
 62
     2
100
AcDbLine
 10
434.0088198590715
 20
273.6690517807998
 30
0.0
 11
451.4047928948183
 21
273.6690517807998
 31
0.0
  0
LINE
  5
130E
330
18
100
AcDbEntity
  8
0
  6
ByBlock
 62
     2
100
AcDbLine
 10
450.1547928948183
 20
287.1690517807999
 30
0.0
 11
450.1547928948183
 21
276.1690517807998
 31
0.0
  0
INSERT
  5
130F
330
18
100
AcDbEntity
  8
0
  6
ByBlock
 62
     2
100
AcDbBlockReference
  2
_OPEN
 10
450.1547928948183
 20
289.6690517807999
 30
0.0
 41
2.5
 42
2.5
 43
2.5
 50
90.0
  0
INSERT
  5
1310
330
18
100
AcDbEntity
  8
0
  6
ByBlock
 62
     2
100
AcDbBlockReference
  2
_OPEN
 10
450.1547928948183
 20
273.6690517807998
 30
0.0
 41
2.5
 42
2.5
 43
2.5
 50
270.0
  0
MTEXT
  5
1311
330
18
100
AcDbEntity
  8
0
  6
ByBlock
 62
     6
100
AcDbMText
 10
448.2797928948183
 20
281.6690517807998
 30
0.0
 40
2.5
 41
0.0
 71
     5
 72
     1
  1
φ16
  7
STYLE3
 11
0.0000000000000001
 21
1.0
 31
0.0
 73
     1
 44
1.0
  0
POINT
  5
1312
330
18
100
AcDbEntity
  8
DEFPOINTS
  6
ByBlock
 62
     0
100
AcDbPoint
 10
434.0088198590715
 20
289.6690517807999
 30
0.0
  0
POINT
  5
1313
330
18
100
AcDbEntity
  8
DEFPOINTS
  6
ByBlock
 62
     0
100
AcDbPoint
 10
434.0088198590715
 20
273.6690517807998
 30
0.0
  0
POINT
  5
1314
330
18
100
AcDbEntity
  8
DEFPOINTS
  6
ByBlock
 62
     0
100
AcDbPoint
 10
450.1547928948183
 20
273.6690517807998
 30
0.0
  0
LINE
  5
1323
330
18
100
AcDbEntity
  8
外形線
100
AcDbLine
 10
420.5088198590716
 20
255.6690517808
 30
0.0
 11
407.2588198590715
 21
255.6690517808
 31
0.0
  0
LINE
  5
1324
330
18
100
AcDbEntity
  8
外形線
100
AcDbLine
 10
408.5088198590716
 20
255.6690517808
 30
0.0
 11
408.5088198590716
 21
254.6690517808001
 31
0.0
  0
LINE
  5
1326
330
18
100
AcDbEntity
  8
外形線
  6
Continuous
100
AcDbLine
 10
407.2588198590715
 20
307.1690517808001
 30
0.0
 11
420.5088198590716
 21
307.1690517808001
 31
0.0
  0
LINE
  5
1366
330
18
100
AcDbEntity
  8
外形線
  6
Continuous
 62
     4
100
AcDbLine
 10
405.8588198590716
 20
280.6690517808
 30
0.0
 11
402.0588198590716
 21
280.6690517808
 31
0.0
  0
LINE
  5
1367
330
18
100
AcDbEntity
  8
外形線
  6
Continuous
 62
     4
100
AcDbLine
 10
405.8588198590716
 20
279.6690517808
 30
0.0
 11
402.0588198590716
 21
279.6690517808
 31
0.0
  0
LINE
  5
1368
330
18
100
AcDbEntity
  8
外形線
  6
Continuous
 62
     4
100
AcDbLine
 10
405.8588198590716
 20
278.6690517808001
 30
0.0
 11
402.0588198590716
 21
278.6690517808
 31
0.0
  0
LINE
  5
136A
330
18
100
AcDbEntity
  8
外形線
100
AcDbLine
 10
411.0088198590717
 20
236.6690517808
 30
0.0
 11
411.0088198590717
 21
230.6690517808
 31
0.0
  0
LINE
  5
136B
330
18
100
AcDbEntity
  8
外形線
100
AcDbLine
 10
416.0088198590717
 20
236.6690517808
 30
0.0
 11
416.0088198590718
 21
230.6690517808
 31
0.0
  0
LINE
  5
136C
330
18
100
AcDbEntity
  8
外形線
100
AcDbLine
 10
411.0088198590717
 20
230.6690517808
 30
0.0
 11
416.0088198590718
 21
230.6690517808
 31
0.0
  0
LINE
  5
136D
330
18
100
AcDbEntity
  8
外形線
100
AcDbLine
 10
415.7588198590716
 20
227.1690517808
 30
0.0
 11
414.8088198590716
 21
222.6690517808
 31
0.0
  0
LINE
  5
136E
330
18
100
AcDbEntity
  8
外形線
100
AcDbLine
 10
411.0088198590715
 20
227.3690517808
 30
0.0
 11
416.0088198590717
 21
227.3690517808
 31
0.0
  0
LINE
  5
136F
330
18
100
AcDbEntity
  8
外形線
100
AcDbLine
 10
411.0088198590715
 20
230.4690517808
 30
0.0
 11
416.0088198590717
 21
230.4690517808
 31
0.0
  0
LINE
  5
1370
330
18
100
AcDbEntity
  8
外形線
100
AcDbLine
 10
411.2588198590716
 20
227.1690517808
 30
0.0
 11
415.7588198590715
 21
227.1690517808
 31
0.0
  0
LINE
  5
1372
330
18
100
AcDbEntity
  8
外形線
100
AcDbLine
 10
411.0088198590717
 20
230.4690517808
 30
0.0
 11
411.0088198590717
 21
227.3690517808
 31
0.0
  0
POINT
  5
1373
330
18
100
AcDbEntity
  8
DEFPOINTS
  6
ByBlock
 62
     0
100
AcDbPoint
 10
413.5088198590716
 20
221.6690517808
 30
0.0
  0
LINE
  5
1374
330
18
100
AcDbEntity
  8
外形線
100
AcDbLine
 10
411.2588198590716
 20
227.1690517808
 30
0.0
 11
412.2088198590716
 21
222.6690517808
 31
0.0
  0
LINE
  5
1375
330
18
100
AcDbEntity
  8
外形線
100
AcDbLine
 10
412.2088198590716
 20
222.6690517808
 30
0.0
 11
414.8088198590716
 21
222.6690517808
 31
0.0
  0
LINE
  5
1377
330
18
100
AcDbEntity
  8
外形線
100
AcDbLine
 10
411.0088198590717
 20
227.3690517808
 30
0.0
 11
411.2588198590716
 21
227.1690517808
 31
0.0
  0
LINE
  5
1378
330
18
100
AcDbEntity
  8
外形線
100
AcDbLine
 10
411.2588198590716
 20
230.6690517808
 30
0.0
 11
411.0088198590717
 21
230.4690517808
 31
0.0
  0
LINE
  5
1379
330
18
100
AcDbEntity
  8
外形線
100
AcDbLine
 10
416.0088198590717
 20
230.4690517808
 30
0.0
 11
416.0088198590716
 21
227.3690517808
 31
0.0
  0
LINE
  5
137A
330
18
100
AcDbEntity
  8
外形線
100
AcDbLine
 10
416.0088198590717
 20
227.3690517808
 30
0.0
 11
415.7588198590716
 21
227.1690517808
 31
0.0
  0
LINE
  5
137B
330
18
100
AcDbEntity
  8
外形線
100
AcDbLine
 10
415.7588198590716
 20
230.6690517808
 30
0.0
 11
416.0088198590717
 21
230.4690517808
 31
0.0
  0
LINE
  5
137C
330
18
100
AcDbEntity
  8
ﾊｯﾁﾝｸ
 62
     4
100
AcDbLine
 10
409.6088198590718
 20
236.8690517808
 30
0.0
 11
417.4088198590716
 21
236.8690517807999
 31
0.0
  0
LINE
  5
137D
330
18
100
AcDbEntity
  8
外形線
100
AcDbLine
 10
409.6088198590717
 20
241.0690517808
 30
0.0
 11
417.4088198590716
 21
241.0690517808001
 31
0.0
  0
LINE
  5
137E
330
18
100
AcDbEntity
  8
外形線
100
AcDbLine
 10
409.8088198590717
 20
236.6690517808
 30
0.0
 11
417.2088198590716
 21
236.6690517808
 31
0.0
  0
LINE
  5
137F
330
18
100
AcDbEntity
  8
外形線
100
AcDbLine
 10
409.6088198590718
 20
241.0690517808
 30
0.0
 11
409.6088198590718
 21
236.8690517808
 31
0.0
  0
LINE
  5
1380
330
18
100
AcDbEntity
  8
外形線
100
AcDbLine
 10
409.8088198590717
 20
236.6690517808
 30
0.0
 11
409.6088198590718
 21
236.8690517808
 31
0.0
  0
LINE
  5
1381
330
18
100
AcDbEntity
  8
外形線
100
AcDbLine
 10
409.5088198590716
 20
241.1690517808
 30
0.0
 11
409.6088198590717
 21
241.0690517808
 31
0.0
  0
LINE
  5
1382
330
18
100
AcDbEntity
  8
外形線
100
AcDbLine
 10
417.4088198590716
 20
241.0690517808
 30
0.0
 11
417.4088198590716
 21
236.8690517807999
 31
0.0
  0
LINE
  5
1383
330
18
100
AcDbEntity
  8
外形線
100
AcDbLine
 10
417.2088198590716
 20
236.6690517808
 30
0.0
 11
417.4088198590716
 21
236.8690517807999
 31
0.0
  0
LINE
  5
1384
330
18
100
AcDbEntity
  8
外形線
100
AcDbLine
 10
417.4088198590716
 20
241.0690517808001
 30
0.0
 11
417.5088198590716
 21
241.1690517808001
 31
0.0
  0
LINE
  5
1426
330
18
100
AcDbEntity
  8
0
  6
ByBlock
 62
     2
100
AcDbLine
 10
314.4010798735802
 20
236.6690517808
 30
0.0
 11
300.403815727983
 21
236.6690517808
 31
0.0
  0
LINE
  5
1427
330
18
100
AcDbEntity
  8
0
  6
ByBlock
 62
     2
100
AcDbLine
 10
321.8749334699483
 20
241.1690517808
 30
0.0
 11
300.403815727983
 21
241.1690517808
 31
0.0
  0
LINE
  5
1428
330
18
100
AcDbEntity
  8
0
  6
ByBlock
 62
     2
100
AcDbLine
 10
301.6538157279829
 20
234.1690517808
 30
0.0
 11
301.6538157279829
 21
231.6690517808
 31
0.0
  0
LINE
  5
1429
330
18
100
AcDbEntity
  8
0
  6
ByBlock
 62
     2
100
AcDbLine
 10
301.6538157279829
 20
243.6690517808
 30
0.0
 11
301.6538157279829
 21
246.1690517808
 31
0.0
  0
LINE
  5
142A
330
18
100
AcDbEntity
  8
0
  6
ByBlock
 62
     2
100
AcDbLine
 10
301.6538157279829
 20
236.6690517808
 30
0.0
 11
301.6538157279829
 21
241.1690517808
 31
0.0
  0
INSERT
  5
142B
330
18
100
AcDbEntity
  8
0
  6
ByBlock
 62
     2
100
AcDbBlockReference
  2
_OPEN
 10
301.6538157279829
 20
236.6690517808
 30
0.0
 41
2.5
 42
2.5
 43
2.5
 50
90.0
  0
INSERT
  5
142C
330
18
100
AcDbEntity
  8
0
  6
ByBlock
 62
     2
100
AcDbBlockReference
  2
_OPEN
 10
301.6538157279829
 20
241.1690517808
 30
0.0
 41
2.5
 42
2.5
 43
2.5
 50
270.0
  0
MTEXT
  5
142D
330
18
100
AcDbEntity
  8
0
  6
ByBlock
 62
     6
100
AcDbMText
 10
298.3965737367515
 20
238.9190517808
 30
0.0
 40
2.5
 41
0.0
 71
     5
 72
     1
  1
\A1;4.5
  7
STYLE3
 11
0.0000000000000001
 21
1.0
 31
0.0
 73
     1
 44
1.0
  0
POINT
  5
142E
330
18
100
AcDbEntity
  8
DEFPOINTS
  6
ByBlock
 62
     0
100
AcDbPoint
 10
314.4010798735802
 20
236.6690517808
 30
0.0
  0
POINT
  5
142F
330
18
100
AcDbEntity
  8
DEFPOINTS
  6
ByBlock
 62
     0
100
AcDbPoint
 10
321.8749334699483
 20
241.1690517808
 30
0.0
  0
POINT
  5
1430
330
18
100
AcDbEntity
  8
DEFPOINTS
  6
ByBlock
 62
     0
100
AcDbPoint
 10
301.6538157279829
 20
241.1690517808
 30
0.0
  0
LINE
  5
1431
330
18
100
AcDbEntity
  8
0
  6
ByBlock
 62
     2
100
AcDbLine
 10
291.71944493844
 20
281.6690517808
 30
0.0
 11
294.1510993776422
 21
281.6690517808
 31
0.0
  0
LINE
  5
1432
330
18
100
AcDbEntity
  8
0
  6
ByBlock
 62
     2
100
AcDbLine
 10
322.1749334699484
 20
236.6690517808
 30
0.0
 11
291.6510993776422
 21
236.6690517808
 31
0.0
  0
LINE
  5
1433
330
18
100
AcDbEntity
  8
0
  6
ByBlock
 62
     2
100
AcDbLine
 10
292.9010993776422
 20
279.1690517808
 30
0.0
 11
292.9010993776422
 21
239.1690517808
 31
0.0
  0
INSERT
  5
1434
330
18
100
AcDbEntity
  8
0
  6
ByBlock
 62
     2
100
AcDbBlockReference
  2
_OPEN
 10
292.9010993776422
 20
281.6690517808
 30
0.0
 41
2.5
 42
2.5
 43
2.5
 50
90.0
  0
INSERT
  5
1435
330
18
100
AcDbEntity
  8
0
  6
ByBlock
 62
     2
100
AcDbBlockReference
  2
_OPEN
 10
292.9010993776422
 20
236.6690517808
 30
0.0
 41
2.5
 42
2.5
 43
2.5
 50
270.0
  0
MTEXT
  5
1436
330
18
100
AcDbEntity
  8
0
  6
ByBlock
 62
     6
100
AcDbMText
 10
291.0260993776422
 20
259.1690517808
 30
0.0
 40
2.5
 41
0.0
 71
     5
 72
     1
  1
\A1;45
  7
STYLE3
 11
0.0000000000000001
 21
1.0
 31
0.0
 73
     1
 44
1.0
  0
POINT
  5
1437
330
18
100
AcDbEntity
  8
DEFPOINTS
  6
ByBlock
 62
     0
100
AcDbPoint
 10
291.71944493844
 20
281.6690517808
 30
0.0
  0
POINT
  5
1438
330
18
100
AcDbEntity
  8
DEFPOINTS
  6
ByBlock
 62
     0
100
AcDbPoint
 10
322.1749334699484
 20
236.6690517808
 30
0.0
  0
POINT
  5
1439
330
18
100
AcDbEntity
  8
DEFPOINTS
  6
ByBlock
 62
     0
100
AcDbPoint
 10
292.9010993776422
 20
236.6690517808
 30
0.0
  0
LINE
  5
14FE
330
18
100
AcDbEntity
  8
外形線
  6
Continuous
100
AcDbLine
 10
322.1749334699483
 20
323.2690517808
 30
0.0
 11
322.1749334699483
 21
316.7690517808
 31
0.0
  0
LINE
  5
14FF
330
18
100
AcDbEntity
  8
外形線
  6
Continuous
100
AcDbLine
 10
329.5749334699483
 20
323.2690517808
 30
0.0
 11
329.5749334699483
 21
316.7690517808
 31
0.0
  0
LINE
  5
1500
330
18
100
AcDbEntity
  8
外形線
  6
Continuous
100
AcDbLine
 10
321.8749334699483
 20
310.7690517808
 30
0.0
 11
329.8749334699483
 21
310.7690517808
 31
0.0
  0
LINE
  5
1501
330
18
100
AcDbEntity
  8
外形線
  6
Continuous
100
AcDbLine
 10
321.8749334699483
 20
316.7690517808
 30
0.0
 11
329.8749334699483
 21
316.7690517808
 31
0.0
  0
LINE
  5
1502
330
18
100
AcDbEntity
  8
外形線
  6
Continuous
100
AcDbLine
 10
322.1749334699483
 20
310.7690517808
 30
0.0
 11
322.1749334699483
 21
309.2721766039066
 31
0.0
  0
LINE
  5
1504
330
18
100
AcDbEntity
  8
外形線
  6
Continuous
100
AcDbLine
 10
321.8749334699483
 20
316.7690517808
 30
0.0
 11
321.8749334699483
 21
310.7690517808
 31
0.0
  0
LINE
  5
1505
330
18
100
AcDbEntity
  8
外形線
  6
Continuous
100
AcDbLine
 10
329.5749334699483
 20
310.7690517808
 30
0.0
 11
329.5749334699483
 21
309.2721766039066
 31
0.0
  0
LINE
  5
1506
330
18
100
AcDbEntity
  8
外形線
  6
Continuous
100
AcDbLine
 10
329.8749334699483
 20
316.7690517808
 30
0.0
 11
329.8749334699483
 21
310.7690517808
 31
0.0
  0
ARC
  5
1507
330
18
100
AcDbEntity
  8
外形線
  6
Continuous
100
AcDbCircle
 10
325.8749334699483
 20
316.9240517808002
 30
0.0
 40
7.344999999999885
100
AcDbArc
 50
59.75198538337817
 51
120.2480146166212
  0
LINE
  5
1508
330
18
100
AcDbEntity
  8
外形線
  6
Continuous
100
AcDbLine
 10
322.1749334699483
 20
323.2690517808
 30
0.0
 11
329.5749334699483
 21
323.2690517808
 31
0.0
  0
POINT
  5
1509
330
18
100
AcDbEntity
  8
DEFPOINTS
  6
ByBlock
 62
     0
100
AcDbPoint
 10
325.8749334699483
 20
324.2690517808001
 30
0.0
  0
LINE
  5
1520
330
18
100
AcDbEntity
  8
外形線
  6
Continuous
100
AcDbLine
 10
417.5088198590715
 20
316.7690517808
 30
0.0
 11
417.5088198590715
 21
310.7690517808
 31
0.0
  0
LINE
  5
1522
330
18
100
AcDbEntity
  8
外形線
  6
Continuous
100
AcDbLine
 10
409.5088198590716
 20
316.7690517808
 30
0.0
 11
409.5088198590716
 21
310.7690517808
 31
0.0
  0
LINE
  5
1523
330
18
100
AcDbEntity
  8
外形線
  6
Continuous
100
AcDbLine
 10
409.5088198590715
 20
310.7690517808
 30
0.0
 11
417.5088198590715
 21
310.7690517808
 31
0.0
  0
LINE
  5
1524
330
18
100
AcDbEntity
  8
外形線
  6
Continuous
100
AcDbLine
 10
409.8088198590716
 20
310.7690517808
 30
0.0
 11
409.8088198590716
 21
307.6690517808001
 31
0.0
  0
LINE
  5
1525
330
18
100
AcDbEntity
  8
外形線
  6
Continuous
100
AcDbLine
 10
417.2088198590715
 20
310.7690517808
 30
0.0
 11
417.2088198590717
 21
307.6690517808001
 31
0.0
  0
ARC
  5
1526
330
18
100
AcDbEntity
  8
外形線
  6
Continuous
100
AcDbCircle
 10
413.5088198590715
 20
316.9240517808002
 30
0.0
 40
7.344999999999885
100
AcDbArc
 50
59.75198538337817
 51
120.2480146166212
  0
LINE
  5
1527
330
18
100
AcDbEntity
  8
外形線
  6
Continuous
100
AcDbLine
 10
409.8088198590716
 20
323.2690517808
 30
0.0
 11
417.2088198590715
 21
323.2690517808
 31
0.0
  0
LINE
  5
1528
330
18
100
AcDbEntity
  8
外形線
  6
Continuous
100
AcDbLine
 10
409.5088198590716
 20
316.7690517808
 30
0.0
 11
417.5088198590715
 21
316.7690517808
 31
0.0
  0
LINE
  5
1529
330
18
100
AcDbEntity
  8
外形線
  6
Continuous
100
AcDbLine
 10
409.8088198590716
 20
323.2690517808
 30
0.0
 11
409.8088198590716
 21
316.7690517808
 31
0.0
  0
POINT
  5
152A
330
18
100
AcDbEntity
  8
DEFPOINTS
  6
ByBlock
 62
     0
100
AcDbPoint
 10
413.5088198590715
 20
324.2690517808001
 30
0.0
  0
LINE
  5
152B
330
18
100
AcDbEntity
  8
外形線
  6
Continuous
100
AcDbLine
 10
417.2088198590715
 20
323.2690517808
 30
0.0
 11
417.2088198590715
 21
316.7690517808
 31
0.0
  0
HATCH
  5
1698
330
18
100
AcDbEntity
  8
ROGO
 62
     4
100
AcDbHatch
 10
0.0
 20
0.0
 30
0.0
210
0.0
220
0.0
230
1.0
  2
SOLID
 70
     1
 71
     1
 91
        1
 92
        7
 72
     0
 73
     1
 93
       11
 10
330.8437979960305
 20
290.8087130591219
 10
331.5616414910195
 20
290.8087130591219
 10
331.8151842989022
 20
291.3171895645779
 10
332.068727106785
 20
290.8087130591219
 10
332.7865548959356
 20
290.8087130591219
 10
332.3008617444998
 20
291.7827637862096
 10
333.4809082228777
 20
292.7568145132971
 10
332.7630804337271
 20
292.7568145132971
 10
332.4269721767404
 20
292.5441214771855
 10
332.5330277938912
 20
292.7568145132971
 10
331.8151842989022
 20
292.7568145132971
 97
       11
330
16E0
330
16E3
330
16E4
330
169A
330
16D0
330
16A3
330
16CF
330
1699
330
16DF
330
16E2
330
16E1
 75
     0
 76
     1
 47
0.0514683685270805
 98
        1
 10
331.7534041437211
 20
291.9210410270356
450
        0
451
        0
460
0.0
461
0.0
452
        0
462
0.0
453
        0
470

  0
LINE
  5
1699
102
{ACAD_REACTORS
330
1698
102
}
330
18
100
AcDbEntity
  8
ROGO
 62
     4
100
AcDbLine
 10
331.8151842989022
 20
291.3171895645779
 30
0.0
 11
332.068727106785
 21
290.8087130591219
 31
0.0
  0
LINE
  5
169A
102
{ACAD_REACTORS
330
1698
102
}
330
18
100
AcDbEntity
  8
ROGO
 62
     4
100
AcDbLine
 10
331.8151842989022
 20
292.7568145132971
 30
0.0
 11
332.5330277938912
 21
292.7568145132971
 31
0.0
  0
TEXT
  5
169B
330
18
100
AcDbEntity
  8
文字
100
AcDbText
 10
321.3208277807499
 20
286.1682003499337
 30
0.0
 40
1.3
  1
NO.5-DX
  7
STYLE3
100
AcDbText
  0
TEXT
  5
169C
330
18
100
AcDbEntity
  8
文字
100
AcDbText
 10
319.5967769685644
 20
288.4778268504564
 30
0.0
 40
1.0
  1
MADE  IN  JAPAN
  7
STYLE3
100
AcDbText
  0
HATCH
  5
169D
330
18
100
AcDbEntity
  8
ROGO
 62
     4
100
AcDbHatch
 10
0.0
 20
0.0
 30
0.0
210
0.0
220
0.0
230
1.0
  2
SOLID
 70
     1
 71
     1
 91
        2
 92
        5
 93
        6
 72
     1
 10
318.3749334699483
 20
290.8087130591219
 11
319.2804942871476
 21
290.8087130591219
 72
     1
 10
319.2804942871476
 20
290.8087130591219
 11
319.5978144714778
 21
291.5100841666606
 72
     1
 10
319.5978144714778
 20
291.5100841666606
 11
320.4443281040363
 21
291.5100841666606
 72
     4
 94
        3
 73
     0
 74
     0
 95
       18
 96
       14
 40
0.108740278791501
 40
0.108740278791501
 40
0.108740278791501
 40
0.108740278791501
 40
0.6623149649549278
 40
1.384304701649787
 40
2.097394834876493
 40
2.774073369849618
 40
3.428974823686337
 40
4.005208313035923
 40
4.455173659284313
 40
4.720999734343524
 40
5.086034088486724
 40
5.569973738255373
 40
6.060470601257719
 40
6.060470601257719
 40
6.060470601257719
 40
6.060470601257719
 10
320.4443281040364
 20
291.5100841666606
 10
320.5039043349771
 20
291.5105278128134
 10
320.6411817837757
 20
291.5115500764085
 10
320.8332318604572
 20
291.6141474473973
 10
321.0153502054936
 20
291.7448490228921
 10
321.1620341431636
 20
291.9081470053478
 10
321.2534226557344
 20
292.0948502714395
 10
321.267578447468
 20
292.2737882028012
 10
321.2589366843982
 20
292.4153258819329
 10
321.1971869467074
 20
292.5139811580991
 10
321.1329905591433
 20
292.614106174585
 10
321.0152760920692
 20
292.7008381827601
 10
320.9188261309945
 20
292.7388396951543
 10
320.8697793641333
 20
292.7568145132972
 72
     1
 10
320.8697793641333
 20
292.7568145132971
 11
319.3388359519349
 21
292.7568145132971
 72
     1
 10
319.3388359519349
 20
292.7568145132971
 11
318.3749334699483
 21
290.8087130591219
 97
        6
330
16C5
330
16A4
330
16A7
330
16A3
330
16A5
330
16A2
 92
       20
 93
        4
 72
     1
 10
319.7937417214289
 20
291.9431411201139
 11
319.9437485050189
 21
292.2747003121867
 72
     1
 10
319.9437485050189
 20
292.2747003121867
 11
320.329202007017
 21
292.2747003121866
 72
     4
 94
        3
 73
     0
 74
     0
 95
       15
 96
       11
 40
0.0
 40
0.0
 40
0.0
 40
0.0
 40
0.1461831775054869
 40
0.2128346657926855
 40
0.2884885421222081
 40
0.3400274801801145
 40
0.4215368452530754
 40
0.4703587283434508
 40
0.5541210812769089
 40
0.5820418834082098
 40
0.5820418834082098
 40
0.5820418834082098
 40
0.5820418834082098
 10
320.3292020070171
 20
292.2747003121866
 10
320.3841055736654
 20
292.2749517998286
 10
320.464042146791
 20
292.2753179520025
 10
320.5077543119955
 20
292.1764361798778
 10
320.4881604353476
 20
292.1127717439979
 10
320.4635293354746
 20
292.0474082111194
 10
320.4200006034231
 20
292.0029927047064
 10
320.3615786692291
 20
291.9602130846104
 10
320.3063671495531
 20
291.9550344200396
 10
320.2704582537058
 20
291.9455197810099
 10
320.2614810254469
 20
291.9431411201139
 72
     1
 10
320.2614810254469
 20
291.9431411201139
 11
319.7937417214289
 21
291.9431411201139
 97
        4
330
16A6
330
16A1
330
16C4
330
16A0
 75
     0
 76
     1
 47
0.0514683685270805
 98
        2
 10
319.3470186069502
 20
292.1509032604106
 10
319.3470186069502
 20
292.1509032604106
450
        0
451
        0
460
0.0
461
0.0
452
        0
462
0.0
453
        0
470

  0
HATCH
  5
169E
330
18
100
AcDbEntity
  8
ROGO
 62
     4
100
AcDbHatch
 10
0.0
 20
0.0
 30
0.0
210
0.0
220
0.0
230
1.0
  2
SOLID
 70
     1
 71
     0
 91
        1
 92
        7
 72
     0
 73
     1
 93
        4
 10
319.3688391049564
 20
291.0039811377745
 10
319.2804942871477
 20
290.8087130591219
 10
330.8437979960306
 20
290.8087130591219
 10
330.9411649666186
 20
291.0039811377745
 97
        0
 75
     0
 76
     1
 47
0.0514683685270805
 98
        1
 10
326.6758239101517
 20
290.9523358691558
450
        0
451
        0
460
0.0
461
0.0
452
        0
462
0.0
453
        0
470

  0
LINE
  5
169F
330
18
100
AcDbEntity
  8
ROGO
 62
     4
100
AcDbLine
 10
319.3552970566228
 20
291.0039811377745
 30
0.0
 11
330.9411649666186
 21
291.0039811377745
 31
0.0
  0
LINE
  5
16A0
102
{ACAD_REACTORS
330
169D
102
}
330
18
100
AcDbEntity
  8
ROGO
 62
     4
100
AcDbLine
 10
320.261481025447
 20
291.9431411201139
 30
0.0
 11
319.7937417214288
 21
291.9431411201139
 31
0.0
  0
LINE
  5
16A1
102
{ACAD_REACTORS
330
169D
102
}
330
18
100
AcDbEntity
  8
ROGO
 62
     4
100
AcDbLine
 10
320.3292020070171
 20
292.2747003121866
 30
0.0
 11
319.9437485050188
 21
292.2747003121866
 31
0.0
  0
LINE
  5
16A2
102
{ACAD_REACTORS
330
169D
102
}
330
18
100
AcDbEntity
  8
ROGO
 62
     4
100
AcDbLine
 10
320.4443281043299
 20
291.5100841666606
 30
0.0
 11
319.5978144714778
 21
291.5100841666606
 31
0.0
  0
LINE
  5
16A3
102
{ACAD_REACTORS
330
169D
330
1698
102
}
330
18
100
AcDbEntity
  8
ROGO
 62
     4
100
AcDbLine
 10
318.3749334699483
 20
290.8087130591219
 30
0.0
 11
331.5616414910195
 21
290.8087130591219
 31
0.0
  0
LINE
  5
16A4
102
{ACAD_REACTORS
330
169D
102
}
330
18
100
AcDbEntity
  8
ROGO
 62
     4
100
AcDbLine
 10
319.3388359519349
 20
292.7568145132971
 30
0.0
 11
320.8697793641333
 21
292.7568145132971
 31
0.0
  0
LINE
  5
16A5
102
{ACAD_REACTORS
330
169D
102
}
330
18
100
AcDbEntity
  8
ROGO
 62
     4
100
AcDbLine
 10
319.5978144714778
 20
291.5100841666606
 30
0.0
 11
319.2804942871477
 21
290.8087130591219
 31
0.0
  0
LINE
  5
16A6
102
{ACAD_REACTORS
330
169D
102
}
330
18
100
AcDbEntity
  8
ROGO
 62
     4
100
AcDbLine
 10
319.9437485050188
 20
292.2747003121866
 30
0.0
 11
319.7937417214288
 21
291.9431411201139
 31
0.0
  0
LINE
  5
16A7
102
{ACAD_REACTORS
330
169D
102
}
330
18
100
AcDbEntity
  8
ROGO
 62
     4
100
AcDbLine
 10
319.3388359519349
 20
292.7568145132971
 30
0.0
 11
318.3749334699483
 21
290.8087130591219
 31
0.0
  0
HATCH
  5
16A8
330
18
100
AcDbEntity
  8
ROGO
 62
     4
100
AcDbHatch
 10
0.0
 20
0.0
 30
0.0
210
0.0
220
0.0
230
1.0
  2
SOLID
 70
     1
 71
     1
 91
        1
 92
        5
 93
        8
 72
     1
 10
327.3056932386329
 20
292.2929499923035
 11
327.5369910702297
 21
292.7568145132972
 72
     1
 10
327.5369910702297
 20
292.7568145132972
 11
326.2884649734668
 21
292.7568145132972
 72
     4
 94
        3
 73
     0
 74
     0
 95
       26
 96
       22
 40
0.0
 40
0.0
 40
0.0
 40
0.0
 40
0.2261711682465229
 40
0.3775752524709292
 40
0.4867499270747143
 40
0.568267124049349
 40
0.6739992068898783
 40
0.7511733198246171
 40
0.8905317800930589
 40
1.003967563249478
 40
1.081122071918962
 40
1.156776017963922
 40
1.292106219407743
 40
1.387800824155796
 40
1.439339762213627
 40
1.512549301287547
 40
1.565415552119591
 40
1.642001295672489
 40
1.685342202005951
 40
1.779656875742602
 40
1.822721775074863
 40
1.822721775074863
 40
1.822721775074863
 40
1.822721775074863
 10
326.2884649734662
 20
292.7568145132971
 10
326.2116989844255
 20
292.7522345227511
 10
326.0835441098767
 20
292.744588583173
 10
325.9428308372245
 20
292.6591067811852
 10
325.8397360558731
 20
292.6094114179987
 10
325.7662089828417
 20
292.5418548055127
 10
325.7123133402532
 20
292.4720737597318
 10
325.6443677649322
 20
292.3889301553318
 10
325.5889600898047
 20
292.292112792505
 10
325.5607443293118
 20
292.1854031801943
 10
325.5357510764637
 20
292.1003550000336
 10
325.5172156617412
 20
292.0055799022587
 10
325.5219315959773
 20
291.9031894565256
 10
325.5286850296347
 20
291.8080944523748
 10
325.5588374686961
 20
291.7402108570858
 10
325.5931757558699
 20
291.6918824150431
 10
325.6352225182539
 20
291.6386539940552
 10
325.6812308711738
 20
291.6034009831951
 10
325.7192835345015
 20
291.539537785077
 10
325.7858934379748
 20
291.5313883804126
 10
325.8282333425968
 20
291.5151686328588
 10
325.8415057941669
 20
291.5100841666606
 72
     1
 10
325.8415057941669
 20
291.5100841666606
 11
326.9153310537549
 21
291.5100841666606
 72
     1
 10
326.9153310537549
 20
291.5100841666606
 11
327.1466264359709
 21
291.9739437754558
 72
     1
 10
327.1466264359709
 20
291.9739437754558
 11
326.3494137400566
 21
291.9739437754558
 72
     4
 94
        3
 73
     0
 74
     0
 95
       16
 96
       12
 40
0.0
 40
0.0
 40
0.0
 40
0.0
 40
0.0683030918787651
 40
0.1373106805328241
 40
0.1784706056911381
 40
0.2179345026857031
 40
0.2612752368189221
 40
0.2915411730568249
 40
0.3202609197926786
 40
0.3785004428982989
 40
0.4977391777073984
 40
0.4977391777073984
 40
0.4977391777073984
 40
0.4977391777073984
 10
326.3494137400566
 20
291.9739437754558
 10
326.3253669957263
 20
291.9810186802264
 10
326.2770254823663
 20
291.9952414622708
 10
326.2729796880646
 20
292.0641882845932
 10
326.2784914974758
 20
292.1133185373972
 10
326.3015749676008
 20
292.1490882304605
 10
326.3295792206369
 20
292.1751153885168
 10
326.3400064460654
 20
292.2090116923797
 10
326.3706563251927
 20
292.2346076425938
 10
326.425006773353
 20
292.2776308593864
 10
326.4851089603979
 20
292.2867938432719
 10
326.5254886036662
 20
292.2929499923035
 72
     1
 10
326.5254886036662
 20
292.2929499923035
 11
327.3056932386329
 21
292.2929499923035
 97
        8
330
16D9
330
16A9
330
16AA
330
16DA
330
16DC
330
16DB
330
16DD
330
16DE
 75
     0
 76
     1
 47
0.0514683685270805
 98
        1
 10
326.7251207753779
 20
292.47927772195
450
        0
451
        0
460
0.0
461
0.0
452
        0
462
0.0
453
        0
470

  0
SPLINE
  5
16A9
102
{ACAD_REACTORS
330
16A8
102
}
330
18
100
AcDbEntity
  8
ROGO
 62
     4
100
AcDbSpline
210
0.0
220
0.0
230
1.0
 70
     8
 71
     3
 72
    26
 73
    22
 74
    20
 42
0.0000000001
 43
0.0000000001
 44
0.0000000001
 40
0.0
 40
0.0
 40
0.0
 40
0.0
 40
0.2261711682465229
 40
0.3775752524709292
 40
0.4867499270747143
 40
0.568267124049349
 40
0.6739992068898783
 40
0.7511733198246171
 40
0.8905317800930589
 40
1.003967563249478
 40
1.081122071918962
 40
1.156776017963922
 40
1.292106219407743
 40
1.387800824155796
 40
1.439339762213627
 40
1.512549301287547
 40
1.565415552119591
 40
1.642001295672489
 40
1.685342202005951
 40
1.779656875742602
 40
1.822721775074863
 40
1.822721775074863
 40
1.822721775074863
 40
1.822721775074863
 10
326.2884649734662
 20
292.7568145132971
 30
0.0
 10
326.2116989844255
 20
292.7522345227511
 30
0.0
 10
326.0835441098767
 20
292.744588583173
 30
0.0
 10
325.9428308372245
 20
292.6591067811852
 30
0.0
 10
325.8397360558731
 20
292.6094114179987
 30
0.0
 10
325.7662089828417
 20
292.5418548055127
 30
0.0
 10
325.7123133402532
 20
292.4720737597318
 30
0.0
 10
325.6443677649322
 20
292.3889301553318
 30
0.0
 10
325.5889600898047
 20
292.292112792505
 30
0.0
 10
325.5607443293118
 20
292.1854031801943
 30
0.0
 10
325.5357510764637
 20
292.1003550000336
 30
0.0
 10
325.5172156617412
 20
292.0055799022587
 30
0.0
 10
325.5219315959773
 20
291.9031894565256
 30
0.0
 10
325.5286850296347
 20
291.8080944523748
 30
0.0
 10
325.5588374686961
 20
291.7402108570858
 30
0.0
 10
325.5931757558699
 20
291.6918824150431
 30
0.0
 10
325.6352225182539
 20
291.6386539940552
 30
0.0
 10
325.6812308711738
 20
291.6034009831951
 30
0.0
 10
325.7192835345015
 20
291.539537785077
 30
0.0
 10
325.7858934379748
 20
291.5313883804126
 30
0.0
 10
325.8282333425968
 20
291.5151686328588
 30
0.0
 10
325.8415057941669
 20
291.5100841666606
 30
0.0
 11
326.2884649734662
 21
292.7568145132971
 31
0.0
 11
326.0649853838165
 21
292.7220255731579
 31
0.0
 11
325.9295430312671
 21
292.654360472436
 31
0.0
 11
325.8347335791871
 21
292.6002284359776
 31
0.0
 11
325.7737848125967
 21
292.546096178924
 31
0.0
 11
325.7060638310266
 21
292.4648980139387
 31
0.0
 11
325.6586591049866
 21
292.4039994453485
 31
0.0
 11
325.5909377340074
 21
292.2822020875731
 31
0.0
 11
325.5570774379268
 21
292.1739377940611
 31
0.0
 11
325.5367611823968
 21
292.0995061612074
 31
0.0
 11
325.5232167524372
 21
292.0250745283539
 31
0.0
 11
325.5232167524372
 21
291.88974432691
 31
0.0
 11
325.5367611823968
 21
291.7950130976614
 31
0.0
 11
325.5570774379268
 21
291.7476473727396
 31
0.0
 11
325.5977099489871
 21
291.6867488041493
 31
0.0
 11
325.6315706344768
 21
291.6461496113592
 31
0.0
 11
325.6857471860872
 21
291.5920175749006
 31
0.0
 11
325.7128356565972
 21
291.5581849142421
 31
0.0
 11
325.8008732831066
 21
291.5243524741787
 31
0.0
 11
325.8415057941669
 21
291.5100841666606
 31
0.0
  0
LINE
  5
16AA
102
{ACAD_REACTORS
330
16A8
102
}
330
18
100
AcDbEntity
  8
ROGO
 62
     4
100
AcDbLine
 10
325.8415057941669
 20
291.5100841666606
 30
0.0
 11
326.9153310537549
 21
291.5100841666606
 31
0.0
  0
HATCH
  5
16AB
330
18
100
AcDbEntity
  8
ROGO
 62
     4
100
AcDbHatch
 10
0.0
 20
0.0
 30
0.0
210
0.0
220
0.0
230
1.0
  2
SOLID
 70
     1
 71
     1
 91
        2
 92
        7
 72
     0
 73
     1
 93
        8
 10
324.9462277346351
 20
292.7568145132971
 10
323.9489502310562
 20
292.7568145132971
 10
323.049908748175
 20
291.5100841666607
 10
323.7403742079221
 20
291.5100841666606
 10
323.9115461437152
 20
291.7474539108931
 10
324.6994506634802
 20
291.7474539108931
 10
324.8048997094386
 20
291.5100841666606
 10
325.5000747552204
 20
291.5100841666607
 97
        8
330
16B2
330
16B8
330
16B3
330
16B4
330
16B6
330
16AC
330
16B1
330
16AE
 92
       22
 72
     0
 73
     1
 93
        3
 10
324.5882303749092
 20
291.9978149379806
 10
324.0920863460578
 20
291.9978149379806
 10
324.3990982484556
 20
292.4235584245563
 97
        3
330
16B5
330
16B7
330
16AD
 75
     0
 76
     1
 47
0.0128389261915577
 98
        2
 10
324.8681330260868
 20
292.4577063882087
 10
324.8681330260868
 20
292.4577063882087
450
        0
451
        0
460
0.0
461
0.0
452
        0
462
0.0
453
        0
470

  0
LINE
  5
16AC
102
{ACAD_REACTORS
330
16AB
102
}
330
18
100
AcDbEntity
  8
ROGO
 62
     4
100
AcDbLine
 10
324.6994506634802
 20
291.7474539108931
 30
0.0
 11
324.8048997094385
 21
291.5100841666606
 31
0.0
  0
LINE
  5
16AD
102
{ACAD_REACTORS
330
16AB
102
}
330
18
100
AcDbEntity
  8
ROGO
 62
     4
100
AcDbLine
 10
324.3990982484557
 20
292.4235584245561
 30
0.0
 11
324.5882303749092
 21
291.9978149379806
 31
0.0
  0
LINE
  5
16AE
102
{ACAD_REACTORS
330
16AB
102
}
330
18
100
AcDbEntity
  8
ROGO
 62
     4
100
AcDbLine
 10
324.9462277346353
 20
292.7568145132971
 30
0.0
 11
325.5000747552205
 21
291.5100841666606
 31
0.0
  0
HATCH
  5
16AF
330
18
100
AcDbEntity
  8
ROGO
 62
     4
100
AcDbHatch
 10
0.0
 20
0.0
 30
0.0
210
0.0
220
0.0
230
1.0
  2
SOLID
 70
     1
 71
     1
 91
        1
 92
        1
 93
       12
 72
     1
 10
321.7742227455346
 20
292.7568145132971
 11
323.460477406263
 21
292.7568145132972
 72
     1
 10
323.460477406263
 20
292.7568145132971
 11
323.3191707582903
 21
292.471225782544
 72
     1
 10
323.3191707582903
 20
292.471225782544
 11
322.432917919321
 21
292.471225782544
 72
     1
 10
322.432917919321
 20
292.471225782544
 11
322.3224336801782
 21
292.2479308839832
 72
     1
 10
322.3224336801782
 20
292.2479308839832
 11
323.2086865191474
 21
292.2479308839832
 72
     1
 10
323.2086865191474
 20
292.2479308839832
 11
323.0953952820702
 21
292.0189628837761
 72
     1
 10
323.0953952820702
 20
292.0189628837761
 11
322.2091424431011
 21
292.0189628837761
 72
     1
 10
322.2091424431011
 20
292.0189628837761
 11
322.0986535265866
 21
291.7956585319828
 72
     1
 10
322.0986535265867
 20
291.7956585319828
 11
322.9849063655558
 21
291.7956585319828
 72
     1
 10
322.9849063655558
 20
291.7956585319828
 11
322.8436068254648
 21
291.5100841666606
 72
     1
 10
322.8436068254648
 20
291.5100841666606
 11
321.1573521647363
 21
291.5100841666606
 72
     1
 10
321.1573521647363
 20
291.5100841666606
 11
321.7742227455346
 21
292.7568145132971
 97
       12
330
16B0
330
16C2
330
16BF
330
16C0
330
16BE
330
16BB
330
16BC
330
16B9
330
16BD
330
16BA
330
16C1
330
16C3
 75
     0
 76
     1
 98
        1
 10
252.798500129483
 20
206.550989759489
450
        0
451
        0
460
0.0
461
0.0
452
        0
462
0.0
453
        0
470

  0
LINE
  5
16B0
102
{ACAD_REACTORS
330
16AF
102
}
330
18
100
AcDbEntity
  8
ROGO
 62
     4
100
AcDbLine
 10
321.7742227455346
 20
292.7568145132971
 30
0.0
 11
323.460477406263
 21
292.7568145132972
 31
0.0
  0
LINE
  5
16B1
102
{ACAD_REACTORS
330
16AB
102
}
330
18
100
AcDbEntity
  8
ROGO
 62
     4
100
AcDbLine
 10
325.5000747552205
 20
291.5100841666607
 30
0.0
 11
324.8048997094385
 21
291.5100841666606
 31
0.0
  0
LINE
  5
16B2
102
{ACAD_REACTORS
330
16AB
102
}
330
18
100
AcDbEntity
  8
ROGO
 62
     4
100
AcDbLine
 10
323.9489502310563
 20
292.7568145132971
 30
0.0
 11
324.9462277346353
 21
292.7568145132972
 31
0.0
  0
LINE
  5
16B3
102
{ACAD_REACTORS
330
16AB
102
}
330
18
100
AcDbEntity
  8
ROGO
 62
     4
100
AcDbLine
 10
323.049908748175
 20
291.5100841666606
 30
0.0
 11
323.740374207922
 21
291.5100841666606
 31
0.0
  0
LINE
  5
16B4
102
{ACAD_REACTORS
330
16AB
102
}
330
18
100
AcDbEntity
  8
ROGO
 62
     4
100
AcDbLine
 10
323.9115461437152
 20
291.7474539108931
 30
0.0
 11
323.7403742079221
 21
291.5100841666607
 31
0.0
  0
LINE
  5
16B5
102
{ACAD_REACTORS
330
16AB
102
}
330
18
100
AcDbEntity
  8
ROGO
 62
     4
100
AcDbLine
 10
324.0920863460578
 20
291.9978149379806
 30
0.0
 11
324.5882303749092
 21
291.9978149379806
 31
0.0
  0
LINE
  5
16B6
102
{ACAD_REACTORS
330
16AB
102
}
330
18
100
AcDbEntity
  8
ROGO
 62
     4
100
AcDbLine
 10
323.9115461437152
 20
291.7474539108931
 30
0.0
 11
324.6994506634802
 21
291.7474539108931
 31
0.0
  0
LINE
  5
16B7
102
{ACAD_REACTORS
330
16AB
102
}
330
18
100
AcDbEntity
  8
ROGO
 62
     4
100
AcDbLine
 10
324.3990982484556
 20
292.4235584245561
 30
0.0
 11
324.0920863460578
 21
291.9978149379806
 31
0.0
  0
LINE
  5
16B8
102
{ACAD_REACTORS
330
16AB
102
}
330
18
100
AcDbEntity
  8
ROGO
 62
     4
100
AcDbLine
 10
323.9489502310563
 20
292.7568145132971
 30
0.0
 11
323.049908748175
 21
291.5100841666606
 31
0.0
  0
LINE
  5
16B9
102
{ACAD_REACTORS
330
16AF
102
}
330
18
100
AcDbEntity
  8
ROGO
 62
     4
100
AcDbLine
 10
322.2091424431011
 20
292.0189628837761
 30
0.0
 11
322.0986535265866
 21
291.7956585319828
 31
0.0
  0
LINE
  5
16BA
102
{ACAD_REACTORS
330
16AF
102
}
330
18
100
AcDbEntity
  8
ROGO
 62
     4
100
AcDbLine
 10
322.9849063655558
 20
291.7956585319828
 30
0.0
 11
322.8436068254648
 21
291.5100841666606
 31
0.0
  0
LINE
  5
16BB
102
{ACAD_REACTORS
330
16AF
102
}
330
18
100
AcDbEntity
  8
ROGO
 62
     4
100
AcDbLine
 10
323.2086865191474
 20
292.2479308839832
 30
0.0
 11
323.0953952820702
 21
292.0189628837761
 31
0.0
  0
LINE
  5
16BC
102
{ACAD_REACTORS
330
16AF
102
}
330
18
100
AcDbEntity
  8
ROGO
 62
     4
100
AcDbLine
 10
322.2091424431011
 20
292.0189628837761
 30
0.0
 11
323.0953952820702
 21
292.0189628837761
 31
0.0
  0
LINE
  5
16BD
102
{ACAD_REACTORS
330
16AF
102
}
330
18
100
AcDbEntity
  8
ROGO
 62
     4
100
AcDbLine
 10
322.0986535265867
 20
291.7956585319828
 30
0.0
 11
322.9849063655558
 21
291.7956585319828
 31
0.0
  0
LINE
  5
16BE
102
{ACAD_REACTORS
330
16AF
102
}
330
18
100
AcDbEntity
  8
ROGO
 62
     4
100
AcDbLine
 10
322.3224336801782
 20
292.2479308839832
 30
0.0
 11
323.2086865191474
 21
292.2479308839832
 31
0.0
  0
LINE
  5
16BF
102
{ACAD_REACTORS
330
16AF
102
}
330
18
100
AcDbEntity
  8
ROGO
 62
     4
100
AcDbLine
 10
322.432917919321
 20
292.471225782544
 30
0.0
 11
323.3191707582903
 21
292.471225782544
 31
0.0
  0
LINE
  5
16C0
102
{ACAD_REACTORS
330
16AF
102
}
330
18
100
AcDbEntity
  8
ROGO
 62
     4
100
AcDbLine
 10
322.432917919321
 20
292.471225782544
 30
0.0
 11
322.3224336801782
 21
292.2479308839832
 31
0.0
  0
LINE
  5
16C1
102
{ACAD_REACTORS
330
16AF
102
}
330
18
100
AcDbEntity
  8
ROGO
 62
     4
100
AcDbLine
 10
321.1573521647363
 20
291.5100841666606
 30
0.0
 11
322.8436068254648
 21
291.5100841666606
 31
0.0
  0
LINE
  5
16C2
102
{ACAD_REACTORS
330
16AF
102
}
330
18
100
AcDbEntity
  8
ROGO
 62
     4
100
AcDbLine
 10
323.460477406263
 20
292.7568145132971
 30
0.0
 11
323.3191707582903
 21
292.471225782544
 31
0.0
  0
LINE
  5
16C3
102
{ACAD_REACTORS
330
16AF
102
}
330
18
100
AcDbEntity
  8
ROGO
 62
     4
100
AcDbLine
 10
321.7742227455346
 20
292.7568145132971
 30
0.0
 11
321.1573521647363
 21
291.5100841666606
 31
0.0
  0
SPLINE
  5
16C4
102
{ACAD_REACTORS
330
169D
102
}
330
18
100
AcDbEntity
  8
ROGO
 62
     4
100
AcDbSpline
210
0.0
220
0.0
230
1.0
 70
     8
 71
     3
 72
    15
 73
    11
 74
     9
 42
0.0000000001
 43
0.0000000001
 44
0.0000000001
 40
0.0
 40
0.0
 40
0.0
 40
0.0
 40
0.1461831775054869
 40
0.2128346657926855
 40
0.2884885421222081
 40
0.3400274801801145
 40
0.4215368452530754
 40
0.4703587283434508
 40
0.5541210812769089
 40
0.5820418834082098
 40
0.5820418834082098
 40
0.5820418834082098
 40
0.5820418834082098
 10
320.3292020070171
 20
292.2747003121866
 30
0.0
 10
320.3841055736654
 20
292.2749517998286
 30
0.0
 10
320.464042146791
 20
292.2753179520025
 30
0.0
 10
320.5077543119955
 20
292.1764361798778
 30
0.0
 10
320.4881604353476
 20
292.1127717439979
 30
0.0
 10
320.4635293354746
 20
292.0474082111194
 30
0.0
 10
320.4200006034231
 20
292.0029927047064
 30
0.0
 10
320.3615786692291
 20
291.9602130846104
 30
0.0
 10
320.3063671495531
 20
291.9550344200396
 30
0.0
 10
320.2704582537058
 20
291.9455197810099
 30
0.0
 10
320.2614810254469
 20
291.9431411201139
 30
0.0
 11
320.3292020070171
 21
292.2747003121866
 31
0.0
 11
320.4714161851371
 21
292.2408676515281
 31
0.0
 11
320.498504655647
 21
292.179969082938
 31
0.0
 11
320.4849606150966
 21
292.1055374500844
 31
0.0
 11
320.4646443595665
 21
292.0581717251625
 31
0.0
 11
320.4104674185467
 21
291.9972731565724
 31
0.0
 11
320.3698349074865
 21
291.9702070280456
 31
0.0
 11
320.2885694959568
 21
291.9499076522455
 31
0.0
 11
320.2614810254469
 21
291.9431411201139
 31
0.0
  0
SPLINE
  5
16C5
102
{ACAD_REACTORS
330
169D
102
}
330
18
100
AcDbEntity
  8
ROGO
 62
     4
100
AcDbSpline
210
0.0
220
0.0
230
1.0
 70
     8
 71
     3
 72
    18
 73
    14
 74
     0
 42
0.0000000001
 43
0.0000000001
 40
0.1087402787915014
 40
0.1087402787915014
 40
0.1087402787915014
 40
0.1087402787915014
 40
0.5992371417938475
 40
1.083176791562496
 40
1.448211145705696
 40
1.714037220764907
 40
2.164002567013297
 40
2.740236056362883
 40
3.395137510199602
 40
4.071816045172726
 40
4.784906178399433
 40
5.506895915094292
 40
6.060470601257719
 40
6.060470601257719
 40
6.060470601257719
 40
6.060470601257719
 10
320.8697793641333
 20
292.7568145132972
 30
0.0
 10
320.9188261309945
 20
292.7388396951543
 30
0.0
 10
321.0152760920692
 20
292.7008381827601
 30
0.0
 10
321.1329905591433
 20
292.614106174585
 30
0.0
 10
321.1971869467074
 20
292.5139811580991
 30
0.0
 10
321.2589366843982
 20
292.4153258819329
 30
0.0
 10
321.267578447468
 20
292.2737882028012
 30
0.0
 10
321.2534226557344
 20
292.0948502714395
 30
0.0
 10
321.1620341431636
 20
291.9081470053478
 30
0.0
 10
321.0153502054936
 20
291.7448490228921
 30
0.0
 10
320.8332318604572
 20
291.6141474473973
 30
0.0
 10
320.6411817837757
 20
291.5115500764085
 30
0.0
 10
320.5039043349771
 20
291.5105278128134
 30
0.0
 10
320.4443281040364
 20
291.5100841666606
 30
0.0
  0
HATCH
  5
16C6
330
18
100
AcDbEntity
  8
ROGO
 62
     4
100
AcDbHatch
 10
0.0
 20
0.0
 30
0.0
210
0.0
220
0.0
230
1.0
  2
SOLID
 70
     1
 71
     1
 91
        2
 92
        5
 93
        6
 72
     4
 94
        3
 73
     0
 74
     0
 95
       38
 96
       34
 40
0.0
 40
0.0
 40
0.0
 40
0.0
 40
0.1716253587406623
 40
0.2255253290976248
 40
0.2947831262912113
 40
0.352498070257192
 40
0.401194707389018
 40
0.4658749546664991
 40
0.4989240118098149
 40
0.5361459251283493
 40
0.5910040209698863
 40
0.6531463397142244
 40
0.6934574532944029
 40
0.7372488460652118
 40
0.7859279681112547
 40
0.8598010024797554
 40
0.9299880888722469
 40
0.962617715058074
 40
0.99982743872465
 40
1.043908673224191
 40
1.075288847593852
 40
1.101594470956001
 40
1.139152958423429
 40
1.180423302418936
 40
1.221693416627877
 40
1.257804824007385
 40
1.340506365805091
 40
1.373135991990864
 40
1.438395283121515
 40
1.496081593396144
 40
1.606517709645446
 40
1.74278444224538
 40
1.93957343352095
 40
1.93957343352095
 40
1.93957343352095
 40
1.93957343352095
 10
328.229334554088
 20
292.7620147126037
 10
328.1721266777748
 20
292.7579733794015
 10
328.0969523257608
 20
292.7526628413369
 10
328.0014984761632
 20
292.7265113324082
 10
327.9494655672956
 20
292.6953564642238
 10
327.8953149253315
 20
292.6724561427615
 10
327.8491464597092
 20
292.6385453079116
 10
327.8024480314221
 20
292.6210713814193
 10
327.7697483624185
 20
292.5895627686514
 10
327.731901162809
 20
292.5703159480367
 10
327.7017627658017
 20
292.5272359680387
 10
327.6680765860648
 20
292.4869577478247
 10
327.6289963796957
 20
292.4575564434091
 10
327.5969227298369
 20
292.426676471707
 10
327.5674996158899
 20
292.3790193969947
 10
327.5500857001848
 20
292.3156972566383
 10
327.5009987947715
 20
292.2757179408571
 10
327.4936078437111
 20
292.22765087433
 10
327.4664563794229
 20
292.199292113929
 10
327.4546499731457
 20
292.1626850283418
 10
327.4501535253353
 20
292.1291464717803
 10
327.4447567157845
 20
292.0978237816691
 10
327.4306396840796
 20
292.0648736952899
 10
327.435247531935
 20
292.0241716551166
 10
327.4339348944183
 20
291.9847585186503
 10
327.4347073831377
 20
291.9315495571244
 10
327.4319193643657
 20
291.879744089741
 10
327.4541527215053
 20
291.8233674538678
 10
327.4673096844143
 20
291.7731154824398
 10
327.5033421676096
 20
291.7035355342568
 10
327.5654974460122
 20
291.6232553186615
 10
327.6836909070638
 20
291.5258103473444
 10
327.7973373755413
 20
291.5159250085996
 10
327.8644864208525
 20
291.5100841666606
 72
     1
 10
327.8644864208526
 20
291.5100841666606
 11
328.5769847394643
 21
291.5100841666606
 72
     4
 94
        3
 73
     0
 74
     0
 95
       11
 96
        7
 40
0.1647869275458135
 40
0.1647869275458135
 40
0.1647869275458135
 40
0.1647869275458135
 40
0.2545010798212315
 40
0.5111620267764023
 40
0.7602998271033902
 40
0.8850764140209603
 40
0.8850764140209603
 40
0.8850764140209603
 40
0.8850764140209603
 10
328.5769847394633
 20
291.5100841666606
 10
328.5869270052498
 20
291.5098925581941
 10
328.625312847517
 20
291.5091527819163
 10
328.6909147120748
 20
291.5185772609884
 10
328.759936612891
 20
291.5276085495069
 10
328.8010855774504
 20
291.5341857644141
 10
328.8143571311883
 20
291.5378799064555
 72
     4
 94
        3
 73
     0
 74
     0
 95
        9
 96
        5
 40
0.0
 40
0.0
 40
0.0
 40
0.0
 40
0.1078348623950619
 40
0.2528255661270943
 40
0.2528255661270943
 40
0.2528255661270943
 40
0.2528255661270943
 10
328.8143571311883
 20
291.5378799064555
 10
328.8489968089113
 20
291.5484776914741
 10
328.9302116956026
 20
291.5733248599828
 10
328.9973137962121
 20
291.6258396612873
 10
329.0357955879798
 20
291.6559559114518
 72
     4
 94
        3
 73
     0
 74
     0
 95
       25
 96
       21
 40
0.0
 40
0.0
 40
0.0
 40
0.0
 40
0.165525918914855
 40
0.3412380755365305
 40
0.5940540902285263
 40
0.7697671103696209
 40
0.9377330196075423
 40
1.11479469302833
 40
1.274661249598185
 40
1.574522170874768
 40
1.815540668866877
 40
2.15849091873445
 40
2.536227739636605
 40
2.738070817316548
 40
2.925680654369045
 40
3.162706124480894
 40
3.395643218188267
 40
3.648478129958861
 40
3.928509979727306
 40
4.337226830236035
 40
4.337226830236035
 40
4.337226830236035
 40
4.337226830236035
 10
329.0357955879798
 20
291.6559559114518
 10
329.0499350233785
 20
291.6676402204632
 10
329.076753666495
 20
291.6954299564025
 10
329.1243209461373
 20
291.7404709267878
 10
329.1662381349859
 20
291.7929472315229
 10
329.2179460052634
 20
291.8354774374023
 10
329.2448649608674
 20
291.8874737668016
 10
329.2836665104613
 20
291.9283677723498
 10
329.316214656773
 20
291.9915245301088
 10
329.3438301502618
 20
292.0640716376126
 10
329.370157710075
 20
292.1586354135276
 10
329.3802467025969
 20
292.2653174089977
 10
329.3653137389931
 20
292.3685321860765
 10
329.329239473834
 20
292.4456818415948
 10
329.3027181317275
 20
292.5099781281788
 10
329.2624686724078
 20
292.5708780324858
 10
329.2165494793108
 20
292.6371134132344
 10
329.1518574673252
 20
292.6919007963525
 10
329.0673116497409
 20
292.7579832089123
 10
328.9885635336491
 20
292.7605133046639
 10
328.9418328726987
 20
292.7620147126037
 72
     1
 10
328.9418328726987
 20
292.7620147126037
 11
328.2293345540879
 21
292.7620147126037
 97
        6
330
16CC
330
16CB
330
16CD
330
16CA
330
16C9
330
16C8
 92
       20
 93
        1
 72
     3
 10
328.3930705660962
 20
292.1185943713816
 11
0.1692676504802256
 21
0.148849717495386
 40
0.6788083417438791
 50
0.0
 51
360.0
 73
     1
 97
        1
330
16C7
 75
     0
 76
     1
 47
0.088756267210375
 98
        2
 10
328.4428500390946
 20
292.4162264789292
 10
328.4428500390946
 20
292.4162264789292
450
        0
451
        0
460
0.0
461
0.0
452
        0
462
0.0
453
        0
470

  0
ELLIPSE
  5
16C7
102
{ACAD_REACTORS
330
16C6
102
}
330
18
100
AcDbEntity
  8
ROGO
 62
     4
100
AcDbEllipse
 10
328.3930705660962
 20
292.1185943713816
 30
0.0
 11
0.1692676504802256
 21
0.148849717495386
 31
0.0
210
0.0
220
0.0
230
1.0
 40
0.6788083417438791
 41
0.0
 42
6.283185307179586
  0
SPLINE
  5
16C8
102
{ACAD_REACTORS
330
16C6
102
}
330
18
100
AcDbEntity
  8
ROGO
 62
     4
100
AcDbSpline
210
0.0
220
0.0
230
1.0
 70
     8
 71
     3
 72
     9
 73
     5
 74
     3
 42
0.0000000001
 43
0.0000000001
 44
0.0000000001
 40
0.0
 40
0.0
 40
0.0
 40
0.0
 40
0.1078348623950619
 40
0.2528255661270943
 40
0.2528255661270943
 40
0.2528255661270943
 40
0.2528255661270943
 10
328.8143571311883
 20
291.5378799064555
 30
0.0
 10
328.8489968089113
 20
291.5484776914741
 30
0.0
 10
328.9302116956026
 20
291.5733248599828
 30
0.0
 10
328.9973137962121
 20
291.6258396612873
 30
0.0
 10
329.0357955879798
 20
291.6559559114518
 30
0.0
 11
328.8143571311883
 21
291.5378799064555
 31
0.0
 11
328.9157087902386
 21
291.5747065103649
 31
0.0
 11
329.0357955879798
 21
291.6559559114518
 31
0.0
  0
SPLINE
  5
16C9
102
{ACAD_REACTORS
330
16C6
102
}
330
18
100
AcDbEntity
  8
ROGO
 62
     4
100
AcDbSpline
210
0.0
220
0.0
230
1.0
 70
     8
 71
     3
 72
    11
 73
     7
 74
     0
 42
0.0000000001
 43
0.0000000001
 40
0.1647869275458134
 40
0.1647869275458134
 40
0.1647869275458134
 40
0.1647869275458134
 40
0.2895635144633836
 40
0.5387013147903714
 40
0.7953622617455423
 40
0.8850764140209602
 40
0.8850764140209602
 40
0.8850764140209602
 40
0.8850764140209602
 10
328.8143571311883
 20
291.5378799064555
 30
0.0
 10
328.8010855774504
 20
291.5341857644141
 30
0.0
 10
328.759936612891
 20
291.5276085495069
 30
0.0
 10
328.6909147120748
 20
291.5185772609884
 30
0.0
 10
328.625312847517
 20
291.5091527819163
 30
0.0
 10
328.5869270052498
 20
291.5098925581941
 30
0.0
 10
328.5769847394633
 20
291.5100841666606
 30
0.0
  0
LINE
  5
16CA
102
{ACAD_REACTORS
330
16C6
102
}
330
18
100
AcDbEntity
  8
ROGO
 62
     4
100
AcDbLine
 10
327.8644864208525
 20
291.5100841666606
 30
0.0
 11
328.5769847394633
 21
291.5100841666606
 31
0.0
  0
LINE
  5
16CB
102
{ACAD_REACTORS
330
16C6
102
}
330
18
100
AcDbEntity
  8
ROGO
 62
     4
100
AcDbLine
 10
328.229334554088
 20
292.7620147126037
 30
0.0
 11
328.9418328726987
 21
292.7620147126037
 31
0.0
  0
SPLINE
  5
16CC
102
{ACAD_REACTORS
330
16C6
102
}
330
18
100
AcDbEntity
  8
ROGO
 62
     4
100
AcDbSpline
210
0.0
220
0.0
230
1.0
 70
     8
 71
     3
 72
    25
 73
    21
 74
     0
 42
0.0000000001
 43
0.0000000001
 40
0.0
 40
0.0
 40
0.0
 40
0.0
 40
0.4087168505087288
 40
0.6887487002771746
 40
0.9415836120477687
 40
1.17452070575514
 40
1.41154617586699
 40
1.599156012919487
 40
1.80099909059943
 40
2.178735911501585
 40
2.521686161369157
 40
2.762704659361267
 40
3.06256558063785
 40
3.222432137207705
 40
3.399493810628493
 40
3.567459719866414
 40
3.743172740007509
 40
3.995988754699505
 40
4.17170091132118
 40
4.337226830236035
 40
4.337226830236035
 40
4.337226830236035
 40
4.337226830236035
 10
328.9418328726987
 20
292.7620147126037
 30
0.0
 10
328.9885635336491
 20
292.7605133046639
 30
0.0
 10
329.0673116497409
 20
292.7579832089123
 30
0.0
 10
329.1518574673252
 20
292.6919007963525
 30
0.0
 10
329.2165494793108
 20
292.6371134132344
 30
0.0
 10
329.2624686724078
 20
292.5708780324858
 30
0.0
 10
329.3027181317275
 20
292.5099781281788
 30
0.0
 10
329.329239473834
 20
292.4456818415948
 30
0.0
 10
329.3653137389931
 20
292.3685321860765
 30
0.0
 10
329.3802467025969
 20
292.2653174089977
 30
0.0
 10
329.370157710075
 20
292.1586354135276
 30
0.0
 10
329.3438301502618
 20
292.0640716376126
 30
0.0
 10
329.316214656773
 20
291.9915245301088
 30
0.0
 10
329.2836665104613
 20
291.9283677723498
 30
0.0
 10
329.2448649608674
 20
291.8874737668016
 30
0.0
 10
329.2179460052634
 20
291.8354774374023
 30
0.0
 10
329.1662381349859
 20
291.7929472315229
 30
0.0
 10
329.1243209461373
 20
291.7404709267878
 30
0.0
 10
329.076753666495
 20
291.6954299564025
 30
0.0
 10
329.0499350233785
 20
291.6676402204632
 30
0.0
 10
329.0357955879798
 20
291.6559559114518
 30
0.0
  0
SPLINE
  5
16CD
102
{ACAD_REACTORS
330
16C6
102
}
330
18
100
AcDbEntity
  8
ROGO
 62
     4
100
AcDbSpline
210
0.0
220
0.0
230
1.0
 70
     8
 71
     3
 72
    38
 73
    34
 74
    32
 42
0.0000000001
 43
0.0000000001
 44
0.0000000001
 40
0.0
 40
0.0
 40
0.0
 40
0.0
 40
0.1716253587406623
 40
0.2255253290976248
 40
0.2947831262912113
 40
0.352498070257192
 40
0.401194707389018
 40
0.4658749546664991
 40
0.4989240118098149
 40
0.5361459251283493
 40
0.5910040209698863
 40
0.6531463397142244
 40
0.6934574532944029
 40
0.7372488460652118
 40
0.7859279681112547
 40
0.8598010024797554
 40
0.9299880888722469
 40
0.962617715058074
 40
0.99982743872465
 40
1.043908673224191
 40
1.075288847593852
 40
1.101594470956001
 40
1.139152958423429
 40
1.180423302418936
 40
1.221693416627877
 40
1.257804824007385
 40
1.340506365805091
 40
1.373135991990864
 40
1.438395283121515
 40
1.496081593396144
 40
1.606517709645446
 40
1.74278444224538
 40
1.93957343352095
 40
1.93957343352095
 40
1.93957343352095
 40
1.93957343352095
 10
328.229334554088
 20
292.7620147126037
 30
0.0
 10
328.1721266777748
 20
292.7579733794015
 30
0.0
 10
328.0969523257608
 20
292.7526628413369
 30
0.0
 10
328.0014984761632
 20
292.7265113324082
 30
0.0
 10
327.9494655672956
 20
292.6953564642238
 30
0.0
 10
327.8953149253315
 20
292.6724561427615
 30
0.0
 10
327.8491464597092
 20
292.6385453079116
 30
0.0
 10
327.8024480314221
 20
292.6210713814193
 30
0.0
 10
327.7697483624185
 20
292.5895627686514
 30
0.0
 10
327.731901162809
 20
292.5703159480367
 30
0.0
 10
327.7017627658017
 20
292.5272359680387
 30
0.0
 10
327.6680765860648
 20
292.4869577478247
 30
0.0
 10
327.6289963796957
 20
292.4575564434091
 30
0.0
 10
327.5969227298369
 20
292.426676471707
 30
0.0
 10
327.5674996158899
 20
292.3790193969947
 30
0.0
 10
327.5500857001848
 20
292.3156972566383
 30
0.0
 10
327.5009987947715
 20
292.2757179408571
 30
0.0
 10
327.4936078437111
 20
292.22765087433
 30
0.0
 10
327.4664563794229
 20
292.199292113929
 30
0.0
 10
327.4546499731457
 20
292.1626850283418
 30
0.0
 10
327.4501535253353
 20
292.1291464717803
 30
0.0
 10
327.4447567157845
 20
292.0978237816691
 30
0.0
 10
327.4306396840796
 20
292.0648736952899
 30
0.0
 10
327.435247531935
 20
292.0241716551166
 30
0.0
 10
327.4339348944183
 20
291.9847585186503
 30
0.0
 10
327.4347073831377
 20
291.9315495571244
 30
0.0
 10
327.4319193643657
 20
291.879744089741
 30
0.0
 10
327.4541527215053
 20
291.8233674538678
 30
0.0
 10
327.4673096844143
 20
291.7731154824398
 30
0.0
 10
327.5033421676096
 20
291.7035355342568
 30
0.0
 10
327.5654974460122
 20
291.6232553186615
 30
0.0
 10
327.6836909070638
 20
291.5258103473444
 30
0.0
 10
327.7973373755413
 20
291.5159250085996
 30
0.0
 10
327.8644864208525
 20
291.5100841666606
 30
0.0
 11
328.229334554088
 21
292.7620147126037
 31
0.0
 11
328.0589542480143
 21
292.7413794257126
 31
0.0
 11
328.0073238645263
 21
292.7259033052242
 31
0.0
 11
327.9453676477215
 21
292.6949506046742
 31
0.0
 11
327.8937372642335
 21
292.6691568407402
 31
0.0
 11
327.852433119697
 21
292.6433628470197
 31
0.0
 11
327.7956398195506
 21
292.6124103762563
 31
0.0
 11
327.7698244249893
 21
292.5917753191518
 31
0.0
 11
327.7388461137697
 21
292.5711400322607
 31
0.0
 11
327.7027048858916
 21
292.5298699180518
 31
0.0
 11
327.661400741355
 21
292.4834410970133
 31
0.0
 11
327.6304224301353
 21
292.4576471032929
 31
0.0
 11
327.5994445245502
 21
292.4266946325293
 31
0.0
 11
327.5736291299889
 21
292.3854245183204
 31
0.0
 11
327.5426512244039
 21
292.3183604103909
 31
0.0
 11
327.5013466742327
 21
292.261613945907
 31
0.0
 11
327.4910208409159
 21
292.230661245357
 31
0.0
 11
327.4703687686476
 21
292.1997087745934
 31
0.0
 11
327.4548796130377
 21
292.158438430598
 31
0.0
 11
327.4497162907448
 21
292.1274859598345
 31
0.0
 11
327.4445533740863
 21
292.1016919661141
 31
0.0
 11
327.4342275407694
 21
292.0655807885211
 31
0.0
 11
327.4342275407694
 21
292.0243104445256
 31
0.0
 11
327.4342275407694
 21
291.9830403303166
 31
0.0
 11
327.4342275407694
 21
291.9469289229371
 31
0.0
 11
327.4393904574279
 21
291.8643886945191
 31
0.0
 11
327.4497162907448
 21
291.8334359939692
 31
0.0
 11
327.4703687686476
 21
291.7715308226557
 31
0.0
 11
327.4961837575743
 21
291.7199430650013
 31
0.0
 11
327.563303296672
 21
291.6322441297538
 31
0.0
 11
327.6717269803065
 21
291.5497036715493
 31
0.0
 11
327.8644864208525
 21
291.5100841666606
 31
0.0
  0
HATCH
  5
16CE
330
18
100
AcDbEntity
  8
ROGO
 62
     4
100
AcDbHatch
 10
0.0
 20
0.0
 30
0.0
210
0.0
220
0.0
230
1.0
  2
SOLID
 70
     1
 71
     1
 91
        1
 92
        5
 93
        8
 72
     4
 94
        3
 73
     0
 74
     0
 95
       26
 96
       22
 40
0.0
 40
0.0
 40
0.0
 40
0.0
 40
0.2261711682465229
 40
0.3775752524709292
 40
0.4867499270747143
 40
0.568267124049349
 40
0.6739992068899219
 40
0.7511733198246508
 40
0.8905317800930927
 40
1.003967563249621
 40
1.081122071918995
 40
1.156776017963945
 40
1.292106219407766
 40
1.38780082415581
 40
1.439339762213746
 40
1.512549301287572
 40
1.565415552119695
 40
1.642001295672594
 40
1.68534220200602
 40
1.779656875742671
 40
1.822721775074878
 40
1.822721775074878
 40
1.822721775074878
 40
1.822721775074878
 10
330.3055410474014
 20
292.7568145132971
 10
330.2287750583608
 20
292.7522345227511
 10
330.100620183812
 20
292.744588583173
 10
329.9599069111597
 20
292.6591067811852
 10
329.8568121298083
 20
292.6094114179987
 10
329.7832850567771
 20
292.5418548055128
 10
329.7293894141885
 20
292.4720737597318
 10
329.6614438388673
 20
292.3889301553318
 10
329.60603616374
 20
292.2921127925051
 10
329.5778204032469
 20
292.1854031801943
 10
329.5528271503989
 20
292.1003550000337
 10
329.5342917356764
 20
292.0055799022586
 10
329.5390076699126
 20
291.9031894565256
 10
329.54576110357
 20
291.8080944523749
 10
329.5759135426313
 20
291.7402108570856
 10
329.6102518298052
 20
291.6918824150431
 10
329.6522985921892
 20
291.6386539940553
 10
329.6983069451092
 20
291.6034009831952
 10
329.7363596084367
 20
291.5395377850769
 10
329.8029695119102
 20
291.5313883804128
 10
329.845309416532
 20
291.5151686328589
 10
329.8585818681021
 20
291.5100841666606
 72
     1
 10
329.858581868102
 20
291.5100841666606
 11
330.93240712769
 21
291.5100841666606
 72
     1
 10
330.93240712769
 20
291.5100841666606
 11
331.1637025099062
 21
291.9739437754558
 72
     1
 10
331.1637025099062
 20
291.9739437754558
 11
330.3664898139917
 21
291.9739437754558
 72
     4
 94
        3
 73
     0
 74
     0
 95
       16
 96
       12
 40
0.0
 40
0.0
 40
0.0
 40
0.0
 40
0.0683030918787657
 40
0.1373106805328135
 40
0.1784706056910715
 40
0.2179345026856072
 40
0.261275236818835
 40
0.2915411730567379
 40
0.3202609197925513
 40
0.3785004428982377
 40
0.4977391777072823
 40
0.4977391777072823
 40
0.4977391777072823
 40
0.4977391777072823
 10
330.3664898139918
 20
291.9739437754557
 10
330.3424430696616
 20
291.9810186802263
 10
330.2941015563015
 20
291.9952414622707
 10
330.290055762
 20
292.0641882845932
 10
330.2955675714112
 20
292.1133185373971
 10
330.318651041536
 20
292.1490882304604
 10
330.3466552945721
 20
292.1751153885168
 10
330.3570825200004
 20
292.2090116923796
 10
330.3877323991281
 20
292.2346076425937
 10
330.4420828472881
 20
292.2776308593865
 10
330.502185034333
 20
292.286793843272
 10
330.5425646776015
 20
292.2929499923035
 72
     1
 10
330.5425646776014
 20
292.2929499923035
 11
331.3227693125681
 21
292.2929499923035
 72
     1
 10
331.3227693125681
 20
292.2929499923035
 11
331.5540671441648
 21
292.7568145132971
 72
     1
 10
331.5540671441648
 20
292.7568145132971
 11
330.3055410474014
 21
292.756814513297
 97
        8
330
16D7
330
16D5
330
16D8
330
16D4
330
16D3
330
16D6
330
16D2
330
16D1
 75
     0
 76
     1
 47
0.0514683685270805
 98
        1
 10
330.5209817342484
 20
292.5285339463296
450
        0
451
        0
460
0.0
461
0.0
452
        0
462
0.0
453
        0
470

  0
LINE
  5
16CF
102
{ACAD_REACTORS
330
1698
102
}
330
18
100
AcDbEntity
  8
ROGO
 62
     4
100
AcDbLine
 10
331.8151842989022
 20
291.3171895645779
 30
0.0
 11
331.5616414910195
 21
290.8087130591219
 31
0.0
  0
LINE
  5
16D0
102
{ACAD_REACTORS
330
1698
102
}
330
18
100
AcDbEntity
  8
ROGO
 62
     4
100
AcDbLine
 10
331.8151842989022
 20
292.7568145132971
 30
0.0
 11
330.8437979960306
 21
290.8087130591219
 31
0.0
  0
LINE
  5
16D1
102
{ACAD_REACTORS
330
16CE
102
}
330
18
100
AcDbEntity
  8
ROGO
 62
     4
100
AcDbLine
 10
331.5540671441649
 20
292.7568145132971
 30
0.0
 11
331.3227693125682
 21
292.2929499923035
 31
0.0
  0
LINE
  5
16D2
102
{ACAD_REACTORS
330
16CE
102
}
330
18
100
AcDbEntity
  8
ROGO
 62
     4
100
AcDbLine
 10
330.5425646776015
 20
292.2929499923035
 30
0.0
 11
331.3227693125682
 21
292.2929499923035
 31
0.0
  0
LINE
  5
16D3
102
{ACAD_REACTORS
330
16CE
102
}
330
18
100
AcDbEntity
  8
ROGO
 62
     4
100
AcDbLine
 10
330.3664898139918
 20
291.9739437754558
 30
0.0
 11
331.1637025099062
 21
291.9739437754558
 31
0.0
  0
LINE
  5
16D4
102
{ACAD_REACTORS
330
16CE
102
}
330
18
100
AcDbEntity
  8
ROGO
 62
     4
100
AcDbLine
 10
331.1637025099062
 20
291.9739437754558
 30
0.0
 11
330.9324071276901
 21
291.5100841666606
 31
0.0
  0
SPLINE
  5
16D5
102
{ACAD_REACTORS
330
16CE
102
}
330
18
100
AcDbEntity
  8
ROGO
 62
     4
100
AcDbSpline
210
0.0
220
0.0
230
1.0
 70
     8
 71
     3
 72
    26
 73
    22
 74
    20
 42
0.0000000001
 43
0.0000000001
 44
0.0000000001
 40
0.0
 40
0.0
 40
0.0
 40
0.0
 40
0.2261711682465229
 40
0.3775752524709292
 40
0.4867499270747143
 40
0.568267124049349
 40
0.6739992068899219
 40
0.7511733198246508
 40
0.8905317800930927
 40
1.003967563249621
 40
1.081122071918995
 40
1.156776017963945
 40
1.292106219407766
 40
1.38780082415581
 40
1.439339762213746
 40
1.512549301287572
 40
1.565415552119695
 40
1.642001295672594
 40
1.68534220200602
 40
1.779656875742671
 40
1.822721775074878
 40
1.822721775074878
 40
1.822721775074878
 40
1.822721775074878
 10
330.3055410474014
 20
292.7568145132971
 30
0.0
 10
330.2287750583608
 20
292.7522345227511
 30
0.0
 10
330.100620183812
 20
292.744588583173
 30
0.0
 10
329.9599069111597
 20
292.6591067811852
 30
0.0
 10
329.8568121298083
 20
292.6094114179987
 30
0.0
 10
329.7832850567771
 20
292.5418548055128
 30
0.0
 10
329.7293894141885
 20
292.4720737597318
 30
0.0
 10
329.6614438388673
 20
292.3889301553318
 30
0.0
 10
329.60603616374
 20
292.2921127925051
 30
0.0
 10
329.5778204032469
 20
292.1854031801943
 30
0.0
 10
329.5528271503989
 20
292.1003550000337
 30
0.0
 10
329.5342917356764
 20
292.0055799022586
 30
0.0
 10
329.5390076699126
 20
291.9031894565256
 30
0.0
 10
329.54576110357
 20
291.8080944523749
 30
0.0
 10
329.5759135426313
 20
291.7402108570856
 30
0.0
 10
329.6102518298052
 20
291.6918824150431
 30
0.0
 10
329.6522985921892
 20
291.6386539940553
 30
0.0
 10
329.6983069451092
 20
291.6034009831952
 30
0.0
 10
329.7363596084367
 20
291.5395377850769
 30
0.0
 10
329.8029695119102
 20
291.5313883804128
 30
0.0
 10
329.845309416532
 20
291.5151686328589
 30
0.0
 10
329.8585818681021
 20
291.5100841666606
 30
0.0
 11
330.3055410474014
 21
292.7568145132971
 31
0.0
 11
330.0820614577518
 21
292.7220255731579
 31
0.0
 11
329.9466191052023
 21
292.654360472436
 31
0.0
 11
329.8518096531223
 21
292.6002284359776
 31
0.0
 11
329.790860886532
 21
292.546096178924
 31
0.0
 11
329.7231399049619
 21
292.4648980139386
 31
0.0
 11
329.6757351789218
 21
292.4039994453485
 31
0.0
 11
329.6080138079426
 21
292.2822020875731
 31
0.0
 11
329.574153511862
 21
292.173937794061
 31
0.0
 11
329.553837256332
 21
292.0995061612074
 31
0.0
 11
329.5402928263724
 21
292.0250745283539
 31
0.0
 11
329.5402928263724
 21
291.88974432691
 31
0.0
 11
329.553837256332
 21
291.7950130976614
 31
0.0
 11
329.574153511862
 21
291.7476473727395
 31
0.0
 11
329.6147860229222
 21
291.6867488041493
 31
0.0
 11
329.648646708412
 21
291.6461496113591
 31
0.0
 11
329.7028232600225
 21
291.5920175749006
 31
0.0
 11
329.7299117305325
 21
291.5581849142421
 31
0.0
 11
329.8179493570419
 21
291.5243524741787
 31
0.0
 11
329.8585818681021
 21
291.5100841666606
 31
0.0
  0
SPLINE
  5
16D6
102
{ACAD_REACTORS
330
16CE
102
}
330
18
100
AcDbEntity
  8
ROGO
 62
     4
100
AcDbSpline
210
0.0
220
0.0
230
1.0
 70
     8
 71
     3
 72
    16
 73
    12
 74
    10
 42
0.0000000001
 43
0.0000000001
 44
0.0000000001
 40
0.0
 40
0.0
 40
0.0
 40
0.0
 40
0.1192387348090446
 40
0.177478257914731
 40
0.2061980046505444
 40
0.2364639408884473
 40
0.2798046750216751
 40
0.3192685720162108
 40
0.3604284971744688
 40
0.4294360858285167
 40
0.4977391777072823
 40
0.4977391777072823
 40
0.4977391777072823
 40
0.4977391777072823
 10
330.5425646776015
 20
292.2929499923035
 30
0.0
 10
330.502185034333
 20
292.286793843272
 30
0.0
 10
330.4420828472881
 20
292.2776308593865
 30
0.0
 10
330.3877323991281
 20
292.2346076425937
 30
0.0
 10
330.3570825200004
 20
292.2090116923796
 30
0.0
 10
330.3466552945721
 20
292.1751153885168
 30
0.0
 10
330.318651041536
 20
292.1490882304604
 30
0.0
 10
330.2955675714112
 20
292.1133185373971
 30
0.0
 10
330.290055762
 20
292.0641882845932
 30
0.0
 10
330.2941015563015
 20
291.9952414622707
 30
0.0
 10
330.3424430696616
 20
291.9810186802263
 30
0.0
 10
330.3664898139918
 20
291.9739437754557
 30
0.0
 11
330.5425646776015
 21
292.2929499923035
 31
0.0
 11
330.4274389699913
 21
292.261902491178
 31
0.0
 11
330.3800342439513
 21
292.2280700511145
 31
0.0
 11
330.3597179884212
 21
292.2077704547194
 31
0.0
 11
330.3461735584617
 21
292.1807043261927
 31
0.0
 11
330.3190850879518
 21
292.1468718861293
 31
0.0
 11
330.2987688324217
 21
292.1130392254708
 31
0.0
 11
330.291996617442
 21
292.0724402532757
 31
0.0
 11
330.3055410474014
 21
292.0047749319587
 31
0.0
 11
330.3664898139918
 21
291.9739437754557
 31
0.0
  0
LINE
  5
16D7
102
{ACAD_REACTORS
330
16CE
102
}
330
18
100
AcDbEntity
  8
ROGO
 62
     4
100
AcDbLine
 10
330.3055410474017
 20
292.7568145132971
 30
0.0
 11
331.5540671441649
 21
292.7568145132971
 31
0.0
  0
LINE
  5
16D8
102
{ACAD_REACTORS
330
16CE
102
}
330
18
100
AcDbEntity
  8
ROGO
 62
     4
100
AcDbLine
 10
329.8585818681021
 20
291.5100841666606
 30
0.0
 11
330.9324071276902
 21
291.5100841666606
 31
0.0
  0
LINE
  5
16D9
102
{ACAD_REACTORS
330
16A8
102
}
330
18
100
AcDbEntity
  8
ROGO
 62
     4
100
AcDbLine
 10
326.2884649734666
 20
292.7568145132972
 30
0.0
 11
327.5369910702297
 21
292.7568145132972
 31
0.0
  0
LINE
  5
16DA
102
{ACAD_REACTORS
330
16A8
102
}
330
18
100
AcDbEntity
  8
ROGO
 62
     4
100
AcDbLine
 10
327.1466264359709
 20
291.9739437754558
 30
0.0
 11
326.9153310537549
 21
291.5100841666606
 31
0.0
  0
SPLINE
  5
16DB
102
{ACAD_REACTORS
330
16A8
102
}
330
18
100
AcDbEntity
  8
ROGO
 62
     4
100
AcDbSpline
210
0.0
220
0.0
230
1.0
 70
     8
 71
     3
 72
    16
 73
    12
 74
    10
 42
0.0000000001
 43
0.0000000001
 44
0.0000000001
 40
0.0
 40
0.0
 40
0.0
 40
0.0
 40
0.1192387348090995
 40
0.1774782579147198
 40
0.2061980046505734
 40
0.2364639408884763
 40
0.2798046750216953
 40
0.3192685720162602
 40
0.3604284971745742
 40
0.4294360858286333
 40
0.4977391777073984
 40
0.4977391777073984
 40
0.4977391777073984
 40
0.4977391777073984
 10
326.5254886036662
 20
292.2929499923035
 30
0.0
 10
326.4851089603979
 20
292.2867938432719
 30
0.0
 10
326.425006773353
 20
292.2776308593864
 30
0.0
 10
326.3706563251927
 20
292.2346076425938
 30
0.0
 10
326.3400064460654
 20
292.2090116923797
 30
0.0
 10
326.3295792206369
 20
292.1751153885168
 30
0.0
 10
326.3015749676008
 20
292.1490882304605
 30
0.0
 10
326.2784914974758
 20
292.1133185373972
 30
0.0
 10
326.2729796880646
 20
292.0641882845932
 30
0.0
 10
326.2770254823663
 20
291.9952414622708
 30
0.0
 10
326.3253669957263
 20
291.9810186802264
 30
0.0
 10
326.3494137400566
 20
291.9739437754558
 30
0.0
 11
326.5254886036662
 21
292.2929499923035
 31
0.0
 11
326.4103628960561
 21
292.261902491178
 31
0.0
 11
326.3629581700161
 21
292.2280700511146
 31
0.0
 11
326.342641914486
 21
292.2077704547194
 31
0.0
 11
326.3290974845265
 21
292.1807043261927
 31
0.0
 11
326.3020090140166
 21
292.1468718861293
 31
0.0
 11
326.2816927584864
 21
292.1130392254708
 31
0.0
 11
326.2749205435067
 21
292.0724402532757
 31
0.0
 11
326.2884649734662
 21
292.0047749319587
 31
0.0
 11
326.3494137400566
 21
291.9739437754558
 31
0.0
  0
LINE
  5
16DC
102
{ACAD_REACTORS
330
16A8
102
}
330
18
100
AcDbEntity
  8
ROGO
 62
     4
100
AcDbLine
 10
326.3494137400566
 20
291.9739437754558
 30
0.0
 11
327.1466264359709
 21
291.9739437754558
 31
0.0
  0
LINE
  5
16DD
102
{ACAD_REACTORS
330
16A8
102
}
330
18
100
AcDbEntity
  8
ROGO
 62
     4
100
AcDbLine
 10
326.5254886036662
 20
292.2929499923035
 30
0.0
 11
327.3056932386328
 21
292.2929499923035
 31
0.0
  0
LINE
  5
16DE
102
{ACAD_REACTORS
330
16A8
102
}
330
18
100
AcDbEntity
  8
ROGO
 62
     4
100
AcDbLine
 10
327.5369910702297
 20
292.7568145132971
 30
0.0
 11
327.3056932386328
 21
292.2929499923035
 31
0.0
  0
LINE
  5
16DF
102
{ACAD_REACTORS
330
1698
102
}
330
18
100
AcDbEntity
  8
ROGO
 62
     4
100
AcDbLine
 10
332.068727106785
 20
290.8087130591219
 30
0.0
 11
332.7865548959356
 21
290.8087130591219
 31
0.0
  0
LINE
  5
16E0
102
{ACAD_REACTORS
330
1698
102
}
330
18
100
AcDbEntity
  8
ROGO
 62
     4
100
AcDbLine
 10
332.7630804337271
 20
292.7568145132971
 30
0.0
 11
333.4809082228777
 21
292.7568145132971
 31
0.0
  0
LINE
  5
16E1
102
{ACAD_REACTORS
330
1698
102
}
330
18
100
AcDbEntity
  8
ROGO
 62
     4
100
AcDbLine
 10
332.3008617444998
 20
291.7827637862096
 30
0.0
 11
333.4809082228777
 21
292.7568145132971
 31
0.0
  0
LINE
  5
16E2
102
{ACAD_REACTORS
330
1698
102
}
330
18
100
AcDbEntity
  8
ROGO
 62
     4
100
AcDbLine
 10
332.3008617444998
 20
291.7827637862096
 30
0.0
 11
332.7865548959356
 21
290.8087130591219
 31
0.0
  0
LINE
  5
16E3
102
{ACAD_REACTORS
330
1698
102
}
330
18
100
AcDbEntity
  8
ROGO
 62
     4
100
AcDbLine
 10
332.4269721767404
 20
292.5441214771855
 30
0.0
 11
332.7630804337271
 21
292.7568145132971
 31
0.0
  0
LINE
  5
16E4
102
{ACAD_REACTORS
330
1698
102
}
330
18
100
AcDbEntity
  8
ROGO
 62
     4
100
AcDbLine
 10
332.5330277938912
 20
292.7568145132971
 30
0.0
 11
332.4269721767404
 21
292.5441214771855
 31
0.0
  0
TEXT
  5
16E5
330
18
100
AcDbEntity
  8
文字
100
AcDbText
 10
331.2940241345985
 20
280.6327615463875
 30
0.0
 40
1.0
  1
0.001mm
  7
STYLE3
100
AcDbText
  0
LINE
  5
16E6
330
18
100
AcDbEntity
  8
外形線
100
AcDbLine
 10
322.1749334699483
 20
276.0177942849059
 30
0.0
 11
322.1749334699483
 21
276.5177942849059
 31
0.0
  0
ARC
  5
16E7
330
18
100
AcDbEntity
  8
外形線
100
AcDbCircle
 10
322.1749334699483
 20
271.7677942849059
 30
0.0
 40
4.75
100
AcDbArc
 50
0.0
 51
180.0
  0
POINT
  5
16E8
330
18
100
AcDbEntity
  8
DEFPOINTS
  6
ByBlock
 62
     0
100
AcDbPoint
 10
320.7071027466673
 20
276.2853127373079
 30
0.0
  0
LINE
  5
16E9
330
18
100
AcDbEntity
  8
外形線
100
AcDbLine
 10
320.8616112438547
 20
275.8097844791603
 30
0.0
 11
320.7071027466673
 21
276.2853127373079
 31
0.0
  0
LINE
  5
16EA
330
18
100
AcDbEntity
  8
外形線
100
AcDbLine
 10
319.6768461477053
 20
275.2061165109994
 30
0.0
 11
319.382953521559
 21
275.6106250081868
 31
0.0
  0
LINE
  5
16EB
330
18
100
AcDbEntity
  8
外形線
100
AcDbLine
 10
318.7366112438547
 20
274.2658816071489
 30
0.0
 11
318.3321027466673
 21
274.5597742332951
 31
0.0
  0
LINE
  5
16EC
330
18
100
AcDbEntity
  8
外形線
100
AcDbLine
 10
318.1329432756939
 20
273.0811165109994
 30
0.0
 11
317.6574150175463
 21
273.2356250081868
 31
0.0
  0
LINE
  5
16ED
330
18
100
AcDbEntity
  8
外形線
100
AcDbLine
 10
317.9249334699483
 20
271.7677942849059
 30
0.0
 11
317.4249334699482
 21
271.7677942849059
 31
0.0
  0
LINE
  5
16EE
330
18
100
AcDbEntity
  8
外形線
100
AcDbLine
 10
326.4249334699483
 20
271.7677942849059
 30
0.0
 11
326.9249334699483
 21
271.7677942849059
 31
0.0
  0
LINE
  5
16EF
330
18
100
AcDbEntity
  8
外形線
100
AcDbLine
 10
326.2169236642027
 20
273.0811165109994
 30
0.0
 11
326.6924519223502
 21
273.2356250081868
 31
0.0
  0
LINE
  5
16F0
330
18
100
AcDbEntity
  8
外形線
100
AcDbLine
 10
325.6132556960418
 20
274.2658816071489
 30
0.0
 11
326.0177641932293
 21
274.5597742332951
 31
0.0
  0
LINE
  5
16F1
330
18
100
AcDbEntity
  8
外形線
100
AcDbLine
 10
324.6730207921913
 20
275.2061165109994
 30
0.0
 11
324.9669134183375
 21
275.6106250081868
 31
0.0
  0
LINE
  5
16F2
330
18
100
AcDbEntity
  8
外形線
100
AcDbLine
 10
323.4882556960418
 20
275.8097844791603
 30
0.0
 11
323.6427641932293
 21
276.2853127373079
 31
0.0
  0
POINT
  5
16F3
330
18
100
AcDbEntity
  8
DEFPOINTS
  6
ByBlock
 62
     0
100
AcDbPoint
 10
323.6427641932293
 20
276.2853127373079
 30
0.0
  0
TEXT
  5
16F4
330
18
100
AcDbEntity
  8
文字
100
AcDbText
 10
325.2179100710146
 20
271.0875682654662
 30
0.0
 40
1.0
  1
0
  7
STYLE3
100
AcDbText
  0
TEXT
  5
16F5
330
18
100
AcDbEntity
  8
文字
100
AcDbText
 10
324.0255993795472
 20
273.2042445387103
 30
0.0
 40
1.0
  1
.2
  7
STYLE3
100
AcDbText
  0
TEXT
  5
16F6
330
18
100
AcDbEntity
  8
文字
100
AcDbText
 10
322.4763734841968
 20
274.4418768050509
 30
0.0
 40
1.0
  1
.4
  7
STYLE3
100
AcDbText
  0
TEXT
  5
16F7
330
18
100
AcDbEntity
  8
文字
100
AcDbText
 10
320.6084172475593
 20
274.4664423257814
 30
0.0
 40
1.0
  1
.6
  7
STYLE3
100
AcDbText
  0
TEXT
  5
16F8
330
18
100
AcDbEntity
  8
文字
100
AcDbText
 10
317.9412245608717
 20
271.3115686331109
 30
0.0
 40
1.0
  1
1.0
  7
STYLE3
100
AcDbText
  0
TEXT
  5
16F9
330
18
100
AcDbEntity
  8
文字
100
AcDbText
 10
318.9562009515864
 20
273.4144252041177
 30
0.0
 40
1.0
  1
.8
  7
STYLE3
100
AcDbText
  0
HATCH
  5
16FA
330
18
100
AcDbEntity
  8
外形線
100
AcDbHatch
 10
0.0
 20
0.0
 30
0.0
210
0.0
220
0.0
230
1.0
  2
SOLID
 70
     1
 71
     1
 91
        2
 92
        1
 93
        7
 72
     1
 10
334.3803890740826
 20
283.1190517808
 11
333.2137224074159
 21
282.6944198408228
 72
     1
 10
333.2137224074159
 20
282.6944198408228
 11
333.213722407416
 21
283.0294684474667
 72
     1
 10
333.213722407416
 20
283.0294684474667
 11
332.2137224074159
 21
283.0294684474667
 72
     1
 10
332.2137224074159
 20
283.0294684474667
 11
332.2137224074159
 21
283.2086351141333
 72
     1
 10
332.2137224074159
 20
283.2086351141333
 11
333.2137224074159
 21
283.2086351141333
 72
     1
 10
333.2137224074159
 20
283.2086351141333
 11
333.2137224074159
 21
283.5436837207772
 72
     1
 10
333.2137224074159
 20
283.5436837207772
 11
334.3803890740826
 21
283.1190517808
 97
        7
330
16FF
330
1702
330
1703
330
16FE
330
170C
330
170B
330
16FD
 92
        1
 93
        4
 72
     1
 10
334.3803890740826
 20
283.8690517808
 11
334.3803890740826
 21
282.3690517808
 72
     1
 10
334.3803890740826
 20
282.3690517808
 11
334.5470557407493
 21
282.3690517808
 72
     1
 10
334.5470557407493
 20
282.3690517808
 11
334.5470557407493
 21
283.8690517808
 72
     1
 10
334.5470557407493
 20
283.8690517808
 11
334.3803890740826
 21
283.8690517808
 97
        4
330
16FC
330
1704
330
16FB
330
170D
 75
     0
 76
     1
 98
        1
 10
426.7099457805628
 20
214.456900973619
450
        0
451
        0
460
0.0
461
0.0
452
        0
462
0.0
453
        0
470

  0
LINE
  5
16FB
102
{ACAD_REACTORS
330
16FA
102
}
330
18
100
AcDbEntity
  8
外形線
100
AcDbLine
 10
334.5470557407493
 20
283.8690517808
 30
0.0
 11
334.5470557407493
 21
282.3690517808
 31
0.0
  0
LINE
  5
16FC
102
{ACAD_REACTORS
330
16FA
102
}
330
18
100
AcDbEntity
  8
外形線
100
AcDbLine
 10
334.3803890740826
 20
283.8690517808
 30
0.0
 11
334.3803890740826
 21
282.3690517808
 31
0.0
  0
LINE
  5
16FD
102
{ACAD_REACTORS
330
16FA
102
}
330
18
100
AcDbEntity
  8
外形線
100
AcDbLine
 10
334.3803890740826
 20
283.1190517808
 30
0.0
 11
333.2137224074159
 21
283.5436837207772
 31
0.0
  0
LINE
  5
16FE
102
{ACAD_REACTORS
330
16FA
102
}
330
18
100
AcDbEntity
  8
外形線
100
AcDbLine
 10
332.2137224074159
 20
283.2086351141333
 30
0.0
 11
332.2137224074159
 21
283.0294684474667
 31
0.0
  0
LINE
  5
16FF
102
{ACAD_REACTORS
330
16FA
102
}
330
18
100
AcDbEntity
  8
外形線
100
AcDbLine
 10
334.3803890740826
 20
283.1190517808
 30
0.0
 11
333.2137224074159
 21
282.6944198408228
 31
0.0
  0
POINT
  5
1700
330
18
100
AcDbEntity
  8
DEFPOINTS
  6
ByBlock
 62
     0
100
AcDbPoint
 10
333.2137224074159
 20
282.6944198408228
 30
0.0
  0
POINT
  5
1701
330
18
100
AcDbEntity
  8
DEFPOINTS
  6
ByBlock
 62
     0
100
AcDbPoint
 10
333.2137224074159
 20
282.6944198408228
 30
0.0
  0
LINE
  5
1702
102
{ACAD_REACTORS
330
16FA
102
}
330
18
100
AcDbEntity
  8
外形線
100
AcDbLine
 10
333.213722407416
 20
283.0294684474667
 30
0.0
 11
333.2137224074159
 21
282.6944198408228
 31
0.0
  0
LINE
  5
1703
102
{ACAD_REACTORS
330
16FA
102
}
330
18
100
AcDbEntity
  8
外形線
100
AcDbLine
 10
332.2137224074159
 20
283.0294684474667
 30
0.0
 11
333.213722407416
 21
283.0294684474667
 31
0.0
  0
LINE
  5
1704
102
{ACAD_REACTORS
330
16FA
102
}
330
18
100
AcDbEntity
  8
外形線
100
AcDbLine
 10
334.5470557407493
 20
282.3690517808
 30
0.0
 11
334.3803890740826
 21
282.3690517808
 31
0.0
  0
POINT
  5
1705
330
18
100
AcDbEntity
  8
DEFPOINTS
  6
ByBlock
 62
     0
100
AcDbPoint
 10
334.3803890740826
 20
282.3690517808
 30
0.0
  0
POINT
  5
1706
330
18
100
AcDbEntity
  8
DEFPOINTS
  6
ByBlock
 62
     0
100
AcDbPoint
 10
334.5470557407493
 20
282.3690517808
 30
0.0
  0
POINT
  5
1707
330
18
100
AcDbEntity
  8
DEFPOINTS
  6
ByBlock
 62
     0
100
AcDbPoint
 10
334.3803890740826
 20
282.3690517808
 30
0.0
  0
POINT
  5
1708
330
18
100
AcDbEntity
  8
DEFPOINTS
  6
ByBlock
 62
     0
100
AcDbPoint
 10
334.5470557407493
 20
282.3690517808
 30
0.0
  0
POINT
  5
1709
330
18
100
AcDbEntity
  8
DEFPOINTS
  6
ByBlock
 62
     0
100
AcDbPoint
 10
333.2137224074159
 20
283.5436837207772
 30
0.0
  0
POINT
  5
170A
330
18
100
AcDbEntity
  8
DEFPOINTS
  6
ByBlock
 62
     0
100
AcDbPoint
 10
333.2137224074159
 20
283.5436837207772
 30
0.0
  0
LINE
  5
170B
102
{ACAD_REACTORS
330
16FA
102
}
330
18
100
AcDbEntity
  8
外形線
100
AcDbLine
 10
333.2137224074159
 20
283.5436837207772
 30
0.0
 11
333.2137224074159
 21
283.2086351141333
 31
0.0
  0
LINE
  5
170C
102
{ACAD_REACTORS
330
16FA
102
}
330
18
100
AcDbEntity
  8
外形線
100
AcDbLine
 10
332.2137224074159
 20
283.2086351141333
 30
0.0
 11
333.2137224074159
 21
283.2086351141333
 31
0.0
  0
LINE
  5
170D
102
{ACAD_REACTORS
330
16FA
102
}
330
18
100
AcDbEntity
  8
外形線
100
AcDbLine
 10
334.5470557407493
 20
283.8690517808
 30
0.0
 11
334.3803890740826
 21
283.8690517808
 31
0.0
  0
HATCH
  5
170E
330
18
100
AcDbEntity
  8
外形線
100
AcDbHatch
 10
0.0
 20
0.0
 30
0.0
210
0.0
220
0.0
230
1.0
  2
SOLID
 70
     1
 71
     1
 91
        2
 92
        1
 93
        7
 72
     1
 10
335.5470557407493
 20
283.1190517808
 11
336.7137224074159
 21
282.6944198408228
 72
     1
 10
336.7137224074159
 20
282.6944198408228
 11
336.7137224074159
 21
283.0294684474667
 72
     1
 10
336.7137224074159
 20
283.0294684474667
 11
337.7137224074159
 21
283.0294684474667
 72
     1
 10
337.7137224074159
 20
283.0294684474667
 11
337.7137224074159
 21
283.2086351141333
 72
     1
 10
337.7137224074159
 20
283.2086351141333
 11
336.7137224074159
 21
283.2086351141333
 72
     1
 10
336.7137224074159
 20
283.2086351141333
 11
336.7137224074159
 21
283.5436837207772
 72
     1
 10
336.7137224074159
 20
283.5436837207772
 11
335.5470557407493
 21
283.1190517808
 97
        7
330
171B
330
1714
330
1713
330
170F
330
171D
330
171E
330
1710
 92
        1
 93
        4
 72
     1
 10
335.5470557407493
 20
283.8690517808
 11
335.5470557407493
 21
282.3690517808
 72
     1
 10
335.5470557407493
 20
282.3690517808
 11
335.3803890740825
 21
282.3690517808
 72
     1
 10
335.3803890740825
 20
282.3690517808
 11
335.3803890740825
 21
283.8690517808
 72
     1
 10
335.3803890740825
 20
283.8690517808
 11
335.5470557407493
 21
283.8690517808
 97
        4
330
1711
330
171C
330
1712
330
1721
 75
     0
 76
     1
 98
        1
 10
243.2174990342689
 20
214.456900973619
450
        0
451
        0
460
0.0
461
0.0
452
        0
462
0.0
453
        0
470

  0
LINE
  5
170F
102
{ACAD_REACTORS
330
170E
102
}
330
18
100
AcDbEntity
  8
外形線
100
AcDbLine
 10
337.7137224074159
 20
283.2086351141333
 30
0.0
 11
337.7137224074159
 21
283.0294684474667
 31
0.0
  0
LINE
  5
1710
102
{ACAD_REACTORS
330
170E
102
}
330
18
100
AcDbEntity
  8
外形線
100
AcDbLine
 10
335.5470557407493
 20
283.1190517808
 30
0.0
 11
336.7137224074159
 21
283.5436837207772
 31
0.0
  0
LINE
  5
1711
102
{ACAD_REACTORS
330
170E
102
}
330
18
100
AcDbEntity
  8
外形線
100
AcDbLine
 10
335.5470557407493
 20
283.8690517808
 30
0.0
 11
335.5470557407493
 21
282.3690517808
 31
0.0
  0
LINE
  5
1712
102
{ACAD_REACTORS
330
170E
102
}
330
18
100
AcDbEntity
  8
外形線
100
AcDbLine
 10
335.3803890740825
 20
283.8690517808
 30
0.0
 11
335.3803890740825
 21
282.3690517808
 31
0.0
  0
LINE
  5
1713
102
{ACAD_REACTORS
330
170E
102
}
330
18
100
AcDbEntity
  8
外形線
100
AcDbLine
 10
337.7137224074159
 20
283.0294684474667
 30
0.0
 11
336.7137224074159
 21
283.0294684474667
 31
0.0
  0
LINE
  5
1714
102
{ACAD_REACTORS
330
170E
102
}
330
18
100
AcDbEntity
  8
外形線
100
AcDbLine
 10
336.7137224074159
 20
283.0294684474667
 30
0.0
 11
336.7137224074159
 21
282.6944198408228
 31
0.0
  0
POINT
  5
1715
330
18
100
AcDbEntity
  8
DEFPOINTS
  6
ByBlock
 62
     0
100
AcDbPoint
 10
335.3803890740825
 20
282.3690517808
 30
0.0
  0
POINT
  5
1716
330
18
100
AcDbEntity
  8
DEFPOINTS
  6
ByBlock
 62
     0
100
AcDbPoint
 10
335.5470557407493
 20
282.3690517808
 30
0.0
  0
POINT
  5
1717
330
18
100
AcDbEntity
  8
DEFPOINTS
  6
ByBlock
 62
     0
100
AcDbPoint
 10
335.3803890740825
 20
282.3690517808
 30
0.0
  0
POINT
  5
1718
330
18
100
AcDbEntity
  8
DEFPOINTS
  6
ByBlock
 62
     0
100
AcDbPoint
 10
336.7137224074159
 20
282.6944198408228
 30
0.0
  0
POINT
  5
1719
330
18
100
AcDbEntity
  8
DEFPOINTS
  6
ByBlock
 62
     0
100
AcDbPoint
 10
335.5470557407493
 20
282.3690517808
 30
0.0
  0
POINT
  5
171A
330
18
100
AcDbEntity
  8
DEFPOINTS
  6
ByBlock
 62
     0
100
AcDbPoint
 10
336.7137224074159
 20
282.6944198408228
 30
0.0
  0
LINE
  5
171B
102
{ACAD_REACTORS
330
170E
102
}
330
18
100
AcDbEntity
  8
外形線
100
AcDbLine
 10
335.5470557407493
 20
283.1190517808
 30
0.0
 11
336.7137224074159
 21
282.6944198408228
 31
0.0
  0
LINE
  5
171C
102
{ACAD_REACTORS
330
170E
102
}
330
18
100
AcDbEntity
  8
外形線
100
AcDbLine
 10
335.3803890740825
 20
282.3690517808
 30
0.0
 11
335.5470557407493
 21
282.3690517808
 31
0.0
  0
LINE
  5
171D
102
{ACAD_REACTORS
330
170E
102
}
330
18
100
AcDbEntity
  8
外形線
100
AcDbLine
 10
337.7137224074159
 20
283.2086351141333
 30
0.0
 11
336.7137224074159
 21
283.2086351141333
 31
0.0
  0
LINE
  5
171E
102
{ACAD_REACTORS
330
170E
102
}
330
18
100
AcDbEntity
  8
外形線
100
AcDbLine
 10
336.7137224074159
 20
283.5436837207772
 30
0.0
 11
336.7137224074159
 21
283.2086351141333
 31
0.0
  0
POINT
  5
171F
330
18
100
AcDbEntity
  8
DEFPOINTS
  6
ByBlock
 62
     0
100
AcDbPoint
 10
336.7137224074159
 20
283.5436837207772
 30
0.0
  0
POINT
  5
1720
330
18
100
AcDbEntity
  8
DEFPOINTS
  6
ByBlock
 62
     0
100
AcDbPoint
 10
336.7137224074159
 20
283.5436837207772
 30
0.0
  0
LINE
  5
1721
102
{ACAD_REACTORS
330
170E
102
}
330
18
100
AcDbEntity
  8
外形線
100
AcDbLine
 10
335.3803890740825
 20
283.8690517808
 30
0.0
 11
335.5470557407493
 21
283.8690517808
 31
0.0
  0
POINT
  5
1722
330
18
100
AcDbEntity
  8
DEFPOINTS
  6
ByBlock
 62
     0
100
AcDbPoint
 10
325.8749334699483
 20
262.1690517808
 30
0.0
  0
TEXT
  5
1723
330
18
100
AcDbEntity
  8
文字
100
AcDbText
 10
329.8586040668022
 20
266.1661291797431
 30
0.0
 40
1.0
  1
K
 50
16.11080334047189
  7
STYLE3
100
AcDbText
  0
TEXT
  5
1724
330
18
100
AcDbEntity
  8
文字
100
AcDbText
 10
332.2501794853758
 20
266.9750761002325
 30
0.0
 40
1.0
  1
R
 50
26.06198672177309
  7
STYLE3
100
AcDbText
  0
TEXT
  5
1725
330
18
100
AcDbEntity
  8
文字
100
AcDbText
 10
331.3932968061177
 20
266.6121493257853
 30
0.0
 40
1.0
  1
P
 50
23.24053280085741
  7
STYLE3
100
AcDbText
  0
TEXT
  5
1726
330
18
100
AcDbEntity
  8
文字
100
AcDbText
 10
333.1744813850422
 20
267.4261560331117
 30
0.0
 40
1.0
  1
O
 50
27.73777743938884
  7
STYLE3
100
AcDbText
  0
TEXT
  5
1727
330
18
100
AcDbEntity
  8
文字
100
AcDbText
 10
326.7776351250846
 20
265.7107894630843
 30
0.0
 40
1.0
  1
H
 50
3.041391095489256
  7
STYLE3
100
AcDbText
  0
TEXT
  5
1728
330
18
100
AcDbEntity
  8
文字
100
AcDbText
 10
327.7390855026023
 20
265.8463311288058
 30
0.0
 40
1.0
  1
O
 50
1.760930144340787
  7
STYLE3
100
AcDbText
  0
TEXT
  5
1729
330
18
100
AcDbEntity
  8
文字
100
AcDbText
 10
328.7613481758953
 20
266.0089379526805
 30
0.0
 40
1.0
  1
C
 50
5.687207778684769
  7
STYLE3
100
AcDbText
  0
TEXT
  5
172A
330
18
100
AcDbEntity
  8
文字
100
AcDbText
 10
325.8848565137316
 20
265.693417952841
 30
0.0
 40
1.0
  1
S
  7
STYLE3
100
AcDbText
  0
TEXT
  5
172B
330
18
100
AcDbEntity
  8
文字
100
AcDbText
 10
335.1116276840115
 20
268.5923573359681
 30
0.0
 40
1.0
  1
F
 50
39.26251030727185
  7
STYLE3
100
AcDbText
  0
TEXT
  5
172C
330
18
100
AcDbEntity
  8
文字
100
AcDbText
 10
334.1263402919713
 20
268.0135019976867
 30
0.0
 40
1.0
  1
O
 50
27.6495577688412
  7
STYLE3
100
AcDbText
  0
CIRCLE
  5
1738
330
18
100
AcDbEntity
  8
外形線
100
AcDbCircle
 10
325.8749334699483
 20
281.6690517808
 30
0.0
 40
16.5
  0
LINE
  5
173C
330
18
100
AcDbEntity
  8
目盛
100
AcDbLine
 10
325.8749334699483
 20
306.4190517808
 30
0.0
 11
325.8749334699483
 21
303.4190517808
 31
0.0
  0
LINE
  5
173D
330
18
100
AcDbEntity
  8
目盛
100
AcDbLine
 10
326.652349757132
 20
306.4068391498519
 30
0.0
 11
326.6036630805609
 21
304.857603981285
 31
0.0
  0
LINE
  5
173E
330
18
100
AcDbEntity
  8
目盛
100
AcDbLine
 10
327.4289988282988
 20
306.3702133093997
 30
0.0
 11
327.3316735230284
 21
304.8232718803359
 31
0.0
  0
LINE
  5
173F
330
18
100
AcDbEntity
  8
目盛
100
AcDbLine
 10
328.2041142245816
 20
306.3092104047263
 30
0.0
 11
328.0582463389379
 21
304.7660893595915
 31
0.0
  0
LINE
  5
1740
330
18
100
AcDbEntity
  8
目盛
100
AcDbLine
 10
328.9769310006648
 20
306.2238906383334
 30
0.0
 11
328.7826644886401
 21
304.686112851296
 31
0.0
  0
LINE
  5
1741
330
18
100
AcDbEntity
  8
目盛
100
AcDbLine
 10
329.746686479694
 20
306.1143382105297
 30
0.0
 11
329.3790654868495
 21
303.7932706101311
 31
0.0
  0
LINE
  5
1742
330
18
100
AcDbEntity
  8
目盛
100
AcDbLine
 10
330.512621005945
 20
305.9806612363351
 30
0.0
 11
330.2221799683371
 21
304.4581159977056
 31
0.0
  0
LINE
  5
1743
330
18
100
AcDbEntity
  8
目盛
100
AcDbLine
 10
331.2739786945128
 20
305.822991638784
 30
0.0
 11
330.9358566703481
 21
304.310320657779
 31
0.0
  0
LINE
  5
1744
330
18
100
AcDbEntity
  8
目盛
100
AcDbLine
 10
332.0300081772785
 20
305.6414850187337
 30
0.0
 11
331.644538852173
 21
304.1401811189843
 31
0.0
  0
LINE
  5
1745
330
18
100
AcDbEntity
  8
目盛
100
AcDbLine
 10
332.7799633444192
 20
305.4363205013043
 30
0.0
 11
332.3475271300584
 21
303.9478652885051
 31
0.0
  0
LINE
  5
1747
330
18
100
AcDbEntity
  8
目盛
100
AcDbLine
 10
319.7198587626182
 20
305.6414850187337
 30
0.0
 11
320.1053280877236
 21
304.1401811189843
 31
0.0
  0
LINE
  5
1748
330
18
100
AcDbEntity
  8
目盛
100
AcDbLine
 10
318.9699035954774
 20
305.4363205013044
 30
0.0
 11
319.4023398098382
 21
303.9478652885052
 31
0.0
  0
LINE
  5
1749
330
18
100
AcDbEntity
  8
目盛
100
AcDbLine
 10
318.2267628591684
 20
305.2077005591051
 30
0.0
 11
319.1538138422932
 21
302.3545310102196
 31
0.0
  0
LINE
  5
174A
330
18
100
AcDbEntity
  8
目盛
100
AcDbLine
 10
324.3208681115978
 20
306.3702133093997
 30
0.0
 11
324.4181934168683
 21
304.8232718803359
 31
0.0
  0
LINE
  5
174B
330
18
100
AcDbEntity
  8
目盛
100
AcDbLine
 10
323.5457527153152
 20
306.3092104047262
 30
0.0
 11
323.6916206009588
 21
304.7660893595915
 31
0.0
  0
LINE
  5
174C
330
18
100
AcDbEntity
  8
目盛
100
AcDbLine
 10
322.7729359392317
 20
306.2238906383334
 30
0.0
 11
322.9672024512564
 21
304.6861128512959
 31
0.0
  0
LINE
  5
174D
330
18
100
AcDbEntity
  8
目盛
100
AcDbLine
 10
322.0031804602025
 20
306.1143382105298
 30
0.0
 11
322.3708014530471
 21
303.7932706101311
 31
0.0
  0
LINE
  5
174E
330
18
100
AcDbEntity
  8
目盛
100
AcDbLine
 10
321.2372459339516
 20
305.9806612363351
 30
0.0
 11
321.5276869715594
 21
304.4581159977056
 31
0.0
  0
LINE
  5
174F
330
18
100
AcDbEntity
  8
目盛
100
AcDbLine
 10
320.4758882453838
 20
305.8229916387841
 30
0.0
 11
320.8140102695485
 21
304.310320657779
 31
0.0
  0
LINE
  5
1750
330
18
100
AcDbEntity
  8
目盛
100
AcDbLine
 10
325.0975171827646
 20
306.4068391498519
 30
0.0
 11
325.1462038593357
 21
304.857603981285
 31
0.0
  0
LINE
  5
1751
330
18
100
AcDbEntity
  8
目盛
100
AcDbLine
 10
312.6132202942182
 20
302.5661679369749
 30
0.0
 11
313.4437518264356
 21
301.2574596524468
 31
0.0
  0
LINE
  5
1752
330
18
100
AcDbEntity
  8
目盛
100
AcDbLine
 10
311.9633698681081
 20
302.1392959940954
 30
0.0
 11
312.8345991037789
 21
300.8573211039699
 31
0.0
  0
LINE
  5
1753
330
18
100
AcDbEntity
  8
目盛
100
AcDbLine
 10
311.3272484757096
 20
301.69222239158
 30
0.0
 11
313.090604232587
 21
299.2651714084552
 31
0.0
  0
LINE
  5
1754
330
18
100
AcDbEntity
  8
目盛
100
AcDbLine
 10
316.7638507910025
 20
304.6810198065343
 30
0.0
 11
317.3344438476638
 21
303.2398662534074
 31
0.0
  0
LINE
  5
1755
330
18
100
AcDbEntity
  8
目盛
100
AcDbLine
 10
316.0455231767376
 20
304.3834787664786
 30
0.0
 11
316.6611024072214
 21
302.9609590966684
 31
0.0
  0
LINE
  5
1756
330
18
100
AcDbEntity
  8
目盛
100
AcDbLine
 10
315.3368960037128
 20
304.063521329334
 30
0.0
 11
315.9968539056387
 21
302.6610393980117
 31
0.0
  0
LINE
  5
1757
330
18
100
AcDbEntity
  8
目盛
100
AcDbLine
 10
314.6386686013945
 20
303.7214632544621
 30
0.0
 11
315.7055462757825
 21
301.6275979226195
 31
0.0
  0
LINE
  5
1758
330
18
100
AcDbEntity
  8
目盛
100
AcDbLine
 10
313.9515300359308
 20
303.3576421118857
 30
0.0
 11
314.6982482307885
 21
301.9993667578177
 31
0.0
  0
LINE
  5
1759
330
18
100
AcDbEntity
  8
目盛
100
AcDbLine
 10
313.2761584301266
 20
302.9724169491477
 30
0.0
 11
314.0651726245398
 21
301.6382668072915
 31
0.0
  0
LINE
  5
175A
330
18
100
AcDbEntity
  8
目盛
100
AcDbLine
 10
317.4911699438774
 20
304.9558508124171
 30
0.0
 11
318.0162137202576
 21
303.497485620538
 31
0.0
  0
LINE
  5
175B
330
18
100
AcDbEntity
  8
目盛
100
AcDbLine
 10
306.8047307112475
 20
297.4452955270801
 30
0.0
 11
307.9990262375499
 21
296.4572883429696
 31
0.0
  0
LINE
  5
175C
330
18
100
AcDbEntity
  8
目盛
100
AcDbLine
 10
306.3185969136499
 20
296.8385013587113
 30
0.0
 11
307.5433371828323
 21
295.8884954255491
 31
0.0
  0
LINE
  5
175D
330
18
100
AcDbEntity
  8
目盛
100
AcDbLine
 10
305.8517628591683
 20
296.2167367750387
 30
0.0
 11
308.2788138422932
 21
294.4533810181613
 31
0.0
  0
LINE
  5
175E
330
18
100
AcDbEntity
  8
目盛
100
AcDbLine
 10
310.0986897236682
 20
300.7392545395008
 30
0.0
 11
311.0866969077787
 21
299.5449590131983
 31
0.0
  0
LINE
  5
175F
330
18
100
AcDbEntity
  8
目盛
100
AcDbLine
 10
309.507464803188
 20
300.2343007541539
 30
0.0
 11
310.5324981944396
 21
299.0716285962267
 31
0.0
  0
LINE
  5
1760
330
18
100
AcDbEntity
  8
目盛
100
AcDbLine
 10
308.9323925982133
 20
299.7110253094799
 30
0.0
 11
309.9934406124027
 21
298.5811239369767
 31
0.0
  0
LINE
  5
1761
330
18
100
AcDbEntity
  8
目盛
100
AcDbLine
 10
308.3740406355812
 20
299.1699446151671
 30
0.0
 11
310.0357415713696
 21
297.5082436793787
 31
0.0
  0
LINE
  5
1762
330
18
100
AcDbEntity
  8
目盛
100
AcDbLine
 10
307.8329599412683
 20
298.611592652535
 30
0.0
 11
308.9628613137715
 21
297.5505446383456
 31
0.0
  0
LINE
  5
1763
330
18
100
AcDbEntity
  8
目盛
100
AcDbLine
 10
307.3096844965944
 20
298.0365204475604
 30
0.0
 11
308.4723566545217
 21
297.0114870563087
 31
0.0
  0
LINE
  5
1764
330
18
100
AcDbEntity
  8
目盛
100
AcDbLine
 10
310.7054838920372
 20
301.2253883370984
 30
0.0
 11
311.6554898251992
 21
300.0006480679161
 31
0.0
  0
LINE
  5
1765
330
18
100
AcDbEntity
  8
目盛
100
AcDbLine
 10
302.8629654442141
 20
290.7801344597458
 30
0.0
 11
304.3041189973409
 21
290.2095414030845
 31
0.0
  0
LINE
  5
1766
330
18
100
AcDbEntity
  8
目盛
100
AcDbLine
 10
302.5881344383312
 20
290.052815306871
 30
0.0
 11
304.0464996302102
 21
289.5277715304908
 31
0.0
  0
LINE
  5
1767
330
18
100
AcDbEntity
  8
目盛
100
AcDbLine
 10
302.3362846916433
 20
289.31722239158
 30
0.0
 11
305.1894542405287
 21
288.3901714084552
 31
0.0
  0
LINE
  5
1768
330
18
100
AcDbEntity
  8
目盛
100
AcDbLine
 10
304.9778173137735
 20
294.9307649565302
 30
0.0
 11
306.2865255983015
 21
294.1002334243128
 31
0.0
  0
LINE
  5
1769
330
18
100
AcDbEntity
  8
目盛
100
AcDbLine
 10
304.5715683016008
 20
294.2678268206218
 30
0.0
 11
305.9057184434569
 21
293.4788126262087
 31
0.0
  0
LINE
  5
176A
330
18
100
AcDbEntity
  8
目盛
100
AcDbLine
 10
304.1863431388626
 20
293.5924552148175
 30
0.0
 11
305.5446184929307
 21
292.8457370199598
 31
0.0
  0
LINE
  5
176B
330
18
100
AcDbEntity
  8
目盛
100
AcDbLine
 10
303.8225219962862
 20
292.9053166493538
 30
0.0
 11
305.9163873281288
 21
291.8384389749659
 31
0.0
  0
LINE
  5
176C
330
18
100
AcDbEntity
  8
目盛
100
AcDbLine
 10
303.4804639214143
 20
292.2070892470356
 30
0.0
 11
304.8829458527366
 21
291.5471313451097
 31
0.0
  0
LINE
  5
176D
330
18
100
AcDbEntity
  8
目盛
100
AcDbLine
 10
303.1605064842697
 20
291.4984620740108
 30
0.0
 11
304.5830261540799
 21
290.8828828435269
 31
0.0
  0
LINE
  5
176E
330
18
100
AcDbEntity
  8
目盛
100
AcDbLine
 10
305.4046892566529
 20
295.5806153826403
 30
0.0
 11
306.6866641467784
 21
294.7093861469694
 31
0.0
  0
LINE
  5
176F
330
18
100
AcDbEntity
  8
目盛
100
AcDbLine
 10
301.1737719413487
 20
283.2231171391505
 30
0.0
 11
302.7207133704124
 21
283.1257918338801
 31
0.0
  0
LINE
  5
1770
330
18
100
AcDbEntity
  8
目盛
100
AcDbLine
 10
301.1371461008965
 20
282.4464680679838
 30
0.0
 11
302.6863812694634
 21
282.3977813914126
 31
0.0
  0
LINE
  5
1771
330
18
100
AcDbEntity
  8
目盛
100
AcDbLine
 10
301.1249334699483
 20
281.6690517808
 30
0.0
 11
304.1249334699484
 21
281.6690517808
 31
0.0
  0
LINE
  5
1772
330
18
100
AcDbEntity
  8
目盛
100
AcDbLine
 10
301.9025002320148
 20
287.8241264881302
 30
0.0
 11
303.4038041317641
 21
287.4386571630247
 31
0.0
  0
LINE
  5
1773
330
18
100
AcDbEntity
  8
目盛
100
AcDbLine
 10
301.7209936119644
 20
287.0680970053645
 30
0.0
 11
303.2336645929694
 21
286.7299749811999
 31
0.0
  0
LINE
  5
1774
330
18
100
AcDbEntity
  8
目盛
100
AcDbLine
 10
301.5633240144133
 20
286.3067393167967
 30
0.0
 11
303.0858692530428
 21
286.0162982791889
 31
0.0
  0
LINE
  5
1775
330
18
100
AcDbEntity
  8
目盛
100
AcDbLine
 10
301.4296470402187
 20
285.5408047905457
 30
0.0
 11
303.7507146406173
 21
285.1731837977012
 31
0.0
  0
LINE
  5
1776
330
18
100
AcDbEntity
  8
目盛
100
AcDbLine
 10
301.320094612415
 20
284.7710493115165
 30
0.0
 11
302.8578723994524
 21
284.5767827994919
 31
0.0
  0
LINE
  5
1777
330
18
100
AcDbEntity
  8
目盛
100
AcDbLine
 10
301.2347748460221
 20
283.9982325354333
 30
0.0
 11
302.7778958911569
 21
283.8523646497896
 31
0.0
  0
LINE
  5
1778
330
18
100
AcDbEntity
  8
目盛
100
AcDbLine
 10
302.1076647494441
 20
288.574081655271
 30
0.0
 11
303.5961199622433
 21
288.1416454409102
 31
0.0
  0
LINE
  5
1779
330
18
100
AcDbEntity
  8
目盛
100
AcDbLine
 10
301.9025002320147
 20
275.5139770734698
 30
0.0
 11
303.4038041317641
 21
275.8994463985754
 31
0.0
  0
LINE
  5
177A
330
18
100
AcDbEntity
  8
目盛
100
AcDbLine
 10
302.1076647494439
 20
274.7640219063292
 30
0.0
 11
303.5961199622432
 21
275.19645812069
 31
0.0
  0
LINE
  5
177B
330
18
100
AcDbEntity
  8
目盛
100
AcDbLine
 10
302.3362846916433
 20
274.0208811700201
 30
0.0
 11
305.1894542405287
 21
274.9479321531449
 31
0.0
  0
LINE
  5
177C
330
18
100
AcDbEntity
  8
目盛
100
AcDbLine
 10
301.1737719413485
 20
280.1149864224496
 30
0.0
 11
302.7207133704123
 21
280.21231172772
 31
0.0
  0
LINE
  5
177D
330
18
100
AcDbEntity
  8
目盛
100
AcDbLine
 10
301.2347748460221
 20
279.3398710261669
 30
0.0
 11
302.7778958911568
 21
279.4857389118106
 31
0.0
  0
LINE
  5
177E
330
18
100
AcDbEntity
  8
目盛
100
AcDbLine
 10
301.3200946124149
 20
278.5670542500835
 30
0.0
 11
302.8578723994524
 21
278.7613207621082
 31
0.0
  0
LINE
  5
177F
330
18
100
AcDbEntity
  8
目盛
100
AcDbLine
 10
301.4296470402186
 20
277.7972987710543
 30
0.0
 11
303.7507146406172
 21
278.1649197638988
 31
0.0
  0
LINE
  5
1780
330
18
100
AcDbEntity
  8
目盛
100
AcDbLine
 10
301.5633240144132
 20
277.0313642448033
 30
0.0
 11
303.0858692530427
 21
277.3218052824112
 31
0.0
  0
LINE
  5
1781
330
18
100
AcDbEntity
  8
目盛
100
AcDbLine
 10
301.7209936119642
 20
276.2700065562357
 30
0.0
 11
303.2336645929693
 21
276.6081285804002
 31
0.0
  0
LINE
  5
1782
330
18
100
AcDbEntity
  8
目盛
100
AcDbLine
 10
301.1371461008964
 20
280.8916354936164
 30
0.0
 11
302.6863812694633
 21
280.9403221701875
 31
0.0
  0
LINE
  5
1783
330
18
100
AcDbEntity
  8
目盛
100
AcDbLine
 10
304.9778173137735
 20
268.4073386050699
 30
0.0
 11
306.2865255983016
 21
269.2378701372874
 31
0.0
  0
LINE
  5
1784
330
18
100
AcDbEntity
  8
目盛
100
AcDbLine
 10
305.4046892566529
 20
267.7574881789598
 30
0.0
 11
306.6866641467785
 21
268.6287174146306
 31
0.0
  0
LINE
  5
1785
330
18
100
AcDbEntity
  8
目盛
100
AcDbLine
 10
305.8517628591684
 20
267.1213667865613
 30
0.0
 11
308.2788138422933
 21
268.8847225434388
 31
0.0
  0
LINE
  5
1786
330
18
100
AcDbEntity
  8
目盛
100
AcDbLine
 10
302.8629654442141
 20
272.5579691018543
 30
0.0
 11
304.3041189973409
 21
273.1285621585155
 31
0.0
  0
LINE
  5
1787
330
18
100
AcDbEntity
  8
目盛
100
AcDbLine
 10
303.1605064842698
 20
271.8396414875893
 30
0.0
 11
304.58302615408
 21
272.4552207180732
 31
0.0
  0
LINE
  5
1788
330
18
100
AcDbEntity
  8
目盛
100
AcDbLine
 10
303.4804639214144
 20
271.1310143145645
 30
0.0
 11
304.8829458527367
 21
271.7909722164904
 31
0.0
  0
LINE
  5
1789
330
18
100
AcDbEntity
  8
目盛
100
AcDbLine
 10
303.8225219962862
 20
270.4327869122462
 30
0.0
 11
305.9163873281289
 21
271.4996645866342
 31
0.0
  0
LINE
  5
178A
330
18
100
AcDbEntity
  8
目盛
100
AcDbLine
 10
304.1863431388627
 20
269.7456483467826
 30
0.0
 11
305.5446184929307
 21
270.4923665416402
 31
0.0
  0
LINE
  5
178B
330
18
100
AcDbEntity
  8
目盛
100
AcDbLine
 10
304.5715683016007
 20
269.0702767409783
 30
0.0
 11
305.9057184434569
 21
269.8592909353915
 31
0.0
  0
LINE
  5
178C
330
18
100
AcDbEntity
  8
目盛
100
AcDbLine
 10
302.5881344383313
 20
273.2852882547291
 30
0.0
 11
304.0464996302103
 21
273.8103320311093
 31
0.0
  0
LINE
  5
178D
330
18
100
AcDbEntity
  8
目盛
100
AcDbLine
 10
310.0986897236682
 20
262.5988490220992
 30
0.0
 11
311.0866969077787
 21
263.7931445484018
 31
0.0
  0
LINE
  5
178E
330
18
100
AcDbEntity
  8
目盛
100
AcDbLine
 10
310.705483892037
 20
262.1127152245017
 30
0.0
 11
311.6554898251992
 21
263.337455493684
 31
0.0
  0
LINE
  5
178F
330
18
100
AcDbEntity
  8
目盛
100
AcDbLine
 10
311.3272484757096
 20
261.6458811700201
 30
0.0
 11
313.090604232587
 21
264.072932153145
 31
0.0
  0
LINE
  5
1790
330
18
100
AcDbEntity
  8
目盛
100
AcDbLine
 10
306.8047307112474
 20
265.89280803452
 30
0.0
 11
307.9990262375499
 21
266.8808152186305
 31
0.0
  0
LINE
  5
1791
330
18
100
AcDbEntity
  8
目盛
100
AcDbLine
 10
307.3096844965944
 20
265.3015831140397
 30
0.0
 11
308.4723566545216
 21
266.3266165052913
 31
0.0
  0
LINE
  5
1792
330
18
100
AcDbEntity
  8
目盛
100
AcDbLine
 10
307.8329599412683
 20
264.726510909065
 30
0.0
 11
308.9628613137715
 21
265.7875589232545
 31
0.0
  0
LINE
  5
1793
330
18
100
AcDbEntity
  8
目盛
100
AcDbLine
 10
308.3740406355812
 20
264.168158946433
 30
0.0
 11
310.0357415713696
 21
265.8298598822214
 31
0.0
  0
LINE
  5
1794
330
18
100
AcDbEntity
  8
目盛
100
AcDbLine
 10
308.9323925982133
 20
263.6270782521201
 30
0.0
 11
309.9934406124027
 21
264.7569796246232
 31
0.0
  0
LINE
  5
1795
330
18
100
AcDbEntity
  8
目盛
100
AcDbLine
 10
309.5074648031879
 20
263.1038028074462
 30
0.0
 11
310.5324981944395
 21
264.2664749653734
 31
0.0
  0
LINE
  5
1796
330
18
100
AcDbEntity
  8
目盛
100
AcDbLine
 10
306.3185969136499
 20
266.4996022028889
 30
0.0
 11
307.5433371828323
 21
267.449608136051
 31
0.0
  0
LINE
  5
1797
330
18
100
AcDbEntity
  8
目盛
100
AcDbLine
 10
316.7638507910025
 20
258.6570837550659
 30
0.0
 11
317.3344438476638
 21
260.0982373081926
 31
0.0
  0
LINE
  5
1798
330
18
100
AcDbEntity
  8
目盛
100
AcDbLine
 10
317.4911699438773
 20
258.3822527491829
 30
0.0
 11
318.0162137202575
 21
259.840617941062
 31
0.0
  0
LINE
  5
1799
330
18
100
AcDbEntity
  8
目盛
100
AcDbLine
 10
318.2267628591683
 20
258.130403002495
 30
0.0
 11
319.1538138422932
 21
260.9835725513804
 31
0.0
  0
LINE
  5
179A
330
18
100
AcDbEntity
  8
目盛
100
AcDbLine
 10
312.6132202942181
 20
260.7719356246252
 30
0.0
 11
313.4437518264356
 21
262.0806439091533
 31
0.0
  0
LINE
  5
179B
330
18
100
AcDbEntity
  8
目盛
100
AcDbLine
 10
313.2761584301265
 20
260.3656866124525
 30
0.0
 11
314.0651726245397
 21
261.6998367543086
 31
0.0
  0
LINE
  5
179C
330
18
100
AcDbEntity
  8
目盛
100
AcDbLine
 10
313.9515300359309
 20
259.9804614497144
 30
0.0
 11
314.6982482307885
 21
261.3387368037825
 31
0.0
  0
LINE
  5
179D
330
18
100
AcDbEntity
  8
目盛
100
AcDbLine
 10
314.6386686013946
 20
259.6166403071379
 30
0.0
 11
315.7055462757825
 21
261.7105056389807
 31
0.0
  0
LINE
  5
179E
330
18
100
AcDbEntity
  8
目盛
100
AcDbLine
 10
315.3368960037127
 20
259.2745822322661
 30
0.0
 11
315.9968539056387
 21
260.6770641635884
 31
0.0
  0
LINE
  5
179F
330
18
100
AcDbEntity
  8
目盛
100
AcDbLine
 10
316.0455231767375
 20
258.9546247951215
 30
0.0
 11
316.6611024072214
 21
260.3771444649317
 31
0.0
  0
LINE
  5
17A0
330
18
100
AcDbEntity
  8
目盛
100
AcDbLine
 10
311.9633698681081
 20
261.1988075675047
 30
0.0
 11
312.8345991037789
 21
262.4807824576302
 31
0.0
  0
LINE
  5
17A1
330
18
100
AcDbEntity
  8
目盛
100
AcDbLine
 10
324.3208681115979
 20
256.9678902522004
 30
0.0
 11
324.4181934168683
 21
258.5148316812642
 31
0.0
  0
LINE
  5
17A2
330
18
100
AcDbEntity
  8
目盛
100
AcDbLine
 10
325.0975171827647
 20
256.9312644117482
 30
0.0
 11
325.1462038593357
 21
258.4804995803151
 31
0.0
  0
LINE
  5
17A3
330
18
100
AcDbEntity
  8
目盛
100
AcDbLine
 10
325.8749334699484
 20
256.9190517808001
 30
0.0
 11
325.8749334699484
 21
259.9190517808001
 31
0.0
  0
LINE
  5
17A4
330
18
100
AcDbEntity
  8
目盛
100
AcDbLine
 10
319.7198587626182
 20
257.6966185428665
 30
0.0
 11
320.1053280877237
 21
259.1979224426158
 31
0.0
  0
LINE
  5
17A5
330
18
100
AcDbEntity
  8
目盛
100
AcDbLine
 10
320.4758882453839
 20
257.5151119228161
 30
0.0
 11
320.8140102695485
 21
259.0277829038212
 31
0.0
  0
LINE
  5
17A6
330
18
100
AcDbEntity
  8
目盛
100
AcDbLine
 10
321.2372459339517
 20
257.357442325265
 30
0.0
 11
321.5276869715595
 21
258.8799875638945
 31
0.0
  0
LINE
  5
17A7
330
18
100
AcDbEntity
  8
目盛
100
AcDbLine
 10
322.0031804602026
 20
257.2237653510704
 30
0.0
 11
322.3708014530472
 21
259.544832951469
 31
0.0
  0
LINE
  5
17A8
330
18
100
AcDbEntity
  8
目盛
100
AcDbLine
 10
322.7729359392319
 20
257.1142129232667
 30
0.0
 11
322.9672024512565
 21
258.6519907103042
 31
0.0
  0
LINE
  5
17A9
330
18
100
AcDbEntity
  8
目盛
100
AcDbLine
 10
323.5457527153152
 20
257.0288931568738
 30
0.0
 11
323.6916206009588
 21
258.5720142020086
 31
0.0
  0
LINE
  5
17AA
330
18
100
AcDbEntity
  8
目盛
100
AcDbLine
 10
318.9699035954774
 20
257.9017830602958
 30
0.0
 11
319.4023398098382
 21
259.390238273095
 31
0.0
  0
LINE
  5
17AB
330
18
100
AcDbEntity
  8
目盛
100
AcDbLine
 10
332.0300081772785
 20
257.6966185428665
 30
0.0
 11
331.644538852173
 21
259.1979224426158
 31
0.0
  0
LINE
  5
17AC
330
18
100
AcDbEntity
  8
目盛
100
AcDbLine
 10
332.7799633444192
 20
257.9017830602956
 30
0.0
 11
332.3475271300584
 21
259.390238273095
 31
0.0
  0
LINE
  5
17AD
330
18
100
AcDbEntity
  8
目盛
100
AcDbLine
 10
333.5231040807283
 20
258.130403002495
 30
0.0
 11
332.5960530976035
 21
260.9835725513804
 31
0.0
  0
LINE
  5
17AE
330
18
100
AcDbEntity
  8
目盛
100
AcDbLine
 10
327.4289988282988
 20
256.9678902522003
 30
0.0
 11
327.3316735230284
 21
258.5148316812641
 31
0.0
  0
LINE
  5
17AF
330
18
100
AcDbEntity
  8
目盛
100
AcDbLine
 10
328.2041142245816
 20
257.0288931568739
 30
0.0
 11
328.0582463389379
 21
258.5720142020086
 31
0.0
  0
LINE
  5
17B0
330
18
100
AcDbEntity
  8
目盛
100
AcDbLine
 10
328.9769310006649
 20
257.1142129232667
 30
0.0
 11
328.7826644886402
 21
258.6519907103042
 31
0.0
  0
LINE
  5
17B1
330
18
100
AcDbEntity
  8
目盛
100
AcDbLine
 10
329.7466864796941
 20
257.2237653510704
 30
0.0
 11
329.3790654868495
 21
259.544832951469
 31
0.0
  0
LINE
  5
17B2
330
18
100
AcDbEntity
  8
目盛
100
AcDbLine
 10
330.5126210059451
 20
257.357442325265
 30
0.0
 11
330.2221799683372
 21
258.8799875638945
 31
0.0
  0
LINE
  5
17B3
330
18
100
AcDbEntity
  8
目盛
100
AcDbLine
 10
331.2739786945128
 20
257.515111922816
 30
0.0
 11
330.9358566703481
 21
259.0277829038212
 31
0.0
  0
LINE
  5
17B4
330
18
100
AcDbEntity
  8
目盛
100
AcDbLine
 10
326.652349757132
 20
256.9312644117482
 30
0.0
 11
326.6036630805609
 21
258.4804995803151
 31
0.0
  0
LINE
  5
17B5
330
18
100
AcDbEntity
  8
目盛
100
AcDbLine
 10
339.1366466456785
 20
260.7719356246251
 30
0.0
 11
338.306115113461
 21
262.0806439091532
 31
0.0
  0
LINE
  5
17B6
330
18
100
AcDbEntity
  8
目盛
100
AcDbLine
 10
339.7864970717885
 20
261.1988075675045
 30
0.0
 11
338.9152678361177
 21
262.4807824576301
 31
0.0
  0
LINE
  5
17B7
330
18
100
AcDbEntity
  8
目盛
100
AcDbLine
 10
340.422618464187
 20
261.6458811700201
 30
0.0
 11
338.6592627073096
 21
264.0729321531448
 31
0.0
  0
LINE
  5
17B8
330
18
100
AcDbEntity
  8
目盛
100
AcDbLine
 10
334.986016148894
 20
258.6570837550657
 30
0.0
 11
334.4154230922328
 21
260.0982373081925
 31
0.0
  0
LINE
  5
17B9
330
18
100
AcDbEntity
  8
目盛
100
AcDbLine
 10
335.704343763159
 20
258.9546247951215
 30
0.0
 11
335.0887645326752
 21
260.3771444649316
 31
0.0
  0
LINE
  5
17BA
330
18
100
AcDbEntity
  8
目盛
100
AcDbLine
 10
336.4129709361839
 20
259.274582232266
 30
0.0
 11
335.7530130342579
 21
260.6770641635884
 31
0.0
  0
LINE
  5
17BB
330
18
100
AcDbEntity
  8
目盛
100
AcDbLine
 10
337.1111983385021
 20
259.6166403071379
 30
0.0
 11
336.0443206641142
 21
261.7105056389805
 31
0.0
  0
LINE
  5
17BC
330
18
100
AcDbEntity
  8
目盛
100
AcDbLine
 10
337.7983369039658
 20
259.9804614497144
 30
0.0
 11
337.0516187091082
 21
261.3387368037824
 31
0.0
  0
LINE
  5
17BD
330
18
100
AcDbEntity
  8
目盛
100
AcDbLine
 10
338.47370850977
 20
260.3656866124524
 30
0.0
 11
337.6846943153569
 21
261.6998367543084
 31
0.0
  0
LINE
  5
17BE
330
18
100
AcDbEntity
  8
目盛
100
AcDbLine
 10
334.2586969960192
 20
258.3822527491829
 30
0.0
 11
333.7336532196391
 21
259.840617941062
 31
0.0
  0
LINE
  5
17BF
330
18
100
AcDbEntity
  8
目盛
100
AcDbLine
 10
344.9451362286491
 20
265.8928080345201
 30
0.0
 11
343.7508407023466
 21
266.8808152186305
 31
0.0
  0
LINE
  5
17C0
330
18
100
AcDbEntity
  8
目盛
100
AcDbLine
 10
345.4312700262466
 20
266.4996022028888
 30
0.0
 11
344.2065297570644
 21
267.449608136051
 31
0.0
  0
LINE
  5
17C1
330
18
100
AcDbEntity
  8
目盛
100
AcDbLine
 10
345.8981040807282
 20
267.1213667865613
 30
0.0
 11
343.4710530976034
 21
268.8847225434388
 31
0.0
  0
LINE
  5
17C2
330
18
100
AcDbEntity
  8
目盛
100
AcDbLine
 10
341.6511772162284
 20
262.5988490220992
 30
0.0
 11
340.6631700321179
 21
263.7931445484018
 31
0.0
  0
LINE
  5
17C3
330
18
100
AcDbEntity
  8
目盛
100
AcDbLine
 10
342.2424021367086
 20
263.1038028074462
 30
0.0
 11
341.2173687454569
 21
264.2664749653734
 31
0.0
  0
LINE
  5
17C4
330
18
100
AcDbEntity
  8
目盛
100
AcDbLine
 10
342.8174743416834
 20
263.6270782521201
 30
0.0
 11
341.7564263274938
 21
264.7569796246234
 31
0.0
  0
LINE
  5
17C5
330
18
100
AcDbEntity
  8
目盛
100
AcDbLine
 10
343.3758263043154
 20
264.168158946433
 30
0.0
 11
341.714125368527
 21
265.8298598822214
 31
0.0
  0
LINE
  5
17C6
330
18
100
AcDbEntity
  8
目盛
100
AcDbLine
 10
343.9169069986283
 20
264.726510909065
 30
0.0
 11
342.7870056261251
 21
265.7875589232544
 31
0.0
  0
LINE
  5
17C7
330
18
100
AcDbEntity
  8
目盛
100
AcDbLine
 10
344.4401824433022
 20
265.3015831140397
 30
0.0
 11
343.2775102853749
 21
266.3266165052913
 31
0.0
  0
LINE
  5
17C8
330
18
100
AcDbEntity
  8
目盛
100
AcDbLine
 10
341.0443830478595
 20
262.1127152245017
 30
0.0
 11
340.0943771146973
 21
263.337455493684
 31
0.0
  0
LINE
  5
17C9
330
18
100
AcDbEntity
  8
目盛
100
AcDbLine
 10
348.8869014956825
 20
272.5579691018543
 30
0.0
 11
347.4457479425557
 21
273.1285621585156
 31
0.0
  0
LINE
  5
17CA
330
18
100
AcDbEntity
  8
目盛
100
AcDbLine
 10
349.1617325015654
 20
273.2852882547291
 30
0.0
 11
347.7033673096863
 21
273.8103320311093
 31
0.0
  0
LINE
  5
17CB
330
18
100
AcDbEntity
  8
目盛
100
AcDbLine
 10
349.4135822482534
 20
274.0208811700201
 30
0.0
 11
346.5604126993679
 21
274.9479321531449
 31
0.0
  0
LINE
  5
17CC
330
18
100
AcDbEntity
  8
目盛
100
AcDbLine
 10
346.7720496261232
 20
268.4073386050699
 30
0.0
 11
345.463341341595
 21
269.2378701372873
 31
0.0
  0
LINE
  5
17CD
330
18
100
AcDbEntity
  8
目盛
100
AcDbLine
 10
347.1782986382958
 20
269.0702767409783
 30
0.0
 11
345.8441484964398
 21
269.8592909353915
 31
0.0
  0
LINE
  5
17CE
330
18
100
AcDbEntity
  8
目盛
100
AcDbLine
 10
347.5635238010339
 20
269.7456483467826
 30
0.0
 11
346.2052484469659
 21
270.4923665416403
 31
0.0
  0
LINE
  5
17CF
330
18
100
AcDbEntity
  8
目盛
100
AcDbLine
 10
347.9273449436104
 20
270.4327869122463
 30
0.0
 11
345.8334796117677
 21
271.4996645866342
 31
0.0
  0
LINE
  5
17D0
330
18
100
AcDbEntity
  8
目盛
100
AcDbLine
 10
348.2694030184823
 20
271.1310143145645
 30
0.0
 11
346.86692108716
 21
271.7909722164904
 31
0.0
  0
LINE
  5
17D1
330
18
100
AcDbEntity
  8
目盛
100
AcDbLine
 10
348.5893604556268
 20
271.8396414875893
 30
0.0
 11
347.1668407858166
 21
272.4552207180732
 31
0.0
  0
LINE
  5
17D2
330
18
100
AcDbEntity
  8
目盛
100
AcDbLine
 10
346.3451776832437
 20
267.7574881789599
 30
0.0
 11
345.0632027931181
 21
268.6287174146306
 31
0.0
  0
LINE
  5
17D3
330
18
100
AcDbEntity
  8
目盛
100
AcDbLine
 10
350.576094998548
 20
280.1149864224495
 30
0.0
 11
349.0291535694842
 21
280.21231172772
 31
0.0
  0
LINE
  5
17D4
330
18
100
AcDbEntity
  8
目盛
100
AcDbLine
 10
350.6127208390002
 20
280.8916354936163
 30
0.0
 11
349.0634856704333
 21
280.9403221701874
 31
0.0
  0
LINE
  5
17D5
330
18
100
AcDbEntity
  8
目盛
100
AcDbLine
 10
350.6249334699483
 20
281.6690517808
 30
0.0
 11
347.6249334699483
 21
281.6690517808
 31
0.0
  0
LINE
  5
17D6
330
18
100
AcDbEntity
  8
目盛
100
AcDbLine
 10
349.8473667078819
 20
275.5139770734698
 30
0.0
 11
348.3460628081326
 21
275.8994463985754
 31
0.0
  0
LINE
  5
17D7
330
18
100
AcDbEntity
  8
目盛
100
AcDbLine
 10
350.0288733279323
 20
276.2700065562356
 30
0.0
 11
348.5162023469272
 21
276.6081285804002
 31
0.0
  0
LINE
  5
17D8
330
18
100
AcDbEntity
  8
目盛
100
AcDbLine
 10
350.1865429254834
 20
277.0313642448034
 30
0.0
 11
348.6639976868539
 21
277.3218052824112
 31
0.0
  0
LINE
  5
17D9
330
18
100
AcDbEntity
  8
目盛
100
AcDbLine
 10
350.320219899678
 20
277.7972987710543
 30
0.0
 11
347.9991522992794
 21
278.1649197638988
 31
0.0
  0
LINE
  5
17DA
330
18
100
AcDbEntity
  8
目盛
100
AcDbLine
 10
350.4297723274817
 20
278.5670542500835
 30
0.0
 11
348.8919945404442
 21
278.7613207621082
 31
0.0
  0
LINE
  5
17DB
330
18
100
AcDbEntity
  8
目盛
100
AcDbLine
 10
350.5150920938746
 20
279.3398710261668
 30
0.0
 11
348.9719710487398
 21
279.4857389118105
 31
0.0
  0
LINE
  5
17DC
330
18
100
AcDbEntity
  8
目盛
100
AcDbLine
 10
349.6422021904526
 20
274.7640219063291
 30
0.0
 11
348.1537469776534
 21
275.1964581206899
 31
0.0
  0
LINE
  5
17DD
330
18
100
AcDbEntity
  8
目盛
100
AcDbLine
 10
349.8473667078819
 20
287.8241264881302
 30
0.0
 11
348.3460628081326
 21
287.4386571630247
 31
0.0
  0
LINE
  5
17DE
330
18
100
AcDbEntity
  8
目盛
100
AcDbLine
 10
349.6422021904527
 20
288.5740816552709
 30
0.0
 11
348.1537469776534
 21
288.1416454409101
 31
0.0
  0
LINE
  5
17DF
330
18
100
AcDbEntity
  8
目盛
100
AcDbLine
 10
349.4135822482534
 20
289.31722239158
 30
0.0
 11
346.560412699368
 21
288.3901714084551
 31
0.0
  0
LINE
  5
17E0
330
18
100
AcDbEntity
  8
目盛
100
AcDbLine
 10
350.576094998548
 20
283.2231171391505
 30
0.0
 11
349.0291535694843
 21
283.1257918338801
 31
0.0
  0
LINE
  5
17E1
330
18
100
AcDbEntity
  8
目盛
100
AcDbLine
 10
350.5150920938746
 20
283.9982325354332
 30
0.0
 11
348.9719710487398
 21
283.8523646497895
 31
0.0
  0
LINE
  5
17E2
330
18
100
AcDbEntity
  8
目盛
100
AcDbLine
 10
350.4297723274817
 20
284.7710493115165
 30
0.0
 11
348.8919945404442
 21
284.5767827994919
 31
0.0
  0
LINE
  5
17E3
330
18
100
AcDbEntity
  8
目盛
100
AcDbLine
 10
350.320219899678
 20
285.5408047905457
 30
0.0
 11
347.9991522992794
 21
285.1731837977012
 31
0.0
  0
LINE
  5
17E4
330
18
100
AcDbEntity
  8
目盛
100
AcDbLine
 10
350.1865429254834
 20
286.3067393167968
 30
0.0
 11
348.6639976868539
 21
286.0162982791889
 31
0.0
  0
LINE
  5
17E5
330
18
100
AcDbEntity
  8
目盛
100
AcDbLine
 10
350.0288733279324
 20
287.0680970053644
 30
0.0
 11
348.5162023469273
 21
286.7299749811998
 31
0.0
  0
LINE
  5
17E6
330
18
100
AcDbEntity
  8
目盛
100
AcDbLine
 10
350.6127208390002
 20
282.4464680679837
 30
0.0
 11
349.0634856704333
 21
282.3977813914126
 31
0.0
  0
LINE
  5
17E7
330
18
100
AcDbEntity
  8
目盛
100
AcDbLine
 10
346.7720496261232
 20
294.9307649565302
 30
0.0
 11
345.4633413415951
 21
294.1002334243127
 31
0.0
  0
LINE
  5
17E8
330
18
100
AcDbEntity
  8
目盛
100
AcDbLine
 10
346.3451776832438
 20
295.5806153826403
 30
0.0
 11
345.0632027931182
 21
294.7093861469694
 31
0.0
  0
LINE
  5
17E9
330
18
100
AcDbEntity
  8
目盛
100
AcDbLine
 10
345.8981040807283
 20
296.2167367750387
 30
0.0
 11
343.4710530976034
 21
294.4533810181613
 31
0.0
  0
LINE
  5
17EA
330
18
100
AcDbEntity
  8
目盛
100
AcDbLine
 10
348.8869014956825
 20
290.7801344597457
 30
0.0
 11
347.4457479425558
 21
290.2095414030845
 31
0.0
  0
LINE
  5
17EB
330
18
100
AcDbEntity
  8
目盛
100
AcDbLine
 10
348.5893604556268
 20
291.4984620740107
 30
0.0
 11
347.1668407858167
 21
290.8828828435269
 31
0.0
  0
LINE
  5
17EC
330
18
100
AcDbEntity
  8
目盛
100
AcDbLine
 10
348.2694030184824
 20
292.2070892470356
 30
0.0
 11
346.8669210871599
 21
291.5471313451097
 31
0.0
  0
LINE
  5
17ED
330
18
100
AcDbEntity
  8
目盛
100
AcDbLine
 10
347.9273449436104
 20
292.9053166493538
 30
0.0
 11
345.8334796117678
 21
291.8384389749658
 31
0.0
  0
LINE
  5
17EE
330
18
100
AcDbEntity
  8
目盛
100
AcDbLine
 10
347.5635238010339
 20
293.5924552148175
 30
0.0
 11
346.205248446966
 21
292.8457370199599
 31
0.0
  0
LINE
  5
17EF
330
18
100
AcDbEntity
  8
目盛
100
AcDbLine
 10
347.178298638296
 20
294.2678268206218
 30
0.0
 11
345.8441484964398
 21
293.4788126262086
 31
0.0
  0
LINE
  5
17F0
330
18
100
AcDbEntity
  8
目盛
100
AcDbLine
 10
349.1617325015654
 20
290.052815306871
 30
0.0
 11
347.7033673096864
 21
289.5277715304908
 31
0.0
  0
LINE
  5
17F1
330
18
100
AcDbEntity
  8
目盛
100
AcDbLine
 10
341.6511772162284
 20
300.7392545395008
 30
0.0
 11
340.6631700321179
 21
299.5449590131983
 31
0.0
  0
LINE
  5
17F2
330
18
100
AcDbEntity
  8
目盛
100
AcDbLine
 10
341.0443830478595
 20
301.2253883370984
 30
0.0
 11
340.0943771146974
 21
300.000648067916
 31
0.0
  0
LINE
  5
17F3
330
18
100
AcDbEntity
  8
目盛
100
AcDbLine
 10
340.422618464187
 20
301.69222239158
 30
0.0
 11
338.6592627073096
 21
299.2651714084551
 31
0.0
  0
LINE
  5
17F4
330
18
100
AcDbEntity
  8
目盛
100
AcDbLine
 10
344.9451362286491
 20
297.4452955270801
 30
0.0
 11
343.7508407023466
 21
296.4572883429696
 31
0.0
  0
LINE
  5
17F5
330
18
100
AcDbEntity
  8
目盛
100
AcDbLine
 10
344.4401824433022
 20
298.0365204475603
 30
0.0
 11
343.2775102853751
 21
297.0114870563087
 31
0.0
  0
LINE
  5
17F6
330
18
100
AcDbEntity
  8
目盛
100
AcDbLine
 10
343.9169069986282
 20
298.611592652535
 30
0.0
 11
342.7870056261251
 21
297.5505446383456
 31
0.0
  0
LINE
  5
17F7
330
18
100
AcDbEntity
  8
目盛
100
AcDbLine
 10
343.3758263043154
 20
299.1699446151671
 30
0.0
 11
341.7141253685269
 21
297.5082436793787
 31
0.0
  0
LINE
  5
17F8
330
18
100
AcDbEntity
  8
目盛
100
AcDbLine
 10
342.8174743416834
 20
299.7110253094799
 30
0.0
 11
341.7564263274939
 21
298.5811239369768
 31
0.0
  0
LINE
  5
17F9
330
18
100
AcDbEntity
  8
目盛
100
AcDbLine
 10
342.2424021367087
 20
300.2343007541539
 30
0.0
 11
341.2173687454571
 21
299.0716285962267
 31
0.0
  0
LINE
  5
17FA
330
18
100
AcDbEntity
  8
目盛
100
AcDbLine
 10
345.4312700262466
 20
296.8385013587111
 30
0.0
 11
344.2065297570644
 21
295.8884954255491
 31
0.0
  0
LINE
  5
17FB
330
18
100
AcDbEntity
  8
目盛
100
AcDbLine
 10
334.9860161488941
 20
304.6810198065342
 30
0.0
 11
334.4154230922327
 21
303.2398662534074
 31
0.0
  0
LINE
  5
17FC
330
18
100
AcDbEntity
  8
目盛
100
AcDbLine
 10
334.2586969960192
 20
304.9558508124171
 30
0.0
 11
333.7336532196391
 21
303.4974856205381
 31
0.0
  0
LINE
  5
17FD
330
18
100
AcDbEntity
  8
目盛
100
AcDbLine
 10
333.5231040807283
 20
305.2077005591051
 30
0.0
 11
332.5960530976034
 21
302.3545310102196
 31
0.0
  0
LINE
  5
17FE
330
18
100
AcDbEntity
  8
目盛
100
AcDbLine
 10
339.1366466456785
 20
302.5661679369749
 30
0.0
 11
338.306115113461
 21
301.2574596524467
 31
0.0
  0
LINE
  5
17FF
330
18
100
AcDbEntity
  8
目盛
100
AcDbLine
 10
338.47370850977
 20
302.9724169491476
 30
0.0
 11
337.6846943153569
 21
301.6382668072915
 31
0.0
  0
LINE
  5
1800
330
18
100
AcDbEntity
  8
目盛
100
AcDbLine
 10
337.7983369039657
 20
303.3576421118856
 30
0.0
 11
337.0516187091081
 21
301.9993667578176
 31
0.0
  0
LINE
  5
1801
330
18
100
AcDbEntity
  8
目盛
100
AcDbLine
 10
337.111198338502
 20
303.7214632544622
 30
0.0
 11
336.0443206641141
 21
301.6275979226194
 31
0.0
  0
LINE
  5
1802
330
18
100
AcDbEntity
  8
目盛
100
AcDbLine
 10
336.4129709361839
 20
304.063521329334
 30
0.0
 11
335.7530130342579
 21
302.6610393980117
 31
0.0
  0
LINE
  5
1803
330
18
100
AcDbEntity
  8
目盛
100
AcDbLine
 10
335.7043437631591
 20
304.3834787664786
 30
0.0
 11
335.0887645326752
 21
302.9609590966684
 31
0.0
  0
LINE
  5
1804
330
18
100
AcDbEntity
  8
目盛
100
AcDbLine
 10
339.7864970717885
 20
302.1392959940954
 30
0.0
 11
338.9152678361177
 21
300.8573211039699
 31
0.0
  0
TEXT
  5
1807
330
18
100
AcDbEntity
  8
文字
100
AcDbText
 10
325.0270091223364
 20
299.7546793760849
 30
0.0
 40
2.5
  1
0
  7
STYLE3
100
AcDbText
  0
TEXT
  5
1808
330
18
100
AcDbEntity
  8
文字
100
AcDbText
 10
329.3555198979944
 20
298.5023027868572
 30
0.0
 40
2.5
  1
10
  7
STYLE3
100
AcDbText
  0
TEXT
  5
1809
330
18
100
AcDbEntity
  8
文字
100
AcDbText
 10
335.3219519093534
 20
295.8655432783287
 30
0.0
 40
2.5
  1
20
  7
STYLE3
100
AcDbText
  0
TEXT
  5
180A
330
18
100
AcDbEntity
  8
文字
100
AcDbText
 10
339.3445426511076
 20
291.50124353595
 30
0.0
 40
2.5
  1
30
  7
STYLE3
100
AcDbText
  0
TEXT
  5
180B
330
18
100
AcDbEntity
  8
文字
100
AcDbText
 10
341.6805122724783
 20
286.0571246888629
 30
0.0
 40
2.5
  1
40
  7
STYLE3
100
AcDbText
  0
TEXT
  5
180C
330
18
100
AcDbEntity
  8
文字
100
AcDbText
 10
342.7608898338633
 20
280.2664905333188
 30
0.0
 40
2.5
  1
50
  7
STYLE3
100
AcDbText
  0
TEXT
  5
180D
330
18
100
AcDbEntity
  8
文字
100
AcDbText
 10
341.6368490108062
 20
274.4330664090729
 30
0.0
 40
2.5
  1
60
  7
STYLE3
100
AcDbText
  0
TEXT
  5
180E
330
18
100
AcDbEntity
  8
文字
100
AcDbText
 10
339.6448653931455
 20
269.5055044754998
 30
0.0
 40
2.5
  1
70
  7
STYLE3
100
AcDbText
  0
TEXT
  5
180F
330
18
100
AcDbEntity
  8
文字
100
AcDbText
 10
335.6236747574148
 20
264.9278131145851
 30
0.0
 40
2.5
  1
80
  7
STYLE3
100
AcDbText
  0
TEXT
  5
1810
330
18
100
AcDbEntity
  8
文字
100
AcDbText
 10
317.7641227844239
 20
298.8896504095269
 30
0.0
 40
2.5
  1
10
  7
STYLE3
100
AcDbText
  0
TEXT
  5
1811
330
18
100
AcDbEntity
  8
文字
100
AcDbText
 10
313.0048609336241
 20
296.2112196569974
 30
0.0
 40
2.5
  1
20
  7
STYLE3
100
AcDbText
  0
TEXT
  5
1812
330
18
100
AcDbEntity
  8
文字
100
AcDbText
 10
308.6811072296063
 20
292.2353853520875
 30
0.0
 40
2.5
  1
30
  7
STYLE3
100
AcDbText
  0
TEXT
  5
1813
330
18
100
AcDbEntity
  8
文字
100
AcDbText
 10
305.3965884859782
 20
286.7479174014235
 30
0.0
 40
2.5
  1
40
  7
STYLE3
100
AcDbText
  0
TEXT
  5
1814
330
18
100
AcDbEntity
  8
文字
100
AcDbText
 10
304.3164904759635
 20
280.5682582185848
 30
0.0
 40
2.5
  1
50
  7
STYLE3
100
AcDbText
  0
TEXT
  5
1815
330
18
100
AcDbEntity
  8
文字
100
AcDbText
 10
305.6988712198376
 20
274.131858768584
 30
0.0
 40
2.5
  1
60
  7
STYLE3
100
AcDbText
  0
TEXT
  5
1816
330
18
100
AcDbEntity
  8
文字
100
AcDbText
 10
308.3802253848273
 20
268.7308096851118
 30
0.0
 40
2.5
  1
70
  7
STYLE3
100
AcDbText
  0
TEXT
  5
1817
330
18
100
AcDbEntity
  8
文字
100
AcDbText
 10
311.9715035995277
 20
265.1694849470885
 30
0.0
 40
2.5
  1
80
  7
STYLE3
100
AcDbText
  0
TEXT
  5
1818
330
18
100
AcDbEntity
  8
文字
100
AcDbText
 10
317.464359928184
 20
262.0150507102469
 30
0.0
 40
2.5
  1
90
  7
STYLE3
100
AcDbText
  0
TEXT
  5
1819
330
18
100
AcDbEntity
  8
文字
100
AcDbText
 10
322.5690078887173
 20
260.9788614139303
 30
0.0
 40
2.5
  1
100
 41
0.8
  7
STYLE3
100
AcDbText
  0
TEXT
  5
181A
330
18
100
AcDbEntity
  8
文字
100
AcDbText
 10
330.3911159922257
 20
262.1017489174005
 30
0.0
 40
2.5
  1
90
  7
STYLE3
100
AcDbText
  0
CIRCLE
  5
1887
330
18
100
AcDbEntity
  8
針
100
AcDbCircle
 10
325.8749334699483
 20
281.6690517808
 30
0.0
 40
1.75
  0
CIRCLE
  5
1889
330
18
100
AcDbEntity
  8
針
100
AcDbCircle
 10
325.8749334699483
 20
281.6690517808
 30
0.0
 40
1.549999999999999
  0
CIRCLE
  5
188B
330
18
100
AcDbEntity
  8
針
100
AcDbCircle
 10
325.8749334699483
 20
281.6690517808
 30
0.0
 40
0.3
  0
LINE
  5
188C
330
18
100
AcDbEntity
  8
針
100
AcDbLine
 10
311.4741947887827
 20
301.4899681429862
 30
0.0
 11
311.5348710633608
 21
301.5340520369081
 31
0.0
  0
LINE
  5
188F
330
18
100
AcDbEntity
  8
針
100
AcDbLine
 10
324.8488068890625
 20
283.711020100349
 30
0.0
 11
311.5348710633608
 21
301.5340520369082
 31
0.0
  0
ARC
  5
1891
330
18
100
AcDbEntity
  8
針
100
AcDbCircle
 10
325.6499562467683
 20
284.3094845576459
 30
0.0
 40
1.0
100
AcDbArc
 50
216.7600014781239
 51
254.2358574327112
  0
LINE
  5
1892
330
18
100
AcDbEntity
  8
針
100
AcDbLine
 10
324.2499967454466
 20
283.2759590648111
 30
0.0
 11
311.4135185142046
 21
301.4458842490644
 31
0.0
  0
ARC
  5
1893
330
18
100
AcDbEntity
  8
針
100
AcDbCircle
 10
323.4332544569996
 20
282.6989564354733
 30
0.0
 40
1.0
100
AcDbArc
 50
357.7641425672888
 51
35.23999852187607
  0
LINE
  5
1894
330
18
100
AcDbEntity
  8
針
100
AcDbLine
 10
311.4741947887827
 20
301.4899681429862
 30
0.0
 11
311.4135185142047
 21
301.4458842490644
 31
0.0
  0
HATCH
  5
18AE
330
18
100
AcDbEntity
  8
針
100
AcDbHatch
 10
0.0
 20
0.0
 30
0.0
210
0.0
220
0.0
230
1.0
  2
SOLID
 70
     1
 71
     0
 91
        1
 92
        7
 72
     1
 73
     1
 93
        7
 10
324.2499967454465
 20
283.2759590648111
 42
-0.1649924501947634
 10
324.4324931534718
 20
282.6599432649713
 42
-0.1719454326713527
 10
325.3782782381486
 20
283.3470963513422
 42
-0.1649924501947309
 10
324.8488068890625
 20
283.7110201003489
 42
0.0
 10
311.5348710633608
 20
301.5340520369081
 42
0.0
 10
311.4741947887827
 20
301.4899681429862
 42
0.0
 10
311.4135185142047
 20
301.4458842490643
 42
0.0
 97
        0
 75
     0
 76
     1
 47
0.0639391368235378
 98
        1
 10
323.0745332699202
 20
285.4653656572814
450
        0
451
        0
460
0.0
461
0.0
452
        0
462
0.0
453
        0
470

  0
TEXT
  5
18CE
330
18
100
AcDbEntity
  8
文字
100
AcDbText
 10
331.5795519356001
 20
249.3991367726377
 30
0.0
 40
1.0
  1
0
  7
STYLE3
100
AcDbText
  0
TEXT
  5
18CF
330
18
100
AcDbEntity
  8
文字
100
AcDbText
 10
330.3890097319828
 20
247.9873585708265
 30
0.0
 40
1.0
  1
-0.03
  7
STYLE3
100
AcDbText
  0
LINE
  5
18E1
330
18
100
AcDbEntity
  8
0
  6
ByBlock
 62
     2
100
AcDbLine
 10
413.5088198590715
 20
327.9523521654187
 30
0.0
 11
413.5088198590715
 21
334.6878573095532
 31
0.0
  0
LINE
  5
18E2
330
18
100
AcDbEntity
  8
0
  6
ByBlock
 62
     2
100
AcDbLine
 10
420.5088198590716
 20
307.4690517808001
 30
0.0
 11
420.5088198590716
 21
334.6878573095532
 31
0.0
  0
LINE
  5
18E3
330
18
100
AcDbEntity
  8
0
  6
ByBlock
 62
     2
100
AcDbLine
 10
416.0088198590715
 20
333.4378573095532
 30
0.0
 11
418.0088198590715
 21
333.4378573095532
 31
0.0
  0
INSERT
  5
18E4
330
18
100
AcDbEntity
  8
0
  6
ByBlock
 62
     2
100
AcDbBlockReference
  2
_OPEN
 10
413.5088198590715
 20
333.4378573095532
 30
0.0
 41
2.5
 42
2.5
 43
2.5
 50
180.0
  0
INSERT
  5
18E5
330
18
100
AcDbEntity
  8
0
  6
ByBlock
 62
     2
100
AcDbBlockReference
  2
_OPEN
 10
420.5088198590716
 20
333.4378573095532
 30
0.0
 41
2.5
 42
2.5
 43
2.5
  0
MTEXT
  5
18E6
330
18
100
AcDbEntity
  8
0
  6
ByBlock
 62
     6
100
AcDbMText
 10
417.0088198590715
 20
335.3128573095532
 30
0.0
 40
2.5
 41
0.0
 71
     5
 72
     1
  1
\A1;7
  7
STYLE3
 73
     1
 44
1.0
  0
POINT
  5
18E7
330
18
100
AcDbEntity
  8
DEFPOINTS
  6
ByBlock
 62
     0
100
AcDbPoint
 10
413.5088198590715
 20
327.9523521654187
 30
0.0
  0
POINT
  5
18E8
330
18
100
AcDbEntity
  8
DEFPOINTS
  6
ByBlock
 62
     0
100
AcDbPoint
 10
420.5088198590716
 20
307.4690517808001
 30
0.0
  0
POINT
  5
18E9
330
18
100
AcDbEntity
  8
DEFPOINTS
  6
ByBlock
 62
     0
100
AcDbPoint
 10
420.5088198590716
 20
333.4378573095532
 30
0.0
  0
LINE
  5
18EA
330
18
100
AcDbEntity
  8
0
  6
ByBlock
 62
     2
100
AcDbLine
 10
301.1249334699483
 20
281.6690517808
 30
0.0
 11
301.1249334699483
 21
333.7329918896229
 31
0.0
  0
LINE
  5
18EB
330
18
100
AcDbEntity
  8
0
  6
ByBlock
 62
     2
100
AcDbLine
 10
350.6249334699483
 20
281.6690517808
 30
0.0
 11
350.6249334699483
 21
333.7329918896229
 31
0.0
  0
LINE
  5
18EC
330
18
100
AcDbEntity
  8
0
  6
ByBlock
 62
     2
100
AcDbLine
 10
303.6249334699483
 20
332.4829918896229
 30
0.0
 11
348.1249334699483
 21
332.4829918896229
 31
0.0
  0
INSERT
  5
18ED
330
18
100
AcDbEntity
  8
0
  6
ByBlock
 62
     2
100
AcDbBlockReference
  2
_OPEN
 10
301.1249334699483
 20
332.4829918896229
 30
0.0
 41
2.5
 42
2.5
 43
2.5
 50
180.0
  0
INSERT
  5
18EE
330
18
100
AcDbEntity
  8
0
  6
ByBlock
 62
     2
100
AcDbBlockReference
  2
_OPEN
 10
350.6249334699483
 20
332.4829918896229
 30
0.0
 41
2.5
 42
2.5
 43
2.5
  0
MTEXT
  5
18EF
330
18
100
AcDbEntity
  8
0
  6
ByBlock
 62
     6
100
AcDbMText
 10
325.8749334699483
 20
334.3579918896229
 30
0.0
 40
2.5
 41
0.0
 71
     5
 72
     1
  1
\A1;φ49.5
  7
STYLE3
 73
     1
 44
1.0
  0
POINT
  5
18F0
330
18
100
AcDbEntity
  8
DEFPOINTS
  6
ByBlock
 62
     0
100
AcDbPoint
 10
301.1249334699483
 20
281.6690517808
 30
0.0
  0
POINT
  5
18F1
330
18
100
AcDbEntity
  8
DEFPOINTS
  6
ByBlock
 62
     0
100
AcDbPoint
 10
350.6249334699483
 20
281.6690517808
 30
0.0
  0
POINT
  5
18F2
330
18
100
AcDbEntity
  8
DEFPOINTS
  6
ByBlock
 62
     0
100
AcDbPoint
 10
350.6249334699483
 20
332.4829918896229
 30
0.0
  0
LINE
  5
18F3
330
18
100
AcDbEntity
  8
0
  6
ByBlock
 62
     2
100
AcDbLine
 10
402.3088198590715
 20
309.5190517808001
 30
0.0
 11
386.6170823376514
 21
309.5190517808001
 31
0.0
  0
LINE
  5
18F4
330
18
100
AcDbEntity
  8
0
  6
ByBlock
 62
     2
100
AcDbLine
 10
402.3088198590715
 20
253.8190517808
 30
0.0
 11
386.6170823376514
 21
253.8190517808
 31
0.0
  0
LINE
  5
18F5
330
18
100
AcDbEntity
  8
0
  6
ByBlock
 62
     2
100
AcDbLine
 10
387.8670823376514
 20
307.0190517808001
 30
0.0
 11
387.8670823376514
 21
256.3190517808
 31
0.0
  0
INSERT
  5
18F6
330
18
100
AcDbEntity
  8
0
  6
ByBlock
 62
     2
100
AcDbBlockReference
  2
_OPEN
 10
387.8670823376514
 20
309.5190517808001
 30
0.0
 41
2.5
 42
2.5
 43
2.5
 50
90.0
  0
INSERT
  5
18F7
330
18
100
AcDbEntity
  8
0
  6
ByBlock
 62
     2
100
AcDbBlockReference
  2
_OPEN
 10
387.8670823376514
 20
253.8190517808
 30
0.0
 41
2.5
 42
2.5
 43
2.5
 50
270.0
  0
MTEXT
  5
18F8
330
18
100
AcDbEntity
  8
0
  6
ByBlock
 62
     6
100
AcDbMText
 10
385.9920823376514
 20
281.6690517808
 30
0.0
 40
2.5
 41
0.0
 71
     5
 72
     1
  1
\A1;φ55.7
  7
STYLE3
 11
0.0000000000000001
 21
1.0
 31
0.0
 73
     1
 44
1.0
  0
POINT
  5
18F9
330
18
100
AcDbEntity
  8
DEFPOINTS
  6
ByBlock
 62
     0
100
AcDbPoint
 10
402.3088198590715
 20
309.5190517808001
 30
0.0
  0
POINT
  5
18FA
330
18
100
AcDbEntity
  8
DEFPOINTS
  6
ByBlock
 62
     0
100
AcDbPoint
 10
402.3088198590715
 20
253.8190517808
 30
0.0
  0
POINT
  5
18FB
330
18
100
AcDbEntity
  8
DEFPOINTS
  6
ByBlock
 62
     0
100
AcDbPoint
 10
387.8670823376514
 20
253.8190517808
 30
0.0
  0
LINE
  5
18FC
330
18
100
AcDbEntity
  8
0
  6
ByBlock
 62
     2
100
AcDbLine
 10
283.9751082153473
 20
324.2690517808
 30
0.0
 11
277.004297056496
 21
324.2690517808
 31
0.0
  0
LINE
  5
18FD
330
18
100
AcDbEntity
  8
0
  6
ByBlock
 62
     2
100
AcDbLine
 10
283.9751082153473
 20
221.6690517808
 30
0.0
 11
277.004297056496
 21
221.6690517808
 31
0.0
  0
LINE
  5
18FE
330
18
100
AcDbEntity
  8
0
  6
ByBlock
 62
     2
100
AcDbLine
 10
278.254297056496
 20
321.7690517808001
 30
0.0
 11
278.254297056496
 21
224.1690517808
 31
0.0
  0
INSERT
  5
18FF
330
18
100
AcDbEntity
  8
0
  6
ByBlock
 62
     2
100
AcDbBlockReference
  2
_OPEN
 10
278.254297056496
 20
324.2690517808
 30
0.0
 41
2.5
 42
2.5
 43
2.5
 50
90.0
  0
INSERT
  5
1900
330
18
100
AcDbEntity
  8
0
  6
ByBlock
 62
     2
100
AcDbBlockReference
  2
_OPEN
 10
278.254297056496
 20
221.6690517808
 30
0.0
 41
2.5
 42
2.5
 43
2.5
 50
270.0
  0
MTEXT
  5
1901
330
18
100
AcDbEntity
  8
0
  6
ByBlock
 62
     6
100
AcDbMText
 10
276.379297056496
 20
272.9690517808001
 30
0.0
 40
2.5
 41
0.0
 71
     5
 72
     1
  1
\A1;102.6
  7
STYLE3
 11
0.0000000000000001
 21
1.0
 31
0.0
 73
     1
 44
1.0
  0
POINT
  5
1902
330
18
100
AcDbEntity
  8
DEFPOINTS
  6
ByBlock
 62
     0
100
AcDbPoint
 10
283.9751082153473
 20
324.2690517808
 30
0.0
  0
POINT
  5
1903
330
18
100
AcDbEntity
  8
DEFPOINTS
  6
ByBlock
 62
     0
100
AcDbPoint
 10
283.9751082153473
 20
221.6690517808
 30
0.0
  0
POINT
  5
1904
330
18
100
AcDbEntity
  8
DEFPOINTS
  6
ByBlock
 62
     0
100
AcDbPoint
 10
278.254297056496
 20
221.6690517808
 30
0.0
  0
LINE
  5
1905
330
18
100
AcDbEntity
  8
0
  6
ByBlock
 62
     2
100
AcDbLine
 10
325.8749334699483
 20
324.2690517808
 30
0.0
 11
283.9751082153473
 21
324.2690517808
 31
0.0
  0
LINE
  5
1906
330
18
100
AcDbEntity
  8
0
  6
ByBlock
 62
     2
100
AcDbLine
 10
298.0249334699483
 20
281.6690517808
 30
0.0
 11
283.9751082153473
 21
281.6690517808
 31
0.0
  0
LINE
  5
1907
330
18
100
AcDbEntity
  8
0
  6
ByBlock
 62
     2
100
AcDbLine
 10
285.2251082153472
 20
321.7690517808001
 30
0.0
 11
285.2251082153472
 21
284.1690517808
 31
0.0
  0
INSERT
  5
1908
330
18
100
AcDbEntity
  8
0
  6
ByBlock
 62
     2
100
AcDbBlockReference
  2
_OPEN
 10
285.2251082153472
 20
324.2690517808
 30
0.0
 41
2.5
 42
2.5
 43
2.5
 50
90.0
  0
INSERT
  5
1909
330
18
100
AcDbEntity
  8
0
  6
ByBlock
 62
     2
100
AcDbBlockReference
  2
_OPEN
 10
285.2251082153472
 20
281.6690517808
 30
0.0
 41
2.5
 42
2.5
 43
2.5
 50
270.0
  0
MTEXT
  5
190A
330
18
100
AcDbEntity
  8
0
  6
ByBlock
 62
     6
100
AcDbMText
 10
283.3501082153473
 20
302.9690517808
 30
0.0
 40
2.5
 41
0.0
 71
     5
 72
     1
  1
\A1;42.6
  7
STYLE3
 11
0.0000000000000001
 21
1.0
 31
0.0
 73
     1
 44
1.0
  0
POINT
  5
190B
330
18
100
AcDbEntity
  8
DEFPOINTS
  6
ByBlock
 62
     0
100
AcDbPoint
 10
325.8749334699483
 20
324.2690517808
 30
0.0
  0
POINT
  5
190C
330
18
100
AcDbEntity
  8
DEFPOINTS
  6
ByBlock
 62
     0
100
AcDbPoint
 10
298.0249334699483
 20
281.6690517808
 30
0.0
  0
POINT
  5
190D
330
18
100
AcDbEntity
  8
DEFPOINTS
  6
ByBlock
 62
     0
100
AcDbPoint
 10
285.2251082153472
 20
281.6690517808
 30
0.0
  0
LINE
  5
190E
330
18
100
AcDbEntity
  8
0
  6
ByBlock
 62
     2
100
AcDbLine
 10
323.3749334699484
 20
232.6640852548197
 30
0.0
 11
323.3749334699484
 21
234.8913261929309
 31
0.0
  0
LINE
  5
190F
330
18
100
AcDbEntity
  8
0
  6
ByBlock
 62
     2
100
AcDbLine
 10
328.3749334699483
 20
232.387851837316
 30
0.0
 11
328.3749334699483
 21
234.8913261929309
 31
0.0
  0
LINE
  5
1910
330
18
100
AcDbEntity
  8
0
  6
ByBlock
 62
     2
100
AcDbLine
 10
320.8749334699484
 20
233.6413261929309
 30
0.0
 11
318.3749334699484
 21
233.6413261929309
 31
0.0
  0
LINE
  5
1911
330
18
100
AcDbEntity
  8
0
  6
ByBlock
 62
     2
100
AcDbLine
 10
330.8749334699484
 20
233.6413261929309
 30
0.0
 11
339.1487429937579
 21
233.6413261929309
 31
0.0
  0
LINE
  5
1912
330
18
100
AcDbEntity
  8
0
  6
ByBlock
 62
     2
100
AcDbLine
 10
323.3749334699484
 20
233.6413261929309
 30
0.0
 11
328.3749334699483
 21
233.6413261929309
 31
0.0
  0
INSERT
  5
1913
330
18
100
AcDbEntity
  8
0
  6
ByBlock
 62
     2
100
AcDbBlockReference
  2
_OPEN
 10
323.3749334699484
 20
233.6413261929309
 30
0.0
 41
2.5
 42
2.5
 43
2.5
  0
INSERT
  5
1914
330
18
100
AcDbEntity
  8
0
  6
ByBlock
 62
     2
100
AcDbBlockReference
  2
_OPEN
 10
328.3749334699483
 20
233.6413261929309
 30
0.0
 41
2.5
 42
2.5
 43
2.5
 50
180.0
  0
MTEXT
  5
1915
330
18
100
AcDbEntity
  8
0
  6
ByBlock
 62
     6
100
AcDbMText
 10
336.2618382318531
 20
235.5163261929309
 30
0.0
 40
2.5
 41
0.0
 71
     5
 72
     1
  1
\A1;φ5
  7
STYLE3
 73
     1
 44
1.0
  0
POINT
  5
1916
330
18
100
AcDbEntity
  8
DEFPOINTS
  6
ByBlock
 62
     0
100
AcDbPoint
 10
323.3749334699484
 20
232.6640852548197
 30
0.0
  0
POINT
  5
1917
330
18
100
AcDbEntity
  8
DEFPOINTS
  6
ByBlock
 62
     0
100
AcDbPoint
 10
328.3749334699483
 20
232.387851837316
 30
0.0
  0
POINT
  5
1918
330
18
100
AcDbEntity
  8
DEFPOINTS
  6
ByBlock
 62
     0
100
AcDbPoint
 10
328.3749334699483
 20
233.6413261929309
 30
0.0
  0
LINE
  5
1919
330
18
100
AcDbEntity
  8
0
  6
ByBlock
 62
     2
100
AcDbLine
 10
323.3749334699484
 20
230.6690517808
 30
0.0
 11
291.6510993776422
 21
230.6690517808
 31
0.0
  0
LINE
  5
191A
330
18
100
AcDbEntity
  8
0
  6
ByBlock
 62
     2
100
AcDbLine
 10
292.9010993776422
 20
239.1690517808
 30
0.0
 11
292.9010993776422
 21
241.6690517808
 31
0.0
  0
LINE
  5
191B
330
18
100
AcDbEntity
  8
0
  6
ByBlock
 62
     2
100
AcDbLine
 10
292.9010993776422
 20
228.1690517808
 30
0.0
 11
292.9010993776422
 21
225.6690517808
 31
0.0
  0
LINE
  5
191C
330
18
100
AcDbEntity
  8
0
  6
ByBlock
 62
     2
100
AcDbLine
 10
292.9010993776422
 20
236.6690517808
 30
0.0
 11
292.9010993776422
 21
230.6690517808
 31
0.0
  0
INSERT
  5
191D
330
18
100
AcDbEntity
  8
0
  6
ByBlock
 62
     2
100
AcDbBlockReference
  2
_OPEN
 10
292.9010993776422
 20
236.6690517808
 30
0.0
 41
2.5
 42
2.5
 43
2.5
 50
270.0
  0
INSERT
  5
191E
330
18
100
AcDbEntity
  8
0
  6
ByBlock
 62
     2
100
AcDbBlockReference
  2
_OPEN
 10
292.9010993776422
 20
230.6690517808
 30
0.0
 41
2.5
 42
2.5
 43
2.5
 50
90.0
  0
MTEXT
  5
191F
330
18
100
AcDbEntity
  8
0
  6
ByBlock
 62
     6
100
AcDbMText
 10
291.0260993776422
 20
233.6690517808
 30
0.0
 40
2.5
 41
0.0
 71
     5
 72
     1
  1
\A1;6
  7
STYLE3
 11
0.0000000000000001
 21
1.0
 31
0.0
 73
     1
 44
1.0
  0
POINT
  5
1920
330
18
100
AcDbEntity
  8
DEFPOINTS
  6
ByBlock
 62
     0
100
AcDbPoint
 10
322.1749334699484
 20
236.6690517808
 30
0.0
  0
POINT
  5
1921
330
18
100
AcDbEntity
  8
DEFPOINTS
  6
ByBlock
 62
     0
100
AcDbPoint
 10
323.3749334699484
 20
230.6690517808
 30
0.0
  0
POINT
  5
1922
330
18
100
AcDbEntity
  8
DEFPOINTS
  6
ByBlock
 62
     0
100
AcDbPoint
 10
292.9010993776422
 20
230.6690517808
 30
0.0
  0
LINE
  5
1923
330
18
100
AcDbEntity
  8
0
  6
ByBlock
 62
     2
100
AcDbLine
 10
325.8749334699483
 20
221.6690517808
 30
0.0
 11
283.9751082153473
 21
221.6690517808
 31
0.0
  0
LINE
  5
1924
330
18
100
AcDbEntity
  8
0
  6
ByBlock
 62
     2
100
AcDbLine
 10
285.2251082153472
 20
279.1690517808
 30
0.0
 11
285.2251082153472
 21
224.1690517808
 31
0.0
  0
INSERT
  5
1925
330
18
100
AcDbEntity
  8
0
  6
ByBlock
 62
     2
100
AcDbBlockReference
  2
_OPEN
 10
285.2251082153472
 20
281.6690517808
 30
0.0
 41
2.5
 42
2.5
 43
2.5
 50
90.0
  0
INSERT
  5
1926
330
18
100
AcDbEntity
  8
0
  6
ByBlock
 62
     2
100
AcDbBlockReference
  2
_OPEN
 10
285.2251082153472
 20
221.6690517808
 30
0.0
 41
2.5
 42
2.5
 43
2.5
 50
270.0
  0
MTEXT
  5
1927
330
18
100
AcDbEntity
  8
0
  6
ByBlock
 62
     6
100
AcDbMText
 10
283.3501082153473
 20
251.6690517808001
 30
0.0
 40
2.5
 41
0.0
 71
     5
 72
     1
  1
\A1;60
  7
STYLE3
 11
0.0000000000000001
 21
1.0
 31
0.0
 73
     1
 44
1.0
  0
POINT
  5
1928
330
18
100
AcDbEntity
  8
DEFPOINTS
  6
ByBlock
 62
     0
100
AcDbPoint
 10
298.0249334699483
 20
281.6690517808
 30
0.0
  0
POINT
  5
1929
330
18
100
AcDbEntity
  8
DEFPOINTS
  6
ByBlock
 62
     0
100
AcDbPoint
 10
325.8749334699483
 20
221.6690517808
 30
0.0
  0
POINT
  5
192A
330
18
100
AcDbEntity
  8
DEFPOINTS
  6
ByBlock
 62
     0
100
AcDbPoint
 10
285.2251082153472
 20
221.6690517808
 30
0.0
  0
LINE
  5
192B
330
18
100
AcDbEntity
  8
0
  6
ByBlock
 62
     2
100
AcDbLine
 10
309.1066526850814
 20
221.6690517808
 30
0.0
 11
291.6510993776422
 21
221.6690517808
 31
0.0
  0
LINE
  5
192C
330
18
100
AcDbEntity
  8
0
  6
ByBlock
 62
     2
100
AcDbLine
 10
292.9010993776422
 20
228.1690517808
 30
0.0
 11
292.9010993776422
 21
224.1690517808
 31
0.0
  0
INSERT
  5
192D
330
18
100
AcDbEntity
  8
0
  6
ByBlock
 62
     2
100
AcDbBlockReference
  2
_OPEN
 10
292.9010993776422
 20
230.6690517808
 30
0.0
 41
2.5
 42
2.5
 43
2.5
 50
90.0
  0
INSERT
  5
192E
330
18
100
AcDbEntity
  8
0
  6
ByBlock
 62
     2
100
AcDbBlockReference
  2
_OPEN
 10
292.9010993776422
 20
221.6690517808
 30
0.0
 41
2.5
 42
2.5
 43
2.5
 50
270.0
  0
MTEXT
  5
192F
330
18
100
AcDbEntity
  8
0
  6
ByBlock
 62
     6
100
AcDbMText
 10
291.0260993776422
 20
226.1690517808
 30
0.0
 40
2.5
 41
0.0
 71
     5
 72
     1
  1
\A1;9
  7
STYLE3
 11
0.0000000000000001
 21
1.0
 31
0.0
 73
     1
 44
1.0
  0
POINT
  5
1930
330
18
100
AcDbEntity
  8
DEFPOINTS
  6
ByBlock
 62
     0
100
AcDbPoint
 10
323.3749334699484
 20
230.6690517808
 30
0.0
  0
POINT
  5
1931
330
18
100
AcDbEntity
  8
DEFPOINTS
  6
ByBlock
 62
     0
100
AcDbPoint
 10
309.1066526850814
 20
221.6690517808
 30
0.0
  0
POINT
  5
1932
330
18
100
AcDbEntity
  8
DEFPOINTS
  6
ByBlock
 62
     0
100
AcDbPoint
 10
292.9010993776422
 20
221.6690517808
 30
0.0
  0
LINE
  5
1933
330
18
100
AcDbEntity
  8
ﾊｯﾁﾝｸ
100
AcDbLine
 10
323.3749334699482
 20
230.0619228853204
 30
0.0
 11
323.7820623654279
 21
230.4690517808001
 31
0.0
  0
LINE
  5
1934
330
18
100
AcDbEntity
  8
ﾊｯﾁﾝｸ
100
AcDbLine
 10
323.3749334699483
 20
228.71488446716
 30
0.0
 11
325.1291007835884
 21
230.4690517808001
 31
0.0
  0
LINE
  5
1935
330
18
100
AcDbEntity
  8
ﾊｯﾁﾝｸ
100
AcDbLine
 10
323.3761392017488
 20
227.3690517808001
 30
0.0
 11
325.8749334699484
 21
229.8678460489997
 31
0.0
  0
LINE
  5
1936
330
18
100
AcDbEntity
  8
ﾊｯﾁﾝｸ
100
AcDbLine
 10
324.723177619909
 20
227.3690517808001
 30
0.0
 11
325.8749334699483
 21
228.5208076308393
 31
0.0
  0
LINE
  5
1937
330
18
100
AcDbEntity
  8
ﾊｯﾁﾝｸ
100
AcDbLine
 10
323.4689813941337
 20
227.3690517808001
 30
0.0
 11
323.3749334699482
 21
227.4630997049855
 31
0.0
  0
LINE
  5
1938
330
18
100
AcDbEntity
  8
ﾊｯﾁﾝｸ
100
AcDbLine
 10
324.8160198122941
 20
227.3690517808
 30
0.0
 11
323.3749334699482
 21
228.8101381231459
 31
0.0
  0
LINE
  5
1939
330
18
100
AcDbEntity
  8
ﾊｯﾁﾝｸ
100
AcDbLine
 10
325.8749334699483
 20
227.6571765413062
 30
0.0
 11
323.3749334699482
 21
230.1571765413062
 31
0.0
  0
LINE
  5
193A
330
18
100
AcDbEntity
  8
ﾊｯﾁﾝｸ
100
AcDbLine
 10
325.8749334699483
 20
229.0042149594665
 30
0.0
 11
324.4100966486148
 21
230.4690517808
 31
0.0
  0
LINE
  5
193B
330
18
100
AcDbEntity
  8
ﾊｯﾁﾝｸ
100
AcDbLine
 10
325.8749334699483
 20
230.351253377627
 30
0.0
 11
325.7571350667752
 21
230.4690517808
 31
0.0
  0
HATCH
  5
193C
330
18
100
AcDbEntity
  8
針
100
AcDbHatch
 10
0.0
 20
0.0
 30
0.0
210
0.0
220
0.0
230
1.0
  2
SOLID
 70
     1
 71
     0
 91
        2
 92
        7
 72
     1
 73
     1
 93
        5
 10
321.1258448241252
 20
271.4370179054512
 42
0.31735696877887
 10
322.1351778194573
 20
270.6685129340888
 42
0.0
 10
322.4093945148271
 20
271.0241788536117
 42
0.0
 10
322.4004628195765
 20
271.0525065718447
 42
-0.4142135623731173
 10
321.4596457568871
 20
271.5422649352777
 42
0.0
 97
        0
 92
        7
 72
     1
 73
     1
 93
        4
 10
321.1258448241252
 20
271.4370179054512
 42
0.0
 10
321.4596457568871
 20
271.5422649352777
 42
-0.4142135623730728
 10
321.9494041203201
 20
272.483081997967
 42
0.0
 10
321.8441570904936
 20
272.8168829307289
 42
0.4142135623730844
 97
        0
 75
     0
 76
     1
 47
0.0161501285364394
 98
        2
 10
321.4649019888831
 20
271.1209751923708
 10
321.26645470904
 20
271.8040760448525
450
        0
451
        0
460
0.0
461
0.0
452
        0
462
0.0
453
        0
470

  0
HATCH
  5
193D
330
18
100
AcDbEntity
  8
針
100
AcDbHatch
 10
0.0
 20
0.0
 30
0.0
210
0.0
220
0.0
230
1.0
  2
SOLID
 70
     1
 71
     0
 91
        4
 92
        7
 72
     1
 73
     1
 93
        4
 10
322.3602717874698
 20
272.8520681009036
 42
0.0
 10
322.3013005046222
 20
272.5070718867225
 42
-0.4142135623730951
 10
322.914211071765
 20
271.6414272502322
 42
0.0
 10
323.2592072859461
 20
271.5824559673844
 42
0.4142135623730996
 97
        0
 92
        7
 72
     1
 73
     1
 93
        5
 10
322.3013005046222
 20
272.5070718867225
 42
0.0
 10
322.3602717874698
 20
272.8520681009036
 42
0.3173569687788799
 10
321.2153868631062
 20
272.3056328380962
 42
0.0
 10
321.4063780723331
 20
271.8991658648652
 42
0.0
 10
321.4356558681316
 20
271.8941613195797
 42
-0.4142135623730839
 97
        0
 92
        7
 72
     1
 73
     1
 93
        4
 10
323.2592072859461
 20
271.5824559673844
 42
0.0
 10
322.914211071765
 20
271.6414272502322
 42
-0.4142135623730951
 10
322.0485664352746
 20
271.0285166830892
 42
0.0
 10
321.9895951524268
 20
270.6835204689082
 42
0.4142135623730996
 97
        0
 92
        7
 72
     1
 73
     1
 93
        4
 10
322.0485664352746
 20
271.0285166830892
 42
-0.1036385141593389
 10
321.762425944079
 20
271.1414257503345
 42
0.0
 10
321.976496658671
 20
270.6858410364104
 42
0.003023315109616
 10
321.9895951524268
 20
270.6835204689082
 42
0.0
 97
        0
 75
     0
 76
     1
 47
0.0223982890607777
 98
        4
 10
323.0370579959753
 20
272.2539014234176
 10
321.9145221490107
 20
272.6048419947881
 10
323.036995691213
 20
271.3222630543491
 10
321.9742315226028
 20
270.9585686868909
450
        0
451
        0
460
0.0
461
0.0
452
        0
462
0.0
453
        0
470

  0
CIRCLE
  5
193E
330
18
100
AcDbEntity
  8
針
100
AcDbCircle
 10
322.1749334699483
 20
271.7677942849058
 30
0.0
 40
1.1
  0
CIRCLE
  5
193F
330
18
100
AcDbEntity
  8
針
100
AcDbCircle
 10
322.1749334699483
 20
271.7677942849058
 30
0.0
 40
0.75
  0
HATCH
  5
1940
330
18
100
AcDbEntity
  8
針
100
AcDbHatch
 10
0.0
 20
0.0
 30
0.0
210
0.0
220
0.0
230
1.0
  2
SOLID
 70
     1
 71
     0
 91
        1
 92
        7
 72
     1
 73
     1
 93
        7
 10
326.8718084402918
 20
271.5693868431065
 42
0.0
 10
326.8739026822801
 20
271.6693649114541
 42
0.0
 10
326.8759969242684
 20
271.7693429798016
 42
0.0
 10
323.6350179217675
 20
271.8821500209917
 42
-0.2935495917910092
 10
323.1906990139346
 20
272.1899558175562
 42
-0.2104432563350663
 10
323.1721300382777
 20
271.3034678866556
 42
-0.2935491884945053
 10
323.6289484584269
 20
271.5923968673099
 42
0.0
 97
        0
 75
     0
 76
     1
 47
0.0140573597042523
 98
        1
 10
325.0676314286573
 20
271.6485863294869
450
        0
451
        0
460
0.0
461
0.0
452
        0
462
0.0
453
        0
470

  0
LINE
  5
1941
330
18
100
AcDbEntity
  8
針
100
AcDbLine
 10
323.628948458427
 20
271.5923968673099
 30
0.0
 11
326.8718084402917
 21
271.5693868431066
 31
0.0
  0
LINE
  5
1942
330
18
100
AcDbEntity
  8
針
100
AcDbLine
 10
323.6350179217676
 20
271.8821500209917
 30
0.0
 11
326.8759969242684
 21
271.7693429798016
 31
0.0
  0
CIRCLE
  5
1943
330
18
100
AcDbEntity
  8
針
 62
     4
100
AcDbCircle
 10
322.1749334699483
 20
271.7677942849058
 30
0.0
 40
0.4
  0
ARC
  5
1944
330
18
100
AcDbEntity
  8
針
100
AcDbCircle
 10
323.6254007497522
 20
271.0924094537053
 30
0.0
 40
0.5
100
AcDbArc
 50
89.59345912073466
 51
155.0317787024804
  0
ARC
  5
1945
330
18
100
AcDbEntity
  8
針
100
AcDbCircle
 10
323.6524106248371
 20
272.3818474233063
 30
0.0
 40
0.5
100
AcDbArc
 50
202.5682212975195
 51
268.0065408792652
  0
LINE
  5
1946
330
18
100
AcDbEntity
  8
文字
100
AcDbLine
 10
326.8718084402917
 20
271.5693868431066
 30
0.0
 11
326.8759969242684
 21
271.7693429798016
 31
0.0
  0
LINE
  5
1947
330
18
100
AcDbEntity
  8
0
  6
ByBlock
 62
     2
100
AcDbLine
 10
386.6170823376514
 20
253.8190517808
 30
0.0
 11
379.7649261662696
 21
253.8190517808
 31
0.0
  0
LINE
  5
1948
330
18
100
AcDbEntity
  8
0
  6
ByBlock
 62
     2
100
AcDbLine
 10
413.5088198590716
 20
221.6690517808
 30
0.0
 11
379.7649261662696
 21
221.6690517808
 31
0.0
  0
LINE
  5
1949
330
18
100
AcDbEntity
  8
0
  6
ByBlock
 62
     2
100
AcDbLine
 10
381.0149261662696
 20
251.3190517807999
 30
0.0
 11
381.0149261662696
 21
224.1690517808
 31
0.0
  0
INSERT
  5
194A
330
18
100
AcDbEntity
  8
0
  6
ByBlock
 62
     2
100
AcDbBlockReference
  2
_OPEN
 10
381.0149261662696
 20
253.8190517808
 30
0.0
 41
2.5
 42
2.5
 43
2.5
 50
90.0
  0
INSERT
  5
194B
330
18
100
AcDbEntity
  8
0
  6
ByBlock
 62
     2
100
AcDbBlockReference
  2
_OPEN
 10
381.0149261662696
 20
221.6690517808
 30
0.0
 41
2.5
 42
2.5
 43
2.5
 50
270.0
  0
MTEXT
  5
194C
330
18
100
AcDbEntity
  8
0
  6
ByBlock
 62
     6
100
AcDbMText
 10
379.1399261662696
 20
237.7440517808
 30
0.0
 40
2.5
 41
0.0
 71
     5
 72
     1
  1
\A1;32.15
  7
STYLE3
 11
0.0000000000000001
 21
1.0
 31
0.0
 73
     1
 44
1.0
  0
POINT
  5
194D
330
18
100
AcDbEntity
  8
DEFPOINTS
  6
ByBlock
 62
     0
100
AcDbPoint
 10
386.6170823376514
 20
253.8190517808
 30
0.0
  0
POINT
  5
194E
330
18
100
AcDbEntity
  8
DEFPOINTS
  6
ByBlock
 62
     0
100
AcDbPoint
 10
413.5088198590716
 20
221.6690517808
 30
0.0
  0
POINT
  5
194F
330
18
100
AcDbEntity
  8
DEFPOINTS
  6
ByBlock
 62
     0
100
AcDbPoint
 10
381.0149261662696
 20
221.6690517808
 30
0.0
  0
LINE
  5
1950
330
18
100
AcDbEntity
  8
ﾊｯﾁﾝｸ
100
AcDbLine
 10
411.0088198590716
 20
230.0619228853204
 30
0.0
 11
411.4159487545513
 21
230.4690517808001
 31
0.0
  0
LINE
  5
1951
330
18
100
AcDbEntity
  8
ﾊｯﾁﾝｸ
100
AcDbLine
 10
411.0088198590717
 20
228.71488446716
 30
0.0
 11
412.7629871727117
 21
230.4690517808
 31
0.0
  0
LINE
  5
1952
330
18
100
AcDbEntity
  8
ﾊｯﾁﾝｸ
100
AcDbLine
 10
411.010025590872
 20
227.3690517808
 30
0.0
 11
413.5088198590717
 21
229.8678460489997
 31
0.0
  0
LINE
  5
1953
330
18
100
AcDbEntity
  8
ﾊｯﾁﾝｸ
100
AcDbLine
 10
412.3570640090324
 20
227.3690517808
 30
0.0
 11
413.5088198590716
 21
228.5208076308393
 31
0.0
  0
LINE
  5
1954
330
18
100
AcDbEntity
  8
ﾊｯﾁﾝｸ
100
AcDbLine
 10
411.1028677832571
 20
227.3690517808001
 30
0.0
 11
411.0088198590717
 21
227.4630997049854
 31
0.0
  0
LINE
  5
1955
330
18
100
AcDbEntity
  8
ﾊｯﾁﾝｸ
100
AcDbLine
 10
412.4499062014175
 20
227.3690517808
 30
0.0
 11
411.0088198590717
 21
228.8101381231458
 31
0.0
  0
LINE
  5
1956
330
18
100
AcDbEntity
  8
ﾊｯﾁﾝｸ
100
AcDbLine
 10
413.5088198590716
 20
227.6571765413062
 30
0.0
 11
411.0088198590717
 21
230.1571765413062
 31
0.0
  0
LINE
  5
1957
330
18
100
AcDbEntity
  8
ﾊｯﾁﾝｸ
100
AcDbLine
 10
413.5088198590717
 20
229.0042149594665
 30
0.0
 11
412.0439830377383
 21
230.4690517808
 31
0.0
  0
LINE
  5
1958
330
18
100
AcDbEntity
  8
ﾊｯﾁﾝｸ
100
AcDbLine
 10
413.5088198590716
 20
230.351253377627
 30
0.0
 11
413.3910214558986
 21
230.4690517808
 31
0.0
  0
LINE
  5
1959
330
18
100
AcDbEntity
  8
0
  6
ByBlock
 62
     2
100
AcDbLine
 10
395.5947665107371
 20
253.8190517808
 30
0.0
 11
394.3447665107371
 21
253.8190517808
 31
0.0
  0
LINE
  5
195A
330
18
100
AcDbEntity
  8
0
  6
ByBlock
 62
     2
100
AcDbLine
 10
409.5088198590716
 20
241.1690517808
 30
0.0
 11
394.3447665107371
 21
241.1690517808
 31
0.0
  0
LINE
  5
195B
330
18
100
AcDbEntity
  8
0
  6
ByBlock
 62
     2
100
AcDbLine
 10
395.5947665107371
 20
251.3190517807999
 30
0.0
 11
395.5947665107371
 21
243.6690517808
 31
0.0
  0
INSERT
  5
195C
330
18
100
AcDbEntity
  8
0
  6
ByBlock
 62
     2
100
AcDbBlockReference
  2
_OPEN
 10
395.5947665107371
 20
253.8190517808
 30
0.0
 41
2.5
 42
2.5
 43
2.5
 50
90.0
  0
INSERT
  5
195D
330
18
100
AcDbEntity
  8
0
  6
ByBlock
 62
     2
100
AcDbBlockReference
  2
_OPEN
 10
395.5947665107371
 20
241.1690517808
 30
0.0
 41
2.5
 42
2.5
 43
2.5
 50
270.0
  0
MTEXT
  5
195E
330
18
100
AcDbEntity
  8
0
  6
ByBlock
 62
     6
100
AcDbMText
 10
393.7197665107371
 20
247.4940517808
 30
0.0
 40
2.5
 41
0.0
 71
     5
 72
     1
  1
\A1;12.65
  7
STYLE3
 11
0.0000000000000001
 21
1.0
 31
0.0
 73
     1
 44
1.0
  0
POINT
  5
195F
330
18
100
AcDbEntity
  8
DEFPOINTS
  6
ByBlock
 62
     0
100
AcDbPoint
 10
395.5947665107371
 20
253.8190517808
 30
0.0
  0
POINT
  5
1960
330
18
100
AcDbEntity
  8
DEFPOINTS
  6
ByBlock
 62
     0
100
AcDbPoint
 10
409.5088198590716
 20
241.1690517808
 30
0.0
  0
POINT
  5
1961
330
18
100
AcDbEntity
  8
DEFPOINTS
  6
ByBlock
 62
     0
100
AcDbPoint
 10
395.5947665107371
 20
241.1690517808
 30
0.0
  0
LINE
  5
1962
330
18
100
AcDbEntity
  8
0
  6
ByBlock
 62
     2
100
AcDbLine
 10
409.8088198590717
 20
236.6690517808
 30
0.0
 11
386.6170823376514
 21
236.6690517808
 31
0.0
  0
LINE
  5
1963
330
18
100
AcDbEntity
  8
0
  6
ByBlock
 62
     2
100
AcDbLine
 10
387.8670823376514
 20
251.3190517807999
 30
0.0
 11
387.8670823376514
 21
239.1690517808
 31
0.0
  0
INSERT
  5
1964
330
18
100
AcDbEntity
  8
0
  6
ByBlock
 62
     2
100
AcDbBlockReference
  2
_OPEN
 10
387.8670823376514
 20
253.8190517808
 30
0.0
 41
2.5
 42
2.5
 43
2.5
 50
90.0
  0
INSERT
  5
1965
330
18
100
AcDbEntity
  8
0
  6
ByBlock
 62
     2
100
AcDbBlockReference
  2
_OPEN
 10
387.8670823376514
 20
236.6690517808
 30
0.0
 41
2.5
 42
2.5
 43
2.5
 50
270.0
  0
MTEXT
  5
1966
330
18
100
AcDbEntity
  8
0
  6
ByBlock
 62
     6
100
AcDbMText
 10
385.9920823376514
 20
245.2440517808
 30
0.0
 40
2.5
 41
0.0
 71
     5
 72
     1
  1
\A1;17.15
  7
STYLE3
 11
0.0000000000000001
 21
1.0
 31
0.0
 73
     1
 44
1.0
  0
POINT
  5
1967
330
18
100
AcDbEntity
  8
DEFPOINTS
  6
ByBlock
 62
     0
100
AcDbPoint
 10
402.3088198590715
 20
253.8190517808
 30
0.0
  0
POINT
  5
1968
330
18
100
AcDbEntity
  8
DEFPOINTS
  6
ByBlock
 62
     0
100
AcDbPoint
 10
409.8088198590717
 20
236.6690517808
 30
0.0
  0
POINT
  5
1969
330
18
100
AcDbEntity
  8
DEFPOINTS
  6
ByBlock
 62
     0
100
AcDbPoint
 10
387.8670823376514
 20
236.6690517808
 30
0.0
  0
LINE
  5
196A
330
18
100
AcDbEntity
  8
ﾊｯﾁﾝｸ
  6
Continuous
100
AcDbLine
 10
321.8749334699483
 20
316.5355455770978
 30
0.0
 11
322.1084396736505
 21
316.7690517808001
 31
0.0
  0
LINE
  5
196B
330
18
100
AcDbEntity
  8
ﾊｯﾁﾝｸ
  6
Continuous
100
AcDbLine
 10
321.8749334699483
 20
314.7677786241315
 30
0.0
 11
323.8762066266169
 21
316.7690517808
 31
0.0
  0
LINE
  5
196C
330
18
100
AcDbEntity
  8
ﾊｯﾁﾝｸ
  6
Continuous
100
AcDbLine
 10
321.8749334699483
 20
313.0000116711651
 30
0.0
 11
325.6439735795833
 21
316.7690517807999
 31
0.0
  0
LINE
  5
196D
330
18
100
AcDbEntity
  8
ﾊｯﾁﾝｸ
  6
Continuous
100
AcDbLine
 10
321.8749334699483
 20
311.2322447181987
 30
0.0
 11
325.8749334699484
 21
315.2322447181988
 31
0.0
  0
LINE
  5
196E
330
18
100
AcDbEntity
  8
ﾊｯﾁﾝｸ
  6
Continuous
100
AcDbLine
 10
323.179507485516
 20
310.7690517808
 30
0.0
 11
325.8749334699484
 21
313.4644777652324
 31
0.0
  0
LINE
  5
196F
330
18
100
AcDbEntity
  8
ﾊｯﾁﾝｸ
  6
Continuous
100
AcDbLine
 10
324.9472744384824
 20
310.7690517808
 30
0.0
 11
325.8749334699484
 21
311.696710812266
 31
0.0
  0
LINE
  5
1970
330
18
100
AcDbEntity
  8
ﾊｯﾁﾝｸ
  6
Continuous
100
AcDbLine
 10
321.9264791162673
 20
310.7690517808
 30
0.0
 11
321.8749334699483
 21
310.820597427119
 31
0.0
  0
LINE
  5
1971
330
18
100
AcDbEntity
  8
ﾊｯﾁﾝｸ
  6
Continuous
100
AcDbLine
 10
323.6942460692337
 20
310.7690517807999
 30
0.0
 11
321.8749334699483
 21
312.5883643800853
 31
0.0
  0
LINE
  5
1972
330
18
100
AcDbEntity
  8
ﾊｯﾁﾝｸ
  6
Continuous
100
AcDbLine
 10
325.4620130222
 20
310.7690517808
 30
0.0
 11
321.8749334699483
 21
314.3561313330516
 31
0.0
  0
LINE
  5
1973
330
18
100
AcDbEntity
  8
ﾊｯﾁﾝｸ
  6
Continuous
100
AcDbLine
 10
325.8749334699484
 20
312.1238982860181
 30
0.0
 11
321.8749334699483
 21
316.1238982860181
 31
0.0
  0
LINE
  5
1974
330
18
100
AcDbEntity
  8
ﾊｯﾁﾝｸ
  6
Continuous
100
AcDbLine
 10
325.8749334699484
 20
313.8916652389843
 30
0.0
 11
322.9975469281327
 21
316.7690517808
 31
0.0
  0
LINE
  5
1975
330
18
100
AcDbEntity
  8
ﾊｯﾁﾝｸ
  6
Continuous
100
AcDbLine
 10
325.8749334699484
 20
315.6594321919507
 30
0.0
 11
324.7653138810991
 21
316.7690517808
 31
0.0
  0
LINE
  5
1976
330
18
100
AcDbEntity
  8
ﾊｯﾁﾝｸ
  6
Continuous
100
AcDbLine
 10
409.5088198590716
 20
316.5355455770978
 30
0.0
 11
409.7423260627738
 21
316.7690517808001
 31
0.0
  0
LINE
  5
1977
330
18
100
AcDbEntity
  8
ﾊｯﾁﾝｸ
  6
Continuous
100
AcDbLine
 10
409.5088198590716
 20
314.7677786241315
 30
0.0
 11
411.5100930157401
 21
316.7690517808
 31
0.0
  0
LINE
  5
1978
330
18
100
AcDbEntity
  8
ﾊｯﾁﾝｸ
  6
Continuous
100
AcDbLine
 10
409.5088198590716
 20
313.0000116711651
 30
0.0
 11
413.2778599687065
 21
316.7690517807999
 31
0.0
  0
LINE
  5
1979
330
18
100
AcDbEntity
  8
ﾊｯﾁﾝｸ
  6
Continuous
100
AcDbLine
 10
409.5088198590716
 20
311.2322447181987
 30
0.0
 11
413.5088198590716
 21
315.2322447181988
 31
0.0
  0
LINE
  5
197A
330
18
100
AcDbEntity
  8
ﾊｯﾁﾝｸ
  6
Continuous
100
AcDbLine
 10
410.8133938746392
 20
310.7690517808
 30
0.0
 11
413.5088198590716
 21
313.4644777652324
 31
0.0
  0
LINE
  5
197B
330
18
100
AcDbEntity
  8
ﾊｯﾁﾝｸ
  6
Continuous
100
AcDbLine
 10
412.5811608276056
 20
310.7690517807999
 30
0.0
 11
413.5088198590716
 21
311.696710812266
 31
0.0
  0
LINE
  5
197C
330
18
100
AcDbEntity
  8
ﾊｯﾁﾝｸ
  6
Continuous
100
AcDbLine
 10
409.5603655053905
 20
310.7690517808001
 30
0.0
 11
409.5088198590716
 21
310.8205974271189
 31
0.0
  0
LINE
  5
197D
330
18
100
AcDbEntity
  8
ﾊｯﾁﾝｸ
  6
Continuous
100
AcDbLine
 10
411.3281324583568
 20
310.7690517808
 30
0.0
 11
409.5088198590716
 21
312.5883643800853
 31
0.0
  0
LINE
  5
197E
330
18
100
AcDbEntity
  8
ﾊｯﾁﾝｸ
  6
Continuous
100
AcDbLine
 10
413.0958994113233
 20
310.7690517808
 30
0.0
 11
409.5088198590715
 21
314.3561313330517
 31
0.0
  0
LINE
  5
197F
330
18
100
AcDbEntity
  8
ﾊｯﾁﾝｸ
  6
Continuous
100
AcDbLine
 10
413.5088198590716
 20
312.123898286018
 30
0.0
 11
409.5088198590716
 21
316.1238982860181
 31
0.0
  0
LINE
  5
1980
330
18
100
AcDbEntity
  8
ﾊｯﾁﾝｸ
  6
Continuous
100
AcDbLine
 10
413.5088198590716
 20
313.8916652389843
 30
0.0
 11
410.631433317256
 21
316.7690517807999
 31
0.0
  0
LINE
  5
1981
330
18
100
AcDbEntity
  8
ﾊｯﾁﾝｸ
  6
Continuous
100
AcDbLine
 10
413.5088198590716
 20
315.6594321919507
 30
0.0
 11
412.3992002702223
 21
316.7690517808
 31
0.0
  0
LINE
  5
1982
330
18
100
AcDbEntity
  8
0
  6
ByBlock
 62
     2
100
AcDbLine
 10
420.3088198590716
 20
307.6690517808001
 30
0.0
 11
458.8442493951064
 21
307.6690517808001
 31
0.0
  0
LINE
  5
1983
330
18
100
AcDbEntity
  8
0
  6
ByBlock
 62
     2
100
AcDbLine
 10
420.5088198590716
 20
255.6690517808
 30
0.0
 11
458.8442493951064
 21
255.6690517808
 31
0.0
  0
LINE
  5
1984
330
18
100
AcDbEntity
  8
0
  6
ByBlock
 62
     2
100
AcDbLine
 10
457.5942493951065
 20
305.1690517808001
 30
0.0
 11
457.5942493951065
 21
258.1690517808
 31
0.0
  0
INSERT
  5
1985
330
18
100
AcDbEntity
  8
0
  6
ByBlock
 62
     2
100
AcDbBlockReference
  2
_OPEN
 10
457.5942493951065
 20
307.6690517808001
 30
0.0
 41
2.5
 42
2.5
 43
2.5
 50
90.0
  0
INSERT
  5
1986
330
18
100
AcDbEntity
  8
0
  6
ByBlock
 62
     2
100
AcDbBlockReference
  2
_OPEN
 10
457.5942493951065
 20
255.6690517808
 30
0.0
 41
2.5
 42
2.5
 43
2.5
 50
270.0
  0
MTEXT
  5
1987
330
18
100
AcDbEntity
  8
0
  6
ByBlock
 62
     6
100
AcDbMText
 10
455.7192493951064
 20
281.6690517808
 30
0.0
 40
2.5
 41
0.0
 71
     5
 72
     1
  1
\A1;φ52
  7
STYLE3
 11
0.0000000000000001
 21
1.0
 31
0.0
 73
     1
 44
1.0
  0
POINT
  5
1988
330
18
100
AcDbEntity
  8
DEFPOINTS
  6
ByBlock
 62
     0
100
AcDbPoint
 10
420.3088198590716
 20
307.6690517808001
 30
0.0
  0
POINT
  5
1989
330
18
100
AcDbEntity
  8
DEFPOINTS
  6
ByBlock
 62
     0
100
AcDbPoint
 10
420.5088198590716
 20
255.6690517808
 30
0.0
  0
POINT
  5
198A
330
18
100
AcDbEntity
  8
DEFPOINTS
  6
ByBlock
 62
     0
100
AcDbPoint
 10
457.5942493951065
 20
255.6690517808
 30
0.0
  0
LINE
  5
198B
330
18
100
AcDbEntity
  8
0
  6
ByBlock
 62
     2
100
AcDbLine
 10
424.5088198590714
 20
289.6706375242528
 30
0.0
 11
424.5088198590714
 21
297.9343419679757
 31
0.0
  0
LINE
  5
198C
330
18
100
AcDbEntity
  8
0
  6
ByBlock
 62
     2
100
AcDbLine
 10
429.5088198590715
 20
289.6690517807999
 30
0.0
 11
429.5088198590715
 21
297.9343419679757
 31
0.0
  0
LINE
  5
198D
330
18
100
AcDbEntity
  8
0
  6
ByBlock
 62
     2
100
AcDbLine
 10
422.0088198590715
 20
296.6843419679757
 30
0.0
 11
419.5088198590714
 21
296.6843419679757
 31
0.0
  0
LINE
  5
198E
330
18
100
AcDbEntity
  8
0
  6
ByBlock
 62
     2
100
AcDbLine
 10
432.0088198590715
 20
296.6843419679757
 30
0.0
 11
434.5088198590715
 21
296.6843419679757
 31
0.0
  0
LINE
  5
198F
330
18
100
AcDbEntity
  8
0
  6
ByBlock
 62
     2
100
AcDbLine
 10
424.5088198590714
 20
296.6843419679757
 30
0.0
 11
429.5088198590715
 21
296.6843419679757
 31
0.0
  0
INSERT
  5
1990
330
18
100
AcDbEntity
  8
0
  6
ByBlock
 62
     2
100
AcDbBlockReference
  2
_OPEN
 10
424.5088198590714
 20
296.6843419679757
 30
0.0
 41
2.5
 42
2.5
 43
2.5
  0
INSERT
  5
1991
330
18
100
AcDbEntity
  8
0
  6
ByBlock
 62
     2
100
AcDbBlockReference
  2
_OPEN
 10
429.5088198590715
 20
296.6843419679757
 30
0.0
 41
2.5
 42
2.5
 43
2.5
 50
180.0
  0
MTEXT
  5
1992
330
18
100
AcDbEntity
  8
0
  6
ByBlock
 62
     6
100
AcDbMText
 10
427.0088198590714
 20
298.5593419679757
 30
0.0
 40
2.5
 41
0.0
 71
     5
 72
     1
  1
\A1;5
  7
STYLE3
 73
     1
 44
1.0
  0
POINT
  5
1993
330
18
100
AcDbEntity
  8
DEFPOINTS
  6
ByBlock
 62
     0
100
AcDbPoint
 10
424.5088198590714
 20
289.6706375242528
 30
0.0
  0
POINT
  5
1994
330
18
100
AcDbEntity
  8
DEFPOINTS
  6
ByBlock
 62
     0
100
AcDbPoint
 10
429.5088198590715
 20
289.6690517807999
 30
0.0
  0
POINT
  5
1995
330
18
100
AcDbEntity
  8
DEFPOINTS
  6
ByBlock
 62
     0
100
AcDbPoint
 10
429.5088198590715
 20
296.6843419679757
 30
0.0
  0
LINE
  5
1996
330
18
100
AcDbEntity
  8
外形線
 62
     2
100
AcDbLine
 10
436.4597975047414
 20
287.030071473914
 30
0.0
 11
440.291037508581
 21
296.6843419679757
 31
0.0
  0
LINE
  5
1997
330
18
100
AcDbEntity
  8
外形線
 62
     2
100
AcDbLine
 10
440.291037508581
 20
296.6843419679757
 30
0.0
 11
449.8273404856327
 21
296.6843419679757
 31
0.0
  0
LINE
  5
199C
330
18
100
AcDbEntity
  8
0
  6
ByBlock
 62
     2
100
AcDbLine
 10
423.5088198590715
 20
274.1690517807999
 30
0.0
 11
423.5088198590715
 21
261.3097721789975
 31
0.0
  0
LINE
  5
199D
330
18
100
AcDbEntity
  8
0
  6
ByBlock
 62
     2
100
AcDbLine
 10
434.0088198590716
 20
263.3881921503948
 30
0.0
 11
434.0088198590716
 21
261.3097721789975
 31
0.0
  0
LINE
  5
199E
330
18
100
AcDbEntity
  8
0
  6
ByBlock
 62
     2
100
AcDbLine
 10
426.0088198590715
 20
262.5597721789975
 30
0.0
 11
431.5088198590717
 21
262.5597721789975
 31
0.0
  0
INSERT
  5
199F
330
18
100
AcDbEntity
  8
0
  6
ByBlock
 62
     2
100
AcDbBlockReference
  2
_OPEN
 10
423.5088198590715
 20
262.5597721789975
 30
0.0
 41
2.5
 42
2.5
 43
2.5
 50
180.0
  0
INSERT
  5
19A0
330
18
100
AcDbEntity
  8
0
  6
ByBlock
 62
     2
100
AcDbBlockReference
  2
_OPEN
 10
434.0088198590716
 20
262.5597721789975
 30
0.0
 41
2.5
 42
2.5
 43
2.5
  0
MTEXT
  5
19A1
330
18
100
AcDbEntity
  8
0
  6
ByBlock
 62
     6
100
AcDbMText
 10
428.7588198590716
 20
264.4347721789975
 30
0.0
 40
2.5
 41
0.0
 71
     5
 72
     1
  1
\A1;10.5
  7
STYLE3
 73
     1
 44
1.0
  0
POINT
  5
19A2
330
18
100
AcDbEntity
  8
DEFPOINTS
  6
ByBlock
 62
     0
100
AcDbPoint
 10
423.5088198590715
 20
274.1690517807999
 30
0.0
  0
POINT
  5
19A3
330
18
100
AcDbEntity
  8
DEFPOINTS
  6
ByBlock
 62
     0
100
AcDbPoint
 10
434.0088198590716
 20
263.3881921503948
 30
0.0
  0
POINT
  5
19A4
330
18
100
AcDbEntity
  8
DEFPOINTS
  6
ByBlock
 62
     0
100
AcDbPoint
 10
434.0088198590716
 20
262.5597721789975
 30
0.0
  0
LINE
  5
19A5
330
18
100
AcDbEntity
  8
外形線
 62
     2
100
AcDbLine
 10
436.8587543602814
 20
286.909886039985
 30
0.0
 11
435.7386849011669
 21
284.6363303406738
 31
0.0
  0
LINE
  5
19A6
330
18
100
AcDbEntity
  8
外形線
 62
     2
100
AcDbLine
 10
435.7386849011669
 20
284.6363303406738
 30
0.0
 11
436.0608406492012
 21
287.1502569078431
 31
0.0
  0
LINE
  5
19A7
330
18
100
AcDbEntity
  8
外形線
 62
     2
100
AcDbLine
 10
435.7386849011669
 20
284.6363303406738
 30
0.0
 11
436.4597975047415
 21
287.030071473914
 31
0.0
  0
TEXT
  5
19A8
330
18
100
AcDbEntity
  8
針
 62
     6
100
AcDbText
 10
439.922607705939
 20
297.0841455534812
 30
0.0
 40
2.5
  1
φ6.5
  7
STYLE3
100
AcDbText
  0
ARC
  5
1A06
330
18
100
AcDbEntity
  8
外形線
100
AcDbCircle
 10
325.8749334699483
 20
222.8690517808
 30
0.0
 40
1.199999999999999
100
AcDbArc
 50
189.59406822686
 51
350.4059317731399
  0
ARC
  5
1A07
330
18
100
AcDbEntity
  8
外形線
100
AcDbCircle
 10
413.5088198590716
 20
222.8690517808
 30
0.0
 40
1.199999999999999
100
AcDbArc
 50
189.59406822686
 51
350.4059317731399
  0
LINE
  5
1A2D
330
18
100
AcDbEntity
  8
外形線
100
AcDbLine
 10
324.9831625970422
 20
354.0917009007231
 30
0.0
 11
404.9628375970422
 21
354.0917009007231
 31
0.0
  0
LINE
  5
1A2E
330
18
100
AcDbEntity
  8
外形線
100
AcDbLine
 10
324.9831625970422
 20
353.0917009007231
 30
0.0
 11
404.9628375970422
 21
353.0917009007231
 31
0.0
  0
TEXT
  5
1A2F
330
18
100
AcDbEntity
  8
0
100
AcDbText
 10
325.3536125970422
 20
356.4822429007231
 30
0.0
 40
4.0
  1
Model No.5-DX Dial Gauge
  7
STYLE3
100
AcDbText
  0
LINE
  5
1A30
330
18
100
AcDbEntity
  8
外形線
100
AcDbLine
 10
350.3918675970422
 20
172.2635559007231
 30
0.0
 11
350.3918675970422
 21
192.6585399007231
 31
0.0
  0
TEXT
  5
1A31
330
18
100
AcDbEntity
  8
0
  6
Continuous
100
AcDbText
 10
351.8493355970422
 20
183.7763239007231
 30
0.0
 40
2.1
  1
Design and specifications are subject to change without notice for future improvement.
  7
STYLE3
100
AcDbText
  0
TEXT
  5
1A32
330
18
100
AcDbEntity
  8
0
  6
Continuous
100
AcDbText
 10
395.1621125970422
 20
175.7598399007231
 30
0.0
 40
2.399999999999999
  1
mm
  7
STYLE3
100
AcDbText
  0
LINE
  5
1A33
330
18
100
AcDbEntity
  8
外形線
100
AcDbLine
 10
350.3918675970422
 20
181.8783339007231
 30
0.0
 11
491.1832855970422
 21
181.8783339007231
 31
0.0
  0
TEXT
  5
1A34
330
18
100
AcDbEntity
  8
0
  6
Continuous
100
AcDbText
 10
354.1812865970422
 20
177.5079799007231
 30
0.0
 40
3.0
  1
三　　角　　法
  7
STYLE3
100
AcDbText
  0
TEXT
  5
1A35
330
18
100
AcDbEntity
  8
0
  6
Continuous
100
AcDbText
 10
351.5578435970422
 20
174.0116959007231
 30
0.0
 40
2.1
  1
3RD Angle Projection
  7
STYLE3
100
AcDbText
  0
TEXT
  5
1A36
330
18
100
AcDbEntity
  8
0
  6
Continuous
100
AcDbText
 10
387.2917855970422
 20
174.0116969007231
 30
0.0
 40
2.1
  1
Unit
  7
STYLE3
100
AcDbText
  0
TEXT
  5
1A37
330
18
100
AcDbEntity
  8
0
  6
Continuous
100
AcDbText
 10
387.1200645970422
 20
177.5139339007231
 30
0.0
 40
3.0
  1
単位
  7
STYLE3
100
AcDbText
  0
LINE
  5
1A38
330
18
100
AcDbEntity
  8
外形線
100
AcDbLine
 10
385.6625955970423
 20
181.8783339007231
 30
0.0
 11
385.6625955970423
 21
172.2635559007231
 31
0.0
  0
TEXT
  5
1A39
330
18
100
AcDbEntity
  8
0
  6
Continuous
100
AcDbText
 10
454.6380765970423
 20
174.0116969007231
 30
0.0
 40
2.1
  1
OZAKI MFG. CO., LTD.
  7
STYLE3
100
AcDbText
  0
TEXT
  5
1A3A
330
18
100
AcDbEntity
  8
0
  6
Continuous
100
AcDbText
 10
453.7635975970423
 20
177.7993359007231
 30
0.0
 40
3.0
  1
株式会社　尾崎製作所
  7
STYLE3
100
AcDbText
  0
TEXT
  5
1A3B
330
18
100
AcDbEntity
  8
0
  6
Continuous
100
AcDbText
 10
433.3590435970422
 20
175.7598389007231
 30
0.0
 40
2.1
  1
2010.06.08
  7
STYLE3
100
AcDbText
  0
TEXT
  5
1A3C
330
18
100
AcDbEntity
  8
0
  6
Continuous
100
AcDbText
 10
414.5204645970422
 20
176.0511969007231
 30
0.0
 40
2.399999999999999
  1
1/1
  7
STYLE3
100
AcDbText
  0
TEXT
  5
1A3D
330
18
100
AcDbEntity
  8
0
  6
Continuous
100
AcDbText
 10
404.9011755970422
 20
174.3030539007231
 30
0.0
 40
2.1
  1
Scale
  7
STYLE3
100
AcDbText
  0
TEXT
  5
1A3E
330
18
100
AcDbEntity
  8
0
  6
Continuous
100
AcDbText
 10
404.4379605970422
 20
177.2225759007231
 30
0.0
 40
3.0
  1
尺 度
  7
STYLE3
100
AcDbText
  0
LINE
  5
1A3F
330
18
100
AcDbEntity
  8
外形線
100
AcDbLine
 10
403.1522125970422
 20
181.8783339007231
 30
0.0
 11
403.1522125970422
 21
172.2635559007231
 31
0.0
  0
TEXT
  5
1A40
330
18
100
AcDbEntity
  8
0
  6
Continuous
100
AcDbText
 10
424.2308755970421
 20
177.3447819007231
 30
0.0
 40
3.0
  1
日 付
  7
STYLE3
100
AcDbText
  0
TEXT
  5
1A41
330
18
100
AcDbEntity
  8
0
  6
Continuous
100
AcDbText
 10
424.6142365970422
 20
174.0116979007231
 30
0.0
 40
2.1
  1
Date
  7
STYLE3
100
AcDbText
  0
LINE
  5
1A42
330
18
100
AcDbEntity
  8
外形線
100
AcDbLine
 10
422.6822855970422
 20
181.8783339007231
 30
0.0
 11
422.6822855970422
 21
172.2635559007231
 31
0.0
  0
LINE
  5
1A43
330
18
100
AcDbEntity
  8
外形線
100
AcDbLine
 10
452.4146345970422
 20
181.8783339007231
 30
0.0
 11
452.4146345970422
 21
172.2635559007231
 31
0.0
  0
TEXT
  5
1A44
330
18
100
AcDbEntity
  8
0
  6
Continuous
100
AcDbText
 10
352.1408295970422
 20
187.7054719007231
 30
0.0
 40
3.5
  1
仕様及び外観は予告なく変更される場合がございますのでご了承下さい。
  7
STYLE3
100
AcDbText
  0
LINE
  5
1A45
330
18
100
AcDbEntity
  8
外形線
100
AcDbLine
 10
350.3918675970422
 20
192.6585399007231
 30
0.0
 11
491.1832855970422
 21
192.6585399007231
 31
0.0
  0
ENDSEC
  0
SECTION
  2
OBJECTS
  0
DICTIONARY
  5
C
330
0
100
AcDbDictionary
281
     1
  3
ACAD_COLOR
350
19D4
  3
ACAD_GROUP
350
D
  3
ACAD_IMAGE_DICT
350
E58
  3
ACAD_LAYOUT
350
19D7
  3
ACAD_MATERIAL
350
19D3
  3
ACAD_MLINESTYLE
350
1B
  3
ACAD_PLOTSETTINGS
350
19D8
  3
ACAD_PLOTSTYLENAME
350
19D1
  3
ACAD_TABLESTYLE
350
19D5
  3
ACDBVARIABLEDICTIONARY
350
1025
  0
DICTIONARY
  5
19D4
102
{ACAD_REACTORS
330
C
102
}
330
C
100
AcDbDictionary
281
     1
  0
DICTIONARY
  5
D
102
{ACAD_REACTORS
330
C
102
}
330
C
100
AcDbDictionary
281
     1
  0
DICTIONARY
  5
E58
102
{ACAD_REACTORS
330
C
102
}
330
C
100
AcDbDictionary
281
     1
  3
ROGO01
350
E59
  0
DICTIONARY
  5
19D7
102
{ACAD_REACTORS
330
C
102
}
330
C
100
AcDbDictionary
281
     1
  3
Model
350
19D9
  3
レイアウト1
350
19DA
  0
DICTIONARY
  5
19D3
102
{ACAD_REACTORS
330
C
102
}
330
C
100
AcDbDictionary
281
     1
  0
DICTIONARY
  5
1B
102
{ACAD_REACTORS
330
C
102
}
330
C
100
AcDbDictionary
281
     1
  3
STANDARD
350
1C
  0
DICTIONARY
  5
19D8
102
{ACAD_REACTORS
330
C
102
}
330
C
100
AcDbDictionary
281
     1
  0
ACDBDICTIONARYWDFLT
  5
19D1
102
{ACAD_REACTORS
330
C
102
}
330
C
100
AcDbDictionary
281
     1
  3
Normal
350
19D2
100
AcDbDictionaryWithDefault
340
19D2
  0
DICTIONARY
  5
19D5
102
{ACAD_REACTORS
330
C
102
}
330
C
100
AcDbDictionary
281
     1
  3
Standard
350
19D6
  0
DICTIONARY
  5
1025
102
{ACAD_REACTORS
330
C
102
}
330
C
100
AcDbDictionary
281
     1
  3
CTABLESTYLE
350
19E0
  3
SORTENTS
350
1026
  0
IMAGEDEF
  5
E59
102
{ACAD_REACTORS
330
E58
102
}
330
E58
100
AcDbRasterImageDef
 90
        0
  1
D:\ﾃｽﾄ\rogo01.TIF
 10
3388.0
 20
4668.0
 11
0.0635
 21
0.0635
280
     1
281
     5
  0
LAYOUT
  5
19D9
102
{ACAD_REACTORS
330
19D7
102
}
330
19D7
100
AcDbPlotSettings
  1

  2
A3 EPSON LP-6100.pc3
  4
A3
  6

 40
5.873749732971191
 41
5.873747825622558
 42
5.873748779296875
 43
5.873748779296875
 44
297.0106506347656
 45
419.9466552734374
 46
0.0
 47
25.0
 48
0.0
 49
0.0
140
0.0
141
0.0
142
1.0
143
1.0
 70
 28336
 72
     1
 73
     1
 74
     1
  7
monochrome.ctb
 75
    16
147
1.0
 76
     1
 77
     2
 78
   300
148
-236.4886379941705
149
-171.6235136330668
100
AcDbLayout
  1
Model
 70
     1
 71
     0
 10
0.0
 20
0.0
 11
12.0
 21
9.0
 12
0.0
 22
0.0
 32
0.0
 14
0.0
 24
0.0
 34
0.0
 15
0.0
 25
0.0
 35
0.0
146
0.0
 13
0.0
 23
0.0
 33
0.0
 16
1.0
 26
0.0
 36
0.0
 17
0.0
 27
1.0
 37
0.0
 76
     0
330
18
1001
ACAD_PSEXT
1000
A3 EPSON LP-6100.pc3
1000
EPSON LP-6100
1000
\\SATO-MATE2
1000

1070
     0
  0
LAYOUT
  5
19DA
102
{ACAD_REACTORS
330
19D7
102
}
330
19D7
100
AcDbPlotSettings
  1

  2
WIDR Printer
  4

  6

 40
0.0
 41
0.0
 42
0.0
 43
0.0
 44
0.0
 45
0.0
 46
0.0
 47
0.0
 48
0.0
 49
0.0
140
0.0
141
0.0
142
1.0
143
1.0
 70
   688
 72
     0
 73
     0
 74
     5
  7
monochrome.ctb
 75
    16
147
1.0
 76
     0
 77
     2
 78
   300
148
0.0
149
0.0
100
AcDbLayout
  1
レイアウト1
 70
     1
 71
     1
 10
0.0
 20
0.0
 11
420.0
 21
297.0
 12
0.0
 22
0.0
 32
0.0
 14
1.000000000000000E+20
 24
1.000000000000000E+20
 34
1.000000000000000E+20
 15
-1.000000000000000E+20
 25
-1.000000000000000E+20
 35
-1.000000000000000E+20
146
0.0
 13
0.0
 23
0.0
 33
0.0
 16
1.0
 26
0.0
 36
0.0
 17
0.0
 27
1.0
 37
0.0
 76
     0
330
15
  0
MLINESTYLE
  5
1C
102
{ACAD_REACTORS
330
1B
102
}
330
1B
100
AcDbMlineStyle
  2
STANDARD
 70
     0
  3

 62
   256
 51
90.0
 52
90.0
 71
     2
 49
0.5
 62
   256
  6
BYLAYER
 49
-0.5
 62
   256
  6
BYLAYER
  0
ACDBPLACEHOLDER
  5
19D2
102
{ACAD_REACTORS
330
19D1
102
}
330
19D1
  0
ACAD_PROXY_OBJECT
  5
19D6
102
{ACAD_REACTORS
330
19D5
102
}
330
19D5
100
AcDbProxyObject
 90
      499
 91
      505
 95
  2555929
 70
     0
 93
     1849
310
4214DD185B99185C992420000000000000F83F0000000000003E0FC00000000000004901028000000C1008070000C3001FDFF8000000C1003FBFF000000182007F7FE00000030400FEFFC00000060801FDFF8000000C1003FBFF000000182000000000000000C2020B0000001820100E000186003FBFF000000182007F7FE0
310
0000030400FEFFC00000060801FDFF8000000C1003FBFF000000182007F7FE0000003040000000000000012404160000003040201C00030C007F7FE00000030400FEFFC00000060801FDFF8000000C1003FBFF000000182007F7FE00000030400FEFFC000000608000
340
F
340
F
340
F
 94
        0
  0
DICTIONARYVAR
  5
19E0
102
{ACAD_REACTORS
330
1025
102
}
330
1025
100
DictionaryVariables
280
     0
  1
STANDARD
  0
DICTIONARYVAR
  5
1026
102
{ACAD_REACTORS
330
1025
102
}
330
1025
100
DictionaryVariables
280
     0
  1
96
  0
ENDSEC
  0
EOF
