  0
SECTION
  2
HEADER
  9
$ACADVER
  1
AC1018
  9
$ACADMAINTVER
 70
     0
  9
$DWGCODEPAGE
  3
ANSI_932
  9
$INSBASE
 10
0.0
 20
0.0
 30
0.0
  9
$EXTMIN
 10
-0.2064080253769589
 20
-0.2045322825848643
 30
-0.0000610400456509
  9
$EXTMAX
 10
255.220968870147
 20
195.216756504897
 30
0.0000152620489651
  9
$LIMMIN
 10
0.0
 20
0.0
  9
$LIMMAX
 10
420.0
 20
297.0
  9
$ORTHOMODE
 70
     1
  9
$REGENMODE
 70
     1
  9
$FILLMODE
 70
     1
  9
$QTEXTMODE
 70
     0
  9
$MIRRTEXT
 70
     1
  9
$LTSCALE
 40
1.0
  9
$ATTMODE
 70
     1
  9
$TEXTSIZE
 40
3.0
  9
$TRACEWID
 40
1.0
  9
$TEXTSTYLE
  7
STYLE3
  9
$CLAYER
  8
外形線
  9
$CELTYPE
  6
BYLAYER
  9
$CECOLOR
 62
   256
  9
$CELTSCALE
 40
1.0
  9
$DISPSILH
 70
     0
  9
$DIMSCALE
 40
1.0
  9
$DIMASZ
 40
2.5
  9
$DIMEXO
 40
0.0
  9
$DIMDLI
 40
3.75
  9
$DIMRND
 40
0.0
  9
$DIMDLE
 40
0.0
  9
$DIMEXE
 40
1.25
  9
$DIMTP
 40
0.0
  9
$DIMTM
 40
0.0
  9
$DIMTXT
 40
2.5
  9
$DIMCEN
 40
2.5
  9
$DIMTSZ
 40
0.0
  9
$DIMTOL
 70
     0
  9
$DIMLIM
 70
     0
  9
$DIMTIH
 70
     0
  9
$DIMTOH
 70
     0
  9
$DIMSE1
 70
     0
  9
$DIMSE2
 70
     0
  9
$DIMTAD
 70
     1
  9
$DIMZIN
 70
     8
  9
$DIMBLK
  1

  9
$DIMASO
 70
     1
  9
$DIMSHO
 70
     1
  9
$DIMPOST
  1

  9
$DIMAPOST
  1

  9
$DIMALT
 70
     0
  9
$DIMALTD
 70
     4
  9
$DIMALTF
 40
0.0394
  9
$DIMLFAC
 40
1.0
  9
$DIMTOFL
 70
     1
  9
$DIMTVP
 40
0.0
  9
$DIMTIX
 70
     0
  9
$DIMSOXD
 70
     0
  9
$DIMSAH
 70
     1
  9
$DIMBLK1
  1
OPEN
  9
$DIMBLK2
  1
OPEN
  9
$DIMSTYLE
  2
STYLE3
  9
$DIMCLRD
 70
     2
  9
$DIMCLRE
 70
     2
  9
$DIMCLRT
 70
     6
  9
$DIMTFAC
 40
1.0
  9
$DIMGAP
 40
0.625
  9
$DIMJUST
 70
     0
  9
$DIMSD1
 70
     0
  9
$DIMSD2
 70
     0
  9
$DIMTOLJ
 70
     1
  9
$DIMTZIN
 70
     0
  9
$DIMALTZ
 70
     0
  9
$DIMALTTZ
 70
     0
  9
$DIMUPT
 70
     0
  9
$DIMDEC
 70
     2
  9
$DIMTDEC
 70
     4
  9
$DIMALTU
 70
     8
  9
$DIMALTTD
 70
     4
  9
$DIMTXSTY
  7
STYLE3
  9
$DIMAUNIT
 70
     0
  9
$DIMADEC
 70
     0
  9
$DIMALTRND
 40
0.0
  9
$DIMAZIN
 70
     0
  9
$DIMDSEP
 70
    46
  9
$DIMATFIT
 70
     3
  9
$DIMFRAC
 70
     0
  9
$DIMLDRBLK
  1

  9
$DIMLUNIT
 70
     2
  9
$DIMLWD
 70
    -2
  9
$DIMLWE
 70
    -2
  9
$DIMTMOVE
 70
     0
  9
$LUNITS
 70
     2
  9
$LUPREC
 70
     4
  9
$SKETCHINC
 40
1.0
  9
$FILLETRAD
 40
0.0
  9
$AUNITS
 70
     0
  9
$AUPREC
 70
     0
  9
$MENU
  1
.
  9
$ELEVATION
 40
0.0
  9
$PELEVATION
 40
0.0
  9
$THICKNESS
 40
0.0
  9
$LIMCHECK
 70
     0
  9
$CHAMFERA
 40
0.2
  9
$CHAMFERB
 40
0.2
  9
$CHAMFERC
 40
20.0
  9
$CHAMFERD
 40
0.0
  9
$SKPOLY
 70
     0
  9
$TDCREATE
 40
2451219.413029514
  9
$TDUCREATE
 40
2451219.038029514
  9
$TDUPDATE
 40
2455356.648545463
  9
$TDUUPDATE
 40
2455356.273545463
  9
$TDINDWG
 40
0.3601430440
  9
$TDUSRTIMER
 40
0.3601430440
  9
$USRTIMER
 70
     1
  9
$ANGBASE
 50
0.0
  9
$ANGDIR
 70
     0
  9
$PDMODE
 70
     0
  9
$PDSIZE
 40
0.0
  9
$PLINEWID
 40
0.0
  9
$SPLFRAME
 70
     0
  9
$SPLINETYPE
 70
     6
  9
$SPLINESEGS
 70
     8
  9
$HANDSEED
  5
135B
  9
$SURFTAB1
 70
     6
  9
$SURFTAB2
 70
     6
  9
$SURFTYPE
 70
     6
  9
$SURFU
 70
     6
  9
$SURFV
 70
     6
  9
$UCSBASE
  2

  9
$UCSNAME
  2

  9
$UCSORG
 10
0.0
 20
0.0
 30
0.0
  9
$UCSXDIR
 10
1.0
 20
0.0
 30
0.0
  9
$UCSYDIR
 10
0.0
 20
1.0
 30
0.0
  9
$UCSORTHOREF
  2

  9
$UCSORTHOVIEW
 70
     0
  9
$UCSORGTOP
 10
0.0
 20
0.0
 30
0.0
  9
$UCSORGBOTTOM
 10
0.0
 20
0.0
 30
0.0
  9
$UCSORGLEFT
 10
0.0
 20
0.0
 30
0.0
  9
$UCSORGRIGHT
 10
0.0
 20
0.0
 30
0.0
  9
$UCSORGFRONT
 10
0.0
 20
0.0
 30
0.0
  9
$UCSORGBACK
 10
0.0
 20
0.0
 30
0.0
  9
$PUCSBASE
  2

  9
$PUCSNAME
  2

  9
$PUCSORG
 10
0.0
 20
0.0
 30
0.0
  9
$PUCSXDIR
 10
1.0
 20
0.0
 30
0.0
  9
$PUCSYDIR
 10
0.0
 20
1.0
 30
0.0
  9
$PUCSORTHOREF
  2

  9
$PUCSORTHOVIEW
 70
     0
  9
$PUCSORGTOP
 10
0.0
 20
0.0
 30
0.0
  9
$PUCSORGBOTTOM
 10
0.0
 20
0.0
 30
0.0
  9
$PUCSORGLEFT
 10
0.0
 20
0.0
 30
0.0
  9
$PUCSORGRIGHT
 10
0.0
 20
0.0
 30
0.0
  9
$PUCSORGFRONT
 10
0.0
 20
0.0
 30
0.0
  9
$PUCSORGBACK
 10
0.0
 20
0.0
 30
0.0
  9
$USERI1
 70
     0
  9
$USERI2
 70
     0
  9
$USERI3
 70
     0
  9
$USERI4
 70
     0
  9
$USERI5
 70
     0
  9
$USERR1
 40
0.0
  9
$USERR2
 40
0.0
  9
$USERR3
 40
0.0
  9
$USERR4
 40
0.0
  9
$USERR5
 40
0.0
  9
$WORLDVIEW
 70
     1
  9
$SHADEDGE
 70
     3
  9
$SHADEDIF
 70
    70
  9
$TILEMODE
 70
     1
  9
$MAXACTVP
 70
    48
  9
$PINSBASE
 10
0.0
 20
0.0
 30
0.0
  9
$PLIMCHECK
 70
     0
  9
$PEXTMIN
 10
-0.2
 20
-0.2
 30
0.0
  9
$PEXTMAX
 10
255.2
 20
195.2
 30
0.0
  9
$PLIMMIN
 10
0.0
 20
0.0
  9
$PLIMMAX
 10
420.0
 20
297.0
  9
$UNITMODE
 70
     0
  9
$VISRETAIN
 70
     1
  9
$PLINEGEN
 70
     0
  9
$PSLTSCALE
 70
     1
  9
$TREEDEPTH
 70
  3020
  9
$CMLSTYLE
  2
STANDARD
  9
$CMLJUST
 70
     0
  9
$CMLSCALE
 40
20.0
  9
$PROXYGRAPHICS
 70
     1
  9
$MEASUREMENT
 70
     1
  9
$CELWEIGHT
370
    -1
  9
$ENDCAPS
280
     0
  9
$JOINSTYLE
280
     0
  9
$LWDISPLAY
290
     0
  9
$INSUNITS
 70
     0
  9
$HYPERLINKBASE
  1

  9
$STYLESHEET
  1
AutoCAD LT 98.ctb
  9
$XEDIT
290
     1
  9
$CEPSNTYPE
380
     0
  9
$PSTYLEMODE
290
     1
  9
$FINGERPRINTGUID
  2
{64C93A26-6895-46D1-81B7-933F35A1ED5E}
  9
$VERSIONGUID
  2
{147EAE36-11C2-4DC0-A38B-26E706AD26B1}
  9
$EXTNAMES
290
     1
  9
$PSVPSCALE
 40
0.0
  9
$OLESTARTUP
290
     0
  9
$SORTENTS
280
    96
  9
$INDEXCTL
280
     0
  9
$HIDETEXT
280
     0
  9
$XCLIPFRAME
290
     0
  9
$HALOGAP
280
     0
  9
$OBSCOLOR
 70
   257
  9
$OBSLTYPE
280
     0
  9
$INTERSECTIONDISPLAY
280
     0
  9
$INTERSECTIONCOLOR
 70
   257
  9
$DIMASSOC
280
     1
  9
$PROJECTNAME
  1

  0
ENDSEC
  0
SECTION
  2
CLASSES
  0
CLASS
  1
HATCH
  2
AcDbHatch
  3
ObjectDBX Classes
 90
        0
 91
       13
280
     0
281
     1
  0
CLASS
  1
LWPOLYLINE
  2
AcDbPolyline
  3
ObjectDBX Classes
 90
        0
 91
        1
280
     0
281
     1
  0
CLASS
  1
DICTIONARYVAR
  2
AcDbDictionaryVar
  3
ObjectDBX Classes
 90
        0
 91
        2
280
     0
281
     0
  0
CLASS
  1
ACDBDICTIONARYWDFLT
  2
AcDbDictionaryWithDefault
  3
ObjectDBX Classes
 90
        0
 91
        1
280
     0
281
     0
  0
CLASS
  1
TABLESTYLE
  2
AcDbTableStyle
  3
ObjectDBX Classes
 90
     2047
 91
        1
280
     0
281
     0
  0
CLASS
  1
SORTENTSTABLE
  2
AcDbSortentsTable
  3
ObjectDBX Classes
 90
        0
 91
        1
280
     0
281
     0
  0
ENDSEC
  0
SECTION
  2
TABLES
  0
TABLE
  2
VPORT
  5
8
330
0
100
AcDbSymbolTable
 70
     2
  0
VPORT
  5
135A
330
8
100
AcDbSymbolTableRecord
100
AcDbViewportTableRecord
  2
*Active
 70
     0
 10
0.0
 20
0.0
 11
1.0
 21
1.0
 12
127.507280422385
 22
97.50611211115609
 13
0.0
 23
0.0
 14
10.0
 24
10.0
 15
10.0
 25
10.0
 16
0.0
 26
0.0
 36
1.0
 17
0.0
 27
0.0
 37
0.0
 40
196.9073822383372
 41
1.530456852791878
 42
50.0
 43
0.0
 44
0.0
 50
0.0
 51
0.0
 71
     0
 72
   100
 73
     1
 74
     1
 75
     0
 76
     0
 77
     0
 78
     0
281
     0
 65
     1
110
0.0
120
0.0
130
0.0
111
1.0
121
0.0
131
0.0
112
0.0
122
1.0
132
0.0
 79
     0
146
0.0
  0
ENDTAB
  0
TABLE
  2
LTYPE
  5
5
330
0
100
AcDbSymbolTable
 70
     5
  0
LTYPE
  5
12
330
5
100
AcDbSymbolTableRecord
100
AcDbLinetypeTableRecord
  2
BYBLOCK
 70
     0
  3

 72
    65
 73
     0
 40
0.0
  0
LTYPE
  5
13
330
5
100
AcDbSymbolTableRecord
100
AcDbLinetypeTableRecord
  2
BYLAYER
 70
     0
  3

 72
    65
 73
     0
 40
0.0
  0
LTYPE
  5
14
330
5
100
AcDbSymbolTableRecord
100
AcDbLinetypeTableRecord
  2
CONTINUOUS
 70
     0
  3
Solid line
 72
    65
 73
     0
 40
0.0
  0
LTYPE
  5
22
330
5
100
AcDbSymbolTableRecord
100
AcDbLinetypeTableRecord
  2
CENTER2
 70
     0
  3
Center (.5x) ___ _ ___ _ ___ _ ___ _ ___ _ ___
 72
    65
 73
     4
 40
28.575
 49
19.05
 74
     0
 49
-3.174999999999999
 74
     0
 49
3.174999999999999
 74
     0
 49
-3.174999999999999
 74
     0
  0
ENDTAB
  0
TABLE
  2
LAYER
  5
2
330
0
100
AcDbSymbolTable
 70
    16
  0
LAYER
  5
E
330
2
100
AcDbSymbolTableRecord
100
AcDbLayerTableRecord
  2
0
 70
     0
 62
     7
  6
CONTINUOUS
370
    -3
390
1244
  0
LAYER
  5
25
330
2
100
AcDbSymbolTableRecord
100
AcDbLayerTableRecord
  2
外形線
 70
     0
 62
     7
  6
CONTINUOUS
370
    -3
390
1244
  0
LAYER
  5
27
330
2
100
AcDbSymbolTableRecord
100
AcDbLayerTableRecord
  2
中心線
 70
     0
 62
     4
  6
CENTER2
370
    -3
390
1244
  0
LAYER
  5
2A
330
2
100
AcDbSymbolTableRecord
100
AcDbLayerTableRecord
  2
ﾊｯﾁﾝｸ
 70
     0
 62
     6
  6
CONTINUOUS
370
    -3
390
1244
  0
LAYER
  5
2B
330
2
100
AcDbSymbolTableRecord
100
AcDbLayerTableRecord
  2
文字
 70
     0
 62
     6
  6
CONTINUOUS
370
    -3
390
1244
  0
LAYER
  5
2C
330
2
100
AcDbSymbolTableRecord
100
AcDbLayerTableRecord
  2
目盛
 70
     0
 62
    70
  6
CONTINUOUS
370
    -3
390
1244
  0
LAYER
  5
2D
330
2
100
AcDbSymbolTableRecord
100
AcDbLayerTableRecord
  2
針
 70
     0
 62
     5
  6
CONTINUOUS
370
    -3
390
1244
  0
LAYER
  5
53
330
2
100
AcDbSymbolTableRecord
100
AcDbLayerTableRecord
  2
DEFPOINTS
 70
     0
 62
     7
  6
CONTINUOUS
290
     0
370
    -3
390
1244
  0
LAYER
  5
A5
330
2
100
AcDbSymbolTableRecord
100
AcDbLayerTableRecord
  2
C
 70
     0
 62
     7
  6
CONTINUOUS
370
    -3
390
1244
  0
LAYER
  5
C9C
330
2
100
AcDbSymbolTableRecord
100
AcDbLayerTableRecord
  2
ROGO
 70
     0
 62
     6
  6
CONTINUOUS
370
    -3
390
1244
  0
ENDTAB
  0
TABLE
  2
STYLE
  5
3
330
0
100
AcDbSymbolTable
 70
     3
  0
STYLE
  5
F
330
3
100
AcDbSymbolTableRecord
100
AcDbTextStyleTableRecord
  2
STANDARD
 70
     0
 40
0.0
 41
1.0
 50
0.0
 71
     0
 42
2.5
  3
txt
  4

  0
STYLE
  5
3F
330
3
100
AcDbSymbolTableRecord
100
AcDbTextStyleTableRecord
  2
STYLE3
 70
     0
 40
0.0
 41
1.0
 50
0.0
 71
     0
 42
3.0
  3
romans.shx
  4
bigfont.shx
  0
ENDTAB
  0
TABLE
  2
VIEW
  5
6
330
0
100
AcDbSymbolTable
 70
     0
  0
ENDTAB
  0
TABLE
  2
UCS
  5
7
330
0
100
AcDbSymbolTable
 70
     0
  0
ENDTAB
  0
TABLE
  2
APPID
  5
9
330
0
100
AcDbSymbolTable
 70
     2
  0
APPID
  5
10
330
9
100
AcDbSymbolTableRecord
100
AcDbRegAppTableRecord
  2
ACAD
 70
     0
  0
APPID
  5
129D
330
9
100
AcDbSymbolTableRecord
100
AcDbRegAppTableRecord
  2
ACAD_PSEXT
 70
     0
  0
ENDTAB
  0
TABLE
  2
DIMSTYLE
  5
A
330
0
100
AcDbSymbolTable
 70
     3
100
AcDbDimStyleTable
 71
     1
340
8F
  0
DIMSTYLE
105
1D
330
A
100
AcDbSymbolTableRecord
100
AcDbDimStyleTableRecord
  2
STANDARD
 70
     0
 41
2.5
 42
0.625
 43
3.75
 44
1.25
 73
     0
 74
     0
 77
     1
 78
     8
140
2.5
141
2.5
143
0.0394
147
0.625
171
     4
172
     1
273
     8
274
     4
277
     6
340
F
  0
DIMSTYLE
105
8F
330
A
100
AcDbSymbolTableRecord
100
AcDbDimStyleTableRecord
  2
STYLE3
 70
     0
 41
2.5
 42
0.0
 43
3.75
 44
1.25
 73
     0
 74
     0
 77
     1
 78
     8
140
2.5
141
2.5
143
0.0394
147
0.625
171
     4
172
     1
173
     1
176
     2
177
     2
178
     6
271
     1
273
     8
274
     4
340
3F
341
45
343
45
344
45
  0
ENDTAB
  0
TABLE
  2
BLOCK_RECORD
  5
1
330
0
100
AcDbSymbolTable
 70
     3
  0
BLOCK_RECORD
  5
18
102
{ACAD_XDICTIONARY
360
1294
102
}
330
1
100
AcDbSymbolTableRecord
100
AcDbBlockTableRecord
  2
*MODEL_SPACE
340
124B
  0
BLOCK_RECORD
  5
15
330
1
100
AcDbSymbolTableRecord
100
AcDbBlockTableRecord
  2
*PAPER_SPACE
340
124C
  0
BLOCK_RECORD
  5
45
330
1
100
AcDbSymbolTableRecord
100
AcDbBlockTableRecord
  2
_OPEN
340
0
102
{BLKREFS
331
F86
331
F87
331
F8F
331
F90
331
F97
331
F98
331
FA0
331
FA1
331
FA9
331
FAA
331
FBA
331
FBB
331
FCC
331
FCD
331
FD8
331
FD9
331
FDF
331
FE0
331
FE7
331
FE8
331
FF1
331
FF2
331
1180
331
1181
331
1189
331
118A
331
1291
331
1292
102
}
  0
ENDTAB
  0
ENDSEC
  0
SECTION
  2
BLOCKS
  0
BLOCK
  5
19
330
18
100
AcDbEntity
  8
0
100
AcDbBlockBegin
  2
*MODEL_SPACE
 70
     0
 10
0.0
 20
0.0
 30
0.0
  3
*MODEL_SPACE
  1

  0
ENDBLK
  5
1A
330
18
100
AcDbEntity
  8
0
100
AcDbBlockEnd
  0
BLOCK
  5
16
330
15
100
AcDbEntity
 67
     1
  8
0
100
AcDbBlockBegin
  2
*PAPER_SPACE
 70
     0
 10
0.0
 20
0.0
 30
0.0
  3
*PAPER_SPACE
  1

  0
ENDBLK
  5
17
330
15
100
AcDbEntity
 67
     1
  8
0
100
AcDbBlockEnd
  0
BLOCK
  5
46
330
45
100
AcDbEntity
  8
0
100
AcDbBlockBegin
  2
_OPEN
 70
     0
 10
0.0
 20
0.0
 30
0.0
  3
_OPEN
  1

  0
LINE
  5
47
330
45
100
AcDbEntity
  8
0
  6
ByBlock
 62
     0
100
AcDbLine
 10
-1.0
 20
0.1666666666666666
 30
0.0
 11
0.0
 21
0.0
 31
0.0
  0
LINE
  5
48
330
45
100
AcDbEntity
  8
0
  6
ByBlock
 62
     0
100
AcDbLine
 10
0.0
 20
0.0
 30
0.0
 11
-1.0
 21
-0.1666666666666666
 31
0.0
  0
LINE
  5
49
330
45
100
AcDbEntity
  8
0
  6
ByBlock
 62
     0
100
AcDbLine
 10
0.0
 20
0.0
 30
0.0
 11
-1.0
 21
0.0
 31
0.0
  0
ENDBLK
  5
4A
330
45
100
AcDbEntity
  8
0
100
AcDbBlockEnd
  0
ENDSEC
  0
SECTION
  2
ENTITIES
  0
LWPOLYLINE
  5
26C
330
18
100
AcDbEntity
  8
C
100
AcDbPolyline
 90
        5
 70
     0
 43
0.4
 10
0.0
 20
195.0
 10
255.0
 20
195.0
 10
255.0
 20
0.0
 10
0.0
 20
0.0
 10
0.0
 20
195.0
  0
LINE
  5
2BA
330
18
100
AcDbEntity
  8
中心線
 48
0.5
100
AcDbLine
 10
49.33197366354503
 20
112.3979562400541
 30
0.0
 11
136.6738592971896
 21
112.3979562400541
 31
0.0
  0
LINE
  5
2BB
330
18
100
AcDbEntity
  8
中心線
 48
0.5
100
AcDbLine
 10
91.26595149894994
 20
177.6766361620355
 30
0.0
 11
91.26595149894994
 21
23.08078860086784
 31
0.0
  0
CIRCLE
  5
2BC
330
18
100
AcDbEntity
  8
外形線
100
AcDbCircle
 10
91.26595149894994
 20
112.3979562400541
 30
0.0
 40
40.8
  0
CIRCLE
  5
2BE
330
18
100
AcDbEntity
  8
外形線
100
AcDbCircle
 10
91.26595149894994
 20
112.3979562400541
 30
0.0
 40
34.3
  0
LINE
  5
2BF
330
18
100
AcDbEntity
  8
外形線
100
AcDbLine
 10
83.26595149894993
 20
171.2543627006051
 30
0.0
 11
99.26595149894993
 21
171.2543627006051
 31
0.0
  0
LINE
  5
2C1
330
18
100
AcDbEntity
  8
外形線
100
AcDbLine
 10
99.26595149894993
 20
171.2543627006051
 30
0.0
 11
99.26595149894993
 21
152.4059554402141
 31
0.0
  0
LINE
  5
2C2
330
18
100
AcDbEntity
  8
外形線
100
AcDbLine
 10
83.26595149894993
 20
171.2543627006051
 30
0.0
 11
83.26595149894993
 21
152.4059554402141
 31
0.0
  0
LINE
  5
2C3
330
18
100
AcDbEntity
  8
外形線
100
AcDbLine
 10
99.26595149894993
 20
72.3899570398942
 30
0.0
 11
99.26595149894993
 21
53.79795624005422
 31
0.0
  0
LINE
  5
2C4
330
18
100
AcDbEntity
  8
外形線
100
AcDbLine
 10
83.26595149894993
 20
72.3899570398942
 30
0.0
 11
83.26595149894993
 21
53.7979562400541
 31
0.0
  0
LINE
  5
2C6
330
18
100
AcDbEntity
  8
外形線
100
AcDbLine
 10
91.2659514989499
 20
40.99795624005412
 30
0.0
 11
95.76595149894993
 21
40.99795624005415
 31
0.0
  0
LINE
  5
2C7
330
18
100
AcDbEntity
  8
外形線
100
AcDbLine
 10
84.46595149894992
 20
45.79795624005413
 30
0.0
 11
98.06595149894988
 21
45.79795624005419
 31
0.0
  0
LINE
  5
2C8
330
18
100
AcDbEntity
  8
外形線
100
AcDbLine
 10
95.26595149894992
 20
45.79795624005416
 30
0.0
 11
95.26595149894992
 21
40.99795624005415
 31
0.0
  0
LINE
  5
2C9
330
18
100
AcDbEntity
  8
外形線
100
AcDbLine
 10
87.26595149894993
 20
45.79795624005416
 30
0.0
 11
87.26595149894993
 21
40.99795624005415
 31
0.0
  0
LINE
  5
2D4
330
18
100
AcDbEntity
  8
外形線
100
AcDbLine
 10
83.26595149894993
 20
53.7979562400541
 30
0.0
 11
99.26595149894993
 21
53.79795624005422
 31
0.0
  0
LINE
  5
2D5
330
18
100
AcDbEntity
  8
外形線
100
AcDbLine
 10
99.06595149894995
 20
53.79795624005422
 30
0.0
 11
99.0659514989499
 21
46.79795624005419
 31
0.0
  0
LINE
  5
2D6
330
18
100
AcDbEntity
  8
外形線
100
AcDbLine
 10
83.46595149894993
 20
53.7979562400541
 30
0.0
 11
83.46595149894993
 21
46.79795624005413
 31
0.0
  0
ARC
  5
2D7
330
18
100
AcDbEntity
  8
外形線
100
AcDbCircle
 10
84.46595149894992
 20
46.79795624005413
 30
0.0
 40
1.0
100
AcDbArc
 50
180.0
 51
270.0000000000001
  0
ARC
  5
2D8
330
18
100
AcDbEntity
  8
外形線
100
AcDbCircle
 10
98.06595149894988
 20
46.79795624005419
 30
0.0
 40
1.0
100
AcDbArc
 50
270.0000000000001
 51
359.9999999999998
  0
LINE
  5
2DA
330
18
100
AcDbEntity
  8
外形線
100
AcDbLine
 10
95.74159584596776
 20
34.99795624005412
 30
0.0
 11
93.86595149894992
 21
27.99795624005415
 31
0.0
  0
LINE
  5
2DC
330
18
100
AcDbEntity
  8
外形線
100
AcDbLine
 10
91.26595149894994
 20
27.99795624005415
 30
0.0
 11
93.86595149894992
 21
27.99795624005415
 31
0.0
  0
LINE
  5
2DD
330
18
100
AcDbEntity
  8
外形線
100
AcDbLine
 10
91.26595149894994
 20
34.99795624005412
 30
0.0
 11
96.26595149894994
 21
34.99795624005412
 31
0.0
  0
LINE
  5
2DE
330
18
100
AcDbEntity
  8
外形線
100
AcDbLine
 10
96.26595149894994
 20
39.99795624005412
 30
0.0
 11
96.26595149894994
 21
34.99795624005412
 31
0.0
  0
LINE
  5
2DF
330
18
100
AcDbEntity
  8
外形線
100
AcDbLine
 10
91.26595149894994
 20
39.99795624005412
 30
0.0
 11
96.26595149894994
 21
39.99795624005412
 31
0.0
  0
LINE
  5
2E0
330
18
100
AcDbEntity
  8
外形線
100
AcDbLine
 10
95.76595149894993
 20
40.99795624005415
 30
0.0
 11
95.76595149894993
 21
39.99795624005412
 31
0.0
  0
LINE
  5
2E1
330
18
100
AcDbEntity
  8
外形線
100
AcDbLine
 10
91.26595149894994
 20
39.99795624005412
 30
0.0
 11
86.26595149894994
 21
39.99795624005412
 31
0.0
  0
LINE
  5
2E2
330
18
100
AcDbEntity
  8
外形線
100
AcDbLine
 10
91.26595149894994
 20
34.99795624005412
 30
0.0
 11
86.26595149894994
 21
34.99795624005412
 31
0.0
  0
LINE
  5
2E3
330
18
100
AcDbEntity
  8
外形線
100
AcDbLine
 10
86.7903071519321
 20
34.99795624005412
 30
0.0
 11
88.66595149894994
 21
27.99795624005415
 31
0.0
  0
LINE
  5
2E4
330
18
100
AcDbEntity
  8
外形線
100
AcDbLine
 10
91.26595149894995
 20
40.99795624005412
 30
0.0
 11
86.76595149894993
 21
40.99795624005415
 31
0.0
  0
LINE
  5
2E5
330
18
100
AcDbEntity
  8
外形線
100
AcDbLine
 10
91.26595149894994
 20
27.99795624005415
 30
0.0
 11
88.66595149894994
 21
27.99795624005415
 31
0.0
  0
LINE
  5
2E6
330
18
100
AcDbEntity
  8
外形線
100
AcDbLine
 10
86.26595149894994
 20
39.99795624005412
 30
0.0
 11
86.26595149894994
 21
34.99795624005412
 31
0.0
  0
LINE
  5
2E7
330
18
100
AcDbEntity
  8
外形線
100
AcDbLine
 10
86.76595149894993
 20
40.99795624005415
 30
0.0
 11
86.76595149894993
 21
39.99795624005412
 31
0.0
  0
LINE
  5
2EA
330
18
100
AcDbEntity
  8
外形線
 62
     4
100
AcDbLine
 10
88.42124108226554
 20
34.99795624005415
 30
0.0
 11
91.30799242821366
 21
39.99795624005412
 31
0.0
  0
LINE
  5
2EB
330
18
100
AcDbEntity
  8
外形線
 62
     4
100
AcDbLine
 10
86.26595149894994
 20
35.26488517672755
 30
0.0
 11
88.99859135145517
 21
39.99795624005415
 31
0.0
  0
LINE
  5
2EC
330
18
100
AcDbEntity
  8
外形線
 62
     4
100
AcDbLine
 10
86.26595149894994
 20
39.26488517672749
 30
0.0
 11
86.68919027469668
 21
39.99795624005412
 31
0.0
  0
LINE
  5
2ED
330
18
100
AcDbEntity
  8
外形線
 62
     4
100
AcDbLine
 10
90.73064215902405
 20
34.99795624005415
 30
0.0
 11
91.26595149894994
 21
35.92513921457197
 31
0.0
  0
LINE
  5
2EE
330
18
100
AcDbEntity
  8
外形線
 62
     4
100
AcDbLine
 10
86.99478921573817
 20
34.99795624005412
 30
0.0
 11
86.26595149894994
 21
36.26034019600382
 31
0.0
  0
LINE
  5
2EF
330
18
100
AcDbEntity
  8
外形線
 62
     4
100
AcDbLine
 10
89.30419029249666
 20
34.99795624005415
 30
0.0
 11
86.41743894654855
 21
39.99795624005412
 31
0.0
  0
LINE
  5
2F0
330
18
100
AcDbEntity
  8
外形線
 62
     4
100
AcDbLine
 10
91.26595149894994
 20
35.6000861581594
 30
0.0
 11
88.72684002330704
 21
39.99795624005415
 31
0.0
  0
LINE
  5
2F1
330
18
100
AcDbEntity
  8
外形線
 62
     4
100
AcDbLine
 10
91.26595149894994
 20
39.60008615815943
 30
0.0
 11
91.03624110006558
 21
39.99795624005415
 31
0.0
  0
LINE
  5
2F3
330
18
100
AcDbEntity
  8
外形線
100
AcDbLine
 10
191.4647048106736
 20
53.79795624005422
 30
0.0
 11
191.4647048106735
 21
46.79795624005419
 31
0.0
  0
LINE
  5
2F4
330
18
100
AcDbEntity
  8
外形線
100
AcDbLine
 10
175.8647048106736
 20
53.7979562400541
 30
0.0
 11
175.8647048106736
 21
46.79795624005413
 31
0.0
  0
LINE
  5
2F5
330
18
100
AcDbEntity
  8
外形線
100
AcDbLine
 10
183.6647048106736
 20
39.99795624005412
 30
0.0
 11
188.6647048106736
 21
39.99795624005412
 31
0.0
  0
LINE
  5
2F6
330
18
100
AcDbEntity
  8
外形線
100
AcDbLine
 10
183.6647048106736
 20
34.99795624005412
 30
0.0
 11
188.6647048106736
 21
34.99795624005412
 31
0.0
  0
LINE
  5
2F7
330
18
100
AcDbEntity
  8
外形線
100
AcDbLine
 10
188.1403491576914
 20
34.99795624005412
 30
0.0
 11
186.2647048106736
 21
27.99795624005415
 31
0.0
  0
LINE
  5
2F8
330
18
100
AcDbEntity
  8
外形線
100
AcDbLine
 10
183.6647048106736
 20
40.99795624005412
 30
0.0
 11
188.1647048106736
 21
40.99795624005415
 31
0.0
  0
LINE
  5
2F9
330
18
100
AcDbEntity
  8
外形線
100
AcDbLine
 10
176.8647048106736
 20
45.79795624005413
 30
0.0
 11
190.4647048106735
 21
45.79795624005419
 31
0.0
  0
LINE
  5
2FA
330
18
100
AcDbEntity
  8
外形線
 62
     4
100
AcDbLine
 10
178.6647048106736
 20
35.26488517672755
 30
0.0
 11
181.3973446631788
 21
39.99795624005415
 31
0.0
  0
LINE
  5
2FB
330
18
100
AcDbEntity
  8
外形線
 62
     4
100
AcDbLine
 10
183.6647048106736
 20
35.6000861581594
 30
0.0
 11
181.1255933350307
 21
39.99795624005415
 31
0.0
  0
LINE
  5
2FC
330
18
100
AcDbEntity
  8
外形線
 62
     4
100
AcDbLine
 10
181.7029436042203
 20
34.99795624005415
 30
0.0
 11
178.8161922582722
 21
39.99795624005412
 31
0.0
  0
LINE
  5
2FD
330
18
100
AcDbEntity
  8
外形線
 62
     4
100
AcDbLine
 10
180.8199943939892
 20
34.99795624005415
 30
0.0
 11
183.7067457399373
 21
39.99795624005412
 31
0.0
  0
LINE
  5
2FE
330
18
100
AcDbEntity
  8
外形線
100
AcDbLine
 10
178.6647048106736
 20
39.99795624005412
 30
0.0
 11
178.6647048106736
 21
34.99795624005412
 31
0.0
  0
LINE
  5
2FF
330
18
100
AcDbEntity
  8
外形線
 62
     4
100
AcDbLine
 10
179.3935425274618
 20
34.99795624005412
 30
0.0
 11
178.6647048106736
 21
36.26034019600382
 31
0.0
  0
LINE
  5
300
330
18
100
AcDbEntity
  8
外形線
 62
     4
100
AcDbLine
 10
183.1293954707477
 20
34.99795624005415
 30
0.0
 11
183.6647048106736
 21
35.92513921457197
 31
0.0
  0
LINE
  5
301
330
18
100
AcDbEntity
  8
外形線
100
AcDbLine
 10
183.6647048106736
 20
27.99795624005415
 30
0.0
 11
181.0647048106736
 21
27.99795624005415
 31
0.0
  0
LINE
  5
302
330
18
100
AcDbEntity
  8
外形線
100
AcDbLine
 10
179.1890604636558
 20
34.99795624005412
 30
0.0
 11
181.0647048106736
 21
27.99795624005415
 31
0.0
  0
LINE
  5
303
330
18
100
AcDbEntity
  8
外形線
100
AcDbLine
 10
183.6647048106736
 20
34.99795624005412
 30
0.0
 11
178.6647048106736
 21
34.99795624005412
 31
0.0
  0
LINE
  5
304
330
18
100
AcDbEntity
  8
外形線
100
AcDbLine
 10
183.6647048106736
 20
27.99795624005415
 30
0.0
 11
186.2647048106736
 21
27.99795624005415
 31
0.0
  0
ARC
  5
305
330
18
100
AcDbEntity
  8
外形線
100
AcDbCircle
 10
176.8647048106736
 20
46.79795624005413
 30
0.0
 40
1.0
100
AcDbArc
 50
180.0
 51
270.0000000000001
  0
LINE
  5
306
330
18
100
AcDbEntity
  8
外形線
 62
     4
100
AcDbLine
 10
183.6647048106736
 20
39.60008615815943
 30
0.0
 11
183.4349944117893
 21
39.99795624005415
 31
0.0
  0
LINE
  5
307
330
18
100
AcDbEntity
  8
外形線
 62
     4
100
AcDbLine
 10
178.6647048106736
 20
39.26488517672749
 30
0.0
 11
179.0879435864203
 21
39.99795624005412
 31
0.0
  0
LINE
  5
308
330
18
100
AcDbEntity
  8
外形線
100
AcDbLine
 10
179.1647048106736
 20
40.99795624005415
 30
0.0
 11
179.1647048106736
 21
39.99795624005412
 31
0.0
  0
LINE
  5
309
330
18
100
AcDbEntity
  8
外形線
100
AcDbLine
 10
183.6647048106736
 20
40.99795624005412
 30
0.0
 11
179.1647048106736
 21
40.99795624005415
 31
0.0
  0
LINE
  5
30A
330
18
100
AcDbEntity
  8
外形線
100
AcDbLine
 10
183.6647048106736
 20
39.99795624005412
 30
0.0
 11
178.6647048106736
 21
39.99795624005412
 31
0.0
  0
LINE
  5
30B
330
18
100
AcDbEntity
  8
外形線
100
AcDbLine
 10
179.6647048106736
 20
45.79795624005416
 30
0.0
 11
179.6647048106736
 21
40.99795624005415
 31
0.0
  0
LINE
  5
30C
330
18
100
AcDbEntity
  8
外形線
100
AcDbLine
 10
188.6647048106736
 20
39.99795624005412
 30
0.0
 11
188.6647048106736
 21
34.99795624005412
 31
0.0
  0
LINE
  5
30D
330
18
100
AcDbEntity
  8
外形線
100
AcDbLine
 10
188.1647048106736
 20
40.99795624005415
 30
0.0
 11
188.1647048106736
 21
39.99795624005412
 31
0.0
  0
ARC
  5
30E
330
18
100
AcDbEntity
  8
外形線
100
AcDbCircle
 10
190.4647048106735
 20
46.79795624005419
 30
0.0
 40
1.0
100
AcDbArc
 50
270.0000000000001
 51
359.9999999999998
  0
LINE
  5
30F
330
18
100
AcDbEntity
  8
外形線
100
AcDbLine
 10
187.6647048106736
 20
45.79795624005416
 30
0.0
 11
187.6647048106736
 21
40.99795624005415
 31
0.0
  0
LINE
  5
310
330
18
100
AcDbEntity
  8
外形線
100
AcDbLine
 10
175.6647048106736
 20
53.7979562400541
 30
0.0
 11
191.6647048106736
 21
53.79795624005422
 31
0.0
  0
LINE
  5
311
330
18
100
AcDbEntity
  8
外形線
100
AcDbLine
 10
175.6647048106736
 20
75.39795624005416
 30
0.0
 11
175.6647048106736
 21
53.7979562400541
 31
0.0
  0
LINE
  5
312
330
18
100
AcDbEntity
  8
外形線
100
AcDbLine
 10
191.6647048106735
 20
75.39795624005416
 30
0.0
 11
191.6647048106736
 21
53.79795624005422
 31
0.0
  0
LINE
  5
313
330
18
100
AcDbEntity
  8
中心線
 48
0.5
100
AcDbLine
 10
154.7004433171248
 20
112.3979562400541
 30
0.0
 11
201.9344843765669
 21
112.3979562400541
 31
0.0
  0
LINE
  5
315
330
18
100
AcDbEntity
  8
中心線
 48
0.5
100
AcDbLine
 10
183.5647048106736
 20
180.1751010257344
 30
0.0
 11
183.5647048106736
 21
23.08078860086784
 31
0.0
  0
LINE
  5
317
330
18
100
AcDbEntity
  8
外形線
100
AcDbLine
 10
193.8647048106736
 20
149.3979562400541
 30
0.0
 11
193.8647048106736
 21
75.39795624005416
 31
0.0
  0
LINE
  5
318
330
18
100
AcDbEntity
  8
外形線
100
AcDbLine
 10
173.2647048106736
 20
149.3979562400541
 30
0.0
 11
193.8647048106736
 21
149.3979562400541
 31
0.0
  0
LINE
  5
319
330
18
100
AcDbEntity
  8
外形線
100
AcDbLine
 10
173.2647048106736
 20
75.39795624005416
 30
0.0
 11
193.8647048106736
 21
75.39795624005416
 31
0.0
  0
LINE
  5
321
330
18
100
AcDbEntity
  8
外形線
100
AcDbLine
 10
173.2647048106736
 20
152.7979562400542
 30
0.0
 11
173.2647048106736
 21
112.3979562400541
 31
0.0
  0
LINE
  5
322
330
18
100
AcDbEntity
  8
外形線
100
AcDbLine
 10
166.0647048106736
 20
153.1979562400542
 30
0.0
 11
172.8647048106736
 21
153.1979562400542
 31
0.0
  0
LINE
  5
323
330
18
100
AcDbEntity
  8
外形線
100
AcDbLine
 10
173.2647048106736
 20
152.7979562400542
 30
0.0
 11
172.8647048106736
 21
153.1979562400542
 31
0.0
  0
LINE
  5
324
330
18
100
AcDbEntity
  8
外形線
100
AcDbLine
 10
165.6647048106736
 20
152.7979562400542
 30
0.0
 11
165.6647048106724
 21
112.3979562400541
 31
0.0
  0
LINE
  5
325
330
18
100
AcDbEntity
  8
外形線
100
AcDbLine
 10
166.0647048106736
 20
153.1979562400542
 30
0.0
 11
165.6647048106736
 21
152.7979562400542
 31
0.0
  0
LINE
  5
326
330
18
100
AcDbEntity
  8
外形線
100
AcDbLine
 10
163.2647048106736
 20
150.0979562400541
 30
0.0
 11
165.6647048106735
 21
150.7979562400541
 31
0.0
  0
LINE
  5
328
330
18
100
AcDbEntity
  8
外形線
100
AcDbLine
 10
163.2647048106736
 20
150.0979562400541
 30
0.0
 11
163.2647048106736
 21
112.3979562400541
 31
0.0
  0
LINE
  5
329
330
18
100
AcDbEntity
  8
外形線
100
AcDbLine
 10
163.2647048106736
 20
74.69795624005417
 30
0.0
 11
163.2647048106736
 21
112.3979562400541
 31
0.0
  0
LINE
  5
32A
330
18
100
AcDbEntity
  8
外形線
100
AcDbLine
 10
165.6647048106736
 20
71.99795624005407
 30
0.0
 11
165.6647048106724
 21
112.3979562400542
 31
0.0
  0
LINE
  5
32B
330
18
100
AcDbEntity
  8
外形線
100
AcDbLine
 10
173.2647048106736
 20
71.99795624005407
 30
0.0
 11
173.2647048106736
 21
112.3979562400542
 31
0.0
  0
LINE
  5
32C
330
18
100
AcDbEntity
  8
外形線
100
AcDbLine
 10
166.0647048106736
 20
71.59795624005409
 30
0.0
 11
172.8647048106736
 21
71.59795624005409
 31
0.0
  0
LINE
  5
32D
330
18
100
AcDbEntity
  8
外形線
100
AcDbLine
 10
163.2647048106736
 20
74.69795624005417
 30
0.0
 11
165.6647048106735
 21
73.99795624005418
 31
0.0
  0
LINE
  5
32E
330
18
100
AcDbEntity
  8
外形線
100
AcDbLine
 10
166.0647048106736
 20
71.59795624005409
 30
0.0
 11
165.6647048106736
 21
71.99795624005407
 31
0.0
  0
LINE
  5
32F
330
18
100
AcDbEntity
  8
外形線
100
AcDbLine
 10
173.2647048106736
 20
71.99795624005407
 30
0.0
 11
172.8647048106736
 21
71.59795624005409
 31
0.0
  0
ARC
  5
332
330
18
100
AcDbEntity
  8
外形線
100
AcDbCircle
 10
296.4092700280659
 20
112.3979562400541
 30
0.0
 40
137.7445652173922
100
AcDbArc
 50
165.1510621681632
 51
194.8489378318368
  0
LINE
  5
333
330
18
100
AcDbEntity
  8
ﾊｯﾁﾝｸ
 62
     4
100
AcDbLine
 10
165.6647048106735
 20
151.3979562400542
 30
0.0
 11
173.2647048106736
 21
151.3979562400542
 31
0.0
  0
LINE
  5
334
330
18
100
AcDbEntity
  8
ﾊｯﾁﾝｸ
 62
     4
100
AcDbLine
 10
165.6647048106735
 20
149.3979562400542
 30
0.0
 11
173.2647048106736
 21
149.3979562400542
 31
0.0
  0
LINE
  5
335
330
18
100
AcDbEntity
  8
ﾊｯﾁﾝｸ
 62
     4
100
AcDbLine
 10
165.6647048106734
 20
147.1979562400542
 30
0.0
 11
173.2647048106736
 21
147.1979562400542
 31
0.0
  0
LINE
  5
336
330
18
100
AcDbEntity
  8
ﾊｯﾁﾝｸ
 62
     4
100
AcDbLine
 10
165.6647048106733
 20
144.7979562400542
 30
0.0
 11
173.2647048106736
 21
144.7979562400543
 31
0.0
  0
LINE
  5
337
330
18
100
AcDbEntity
  8
ﾊｯﾁﾝｸ
 62
     4
100
AcDbLine
 10
165.6647048106735
 20
73.3979562400541
 30
0.0
 11
173.2647048106736
 21
73.39795624005404
 31
0.0
  0
LINE
  5
338
330
18
100
AcDbEntity
  8
ﾊｯﾁﾝｸ
 62
     4
100
AcDbLine
 10
165.6647048106735
 20
75.3979562400541
 30
0.0
 11
173.2647048106736
 21
75.39795624005404
 31
0.0
  0
LINE
  5
339
330
18
100
AcDbEntity
  8
ﾊｯﾁﾝｸ
 62
     4
100
AcDbLine
 10
165.6647048106734
 20
77.59795624005409
 30
0.0
 11
173.2647048106736
 21
77.59795624005409
 31
0.0
  0
LINE
  5
33A
330
18
100
AcDbEntity
  8
ﾊｯﾁﾝｸ
 62
     4
100
AcDbLine
 10
165.6647048106733
 20
79.99795624005412
 30
0.0
 11
173.2647048106736
 21
79.997956240054
 31
0.0
  0
LINE
  5
33B
330
18
100
AcDbEntity
  8
ﾊｯﾁﾝｸ
 62
     4
100
AcDbLine
 10
165.6647048106724
 20
112.3979562400541
 30
0.0
 11
173.2647048106736
 21
112.3979562400542
 31
0.0
  0
LINE
  5
33C
330
18
100
AcDbEntity
  8
ﾊｯﾁﾝｸ
 62
     4
100
AcDbLine
 10
165.6647048106724
 20
114.5979562400541
 30
0.0
 11
173.2647048106736
 21
114.5979562400541
 31
0.0
  0
LINE
  5
33D
330
18
100
AcDbEntity
  8
ﾊｯﾁﾝｸ
 62
     4
100
AcDbLine
 10
165.6647048106724
 20
110.1979562400541
 30
0.0
 11
173.2647048106736
 21
110.1979562400542
 31
0.0
  0
LINE
  5
33E
330
18
100
AcDbEntity
  8
ﾊｯﾁﾝｸ
 62
     4
100
AcDbLine
 10
165.6647048106724
 20
116.5979562400541
 30
0.0
 11
173.2647048106736
 21
116.5979562400542
 31
0.0
  0
LINE
  5
33F
330
18
100
AcDbEntity
  8
ﾊｯﾁﾝｸ
 62
     4
100
AcDbLine
 10
165.6647048106724
 20
108.1979562400541
 30
0.0
 11
173.2647048106736
 21
108.1979562400542
 31
0.0
  0
LINE
  5
340
330
18
100
AcDbEntity
  8
ﾊｯﾁﾝｸ
 62
     4
100
AcDbLine
 10
165.6647048106724
 20
118.3979562400541
 30
0.0
 11
173.2647048106736
 21
118.3979562400542
 31
0.0
  0
LINE
  5
341
330
18
100
AcDbEntity
  8
ﾊｯﾁﾝｸ
 62
     4
100
AcDbLine
 10
165.6647048106724
 20
106.3979562400541
 30
0.0
 11
173.2647048106736
 21
106.3979562400542
 31
0.0
  0
LINE
  5
347
330
18
100
AcDbEntity
  8
目盛
100
AcDbLine
 10
91.26595149894994
 20
146.6979562400541
 30
0.0
 11
91.26595149894994
 21
141.3979562400541
 31
0.0
  0
LINE
  5
348
330
18
100
AcDbEntity
  8
目盛
100
AcDbLine
 10
92.34334053532974
 20
146.6810312605988
 30
0.0
 11
92.23968503037193
 21
143.3826596113918
 31
0.0
  0
LINE
  5
349
330
18
100
AcDbEntity
  8
目盛
100
AcDbLine
 10
93.41966631880538
 20
146.6302730251439
 30
0.0
 11
93.21245760435862
 21
143.3367848213306
 31
0.0
  0
LINE
  5
34A
330
18
100
AcDbEntity
  8
目盛
100
AcDbLine
 10
94.49386664577497
 20
146.5457316259398
 30
0.0
 11
94.18330921182388
 21
143.2603771427496
 31
0.0
  0
LINE
  5
34B
330
18
100
AcDbEntity
  8
目盛
100
AcDbLine
 10
95.56488141020556
 20
146.4274904951407
 30
0.0
 11
95.15128173944336
 21
143.153511980803
 31
0.0
  0
LINE
  5
34C
330
18
100
AcDbEntity
  8
目盛
100
AcDbLine
 10
96.63165364982985
 20
146.2756663224674
 30
0.0
 11
95.95898545015685
 21
142.0286064579082
 31
0.0
  0
LINE
  5
34D
330
18
100
AcDbEntity
  8
目盛
100
AcDbLine
 10
97.6931305892403
 20
146.0904089400482
 30
0.0
 11
97.07477225110743
 21
142.8488610126435
 31
0.0
  0
LINE
  5
34E
330
18
100
AcDbEntity
  8
目盛
100
AcDbLine
 10
98.74826467885132
 20
145.8719011745532
 30
0.0
 11
98.02839198224271
 21
142.6513758601553
 31
0.0
  0
LINE
  5
34F
330
18
100
AcDbEntity
  8
目盛
100
AcDbLine
 10
99.79601462870446
 20
145.6203586667662
 30
0.0
 11
98.97533800106041
 21
142.4240342350417
 31
0.0
  0
LINE
  5
350
330
18
100
AcDbEntity
  8
目盛
100
AcDbLine
 10
100.8353464360955
 20
145.3360296587733
 30
0.0
 11
99.91467578616605
 21
142.1670604960393
 31
0.0
  0
LINE
  5
352
330
18
100
AcDbEntity
  8
目盛
100
AcDbLine
 10
85.90024934807003
 20
146.2756663224674
 30
0.0
 11
86.572917547743
 21
142.0286064579082
 31
0.0
  0
LINE
  5
353
330
18
100
AcDbEntity
  8
目盛
100
AcDbLine
 10
90.18856246257016
 20
146.6810312605988
 30
0.0
 11
90.29221796752798
 21
143.3826596113918
 31
0.0
  0
LINE
  5
354
330
18
100
AcDbEntity
  8
目盛
100
AcDbLine
 10
89.11223667909451
 20
146.6302730251439
 30
0.0
 11
89.3194453935412
 21
143.3367848213306
 31
0.0
  0
LINE
  5
355
330
18
100
AcDbEntity
  8
目盛
100
AcDbLine
 10
88.03803635212487
 20
146.5457316259398
 30
0.0
 11
88.34859378607594
 21
143.2603771427495
 31
0.0
  0
LINE
  5
356
330
18
100
AcDbEntity
  8
目盛
100
AcDbLine
 10
86.96702158769429
 20
146.4274904951408
 30
0.0
 11
87.38062125845653
 21
143.153511980803
 31
0.0
  0
LINE
  5
357
330
18
100
AcDbEntity
  8
目盛
100
AcDbLine
 10
84.83877240865959
 20
146.0904089400482
 30
0.0
 11
85.45713074679246
 21
142.8488610126435
 31
0.0
  0
LINE
  5
358
330
18
100
AcDbEntity
  8
目盛
100
AcDbLine
 10
83.78363831904854
 20
145.8719011745532
 30
0.0
 11
84.50351101565713
 21
142.6513758601553
 31
0.0
  0
LINE
  5
359
330
18
100
AcDbEntity
  8
目盛
100
AcDbLine
 10
80.66666859188925
 20
145.0191947489779
 30
0.0
 11
82.30445866207649
 21
139.9785952126135
 31
0.0
  0
LINE
  5
35A
330
18
100
AcDbEntity
  8
目盛
100
AcDbLine
 10
82.73588836919541
 20
145.6203586667662
 30
0.0
 11
83.55656499683945
 21
142.4240342350417
 31
0.0
  0
LINE
  5
35B
330
18
100
AcDbEntity
  8
目盛
100
AcDbLine
 10
81.69655656180436
 20
145.3360296587733
 30
0.0
 11
82.61722721173388
 21
142.1670604960393
 31
0.0
  0
LINE
  5
35C
330
18
100
AcDbEntity
  8
目盛
100
AcDbLine
 10
75.69407735788345
 20
142.9594800197151
 30
0.0
 11
77.64623650676353
 21
139.1281519657052
 31
0.0
  0
LINE
  5
35D
330
18
100
AcDbEntity
  8
目盛
100
AcDbLine
 10
79.64724083453643
 20
144.6701666151841
 30
0.0
 11
80.76507597134591
 21
141.5652600776351
 31
0.0
  0
LINE
  5
35E
330
18
100
AcDbEntity
  8
目盛
100
AcDbLine
 10
78.63927934186548
 20
144.2892897060211
 30
0.0
 11
79.85409036572486
 21
141.2210273025899
 31
0.0
  0
LINE
  5
35F
330
18
100
AcDbEntity
  8
目盛
100
AcDbLine
 10
77.64377885017691
 20
143.8769399010147
 30
0.0
 11
78.95436688927168
 21
140.8483496362575
 31
0.0
  0
LINE
  5
360
330
18
100
AcDbEntity
  8
目盛
100
AcDbLine
 10
76.66172179826791
 20
143.4335241396387
 30
0.0
 11
78.06679346043267
 21
140.4475948665007
 31
0.0
  0
LINE
  5
361
330
18
100
AcDbEntity
  8
目盛
100
AcDbLine
 10
74.74180047726108
 20
142.4552753655587
 30
0.0
 11
76.33158760179674
 21
139.5634633214139
 31
0.0
  0
LINE
  5
362
330
18
100
AcDbEntity
  8
目盛
100
AcDbLine
 10
73.80583093871215
 20
141.9214077662894
 30
0.0
 11
75.4856676106884
 21
139.0809590771764
 31
0.0
  0
LINE
  5
363
330
18
100
AcDbEntity
  8
目盛
100
AcDbLine
 10
71.10491734531809
 20
140.1472391471148
 30
0.0
 11
74.2201791824682
 21
135.8594490769276
 31
0.0
  0
LINE
  5
364
330
18
100
AcDbEntity
  8
目盛
100
AcDbLine
 10
72.88709243117032
 20
141.3584040847733
 30
0.0
 11
74.655320854601
 21
138.5721219306166
 31
0.0
  0
LINE
  5
365
330
18
100
AcDbEntity
  8
目盛
100
AcDbLine
 10
71.98649163862183
 20
140.7668199376716
 30
0.0
 11
73.84136678553389
 21
138.0374540425655
 31
0.0
  0
LINE
  5
366
330
18
100
AcDbEntity
  8
目盛
100
AcDbLine
 10
67.01218890425136
 20
136.6517188347527
 30
0.0
 11
70.0527480633535
 21
133.6111596756506
 31
0.0
  0
LINE
  5
367
330
18
100
AcDbEntity
  8
目盛
100
AcDbLine
 10
70.24323955865281
 20
139.5002731645403
 30
0.0
 11
72.26583283570764
 21
136.8927616237005
 31
0.0
  0
LINE
  5
368
330
18
100
AcDbEntity
  8
目盛
100
AcDbLine
 10
69.40230865056983
 20
138.8265604672637
 30
0.0
 11
71.50580781674048
 21
136.2838667661036
 31
0.0
  0
LINE
  5
369
330
18
100
AcDbEntity
  8
目盛
100
AcDbLine
 10
68.58295451834862
 20
138.1267659283789
 30
0.0
 11
70.76528367391668
 21
135.6513993985983
 31
0.0
  0
LINE
  5
36A
330
18
100
AcDbEntity
  8
目盛
100
AcDbLine
 10
67.78598576559588
 20
137.4015801606086
 30
0.0
 11
70.04499121516056
 21
134.9959836901179
 31
0.0
  0
LINE
  5
36B
330
18
100
AcDbEntity
  8
目盛
100
AcDbLine
 10
66.26232757839549
 20
135.8779219734082
 30
0.0
 11
68.66792404888613
 21
133.6189165238435
 31
0.0
  0
LINE
  5
36C
330
18
100
AcDbEntity
  8
目盛
100
AcDbLine
 10
65.53714181062514
 20
135.0809532206554
 30
0.0
 11
68.01250834040567
 21
132.8986240650873
 31
0.0
  0
LINE
  5
36D
330
18
100
AcDbEntity
  8
目盛
100
AcDbLine
 10
63.51666859188921
 20
132.5589903936859
 30
0.0
 11
67.80445866207642
 21
129.4437285565358
 31
0.0
  0
LINE
  5
36E
330
18
100
AcDbEntity
  8
目盛
100
AcDbLine
 10
64.8373472717403
 20
134.2615990884342
 30
0.0
 11
67.38004097290044
 21
132.1580999222635
 31
0.0
  0
LINE
  5
36F
330
18
100
AcDbEntity
  8
目盛
100
AcDbLine
 10
64.16363457446371
 20
133.4206681803512
 30
0.0
 11
66.77114611530353
 21
131.3980749032964
 31
0.0
  0
LINE
  5
370
330
18
100
AcDbEntity
  8
目盛
100
AcDbLine
 10
60.70442771928887
 20
127.9698303811206
 30
0.0
 11
64.53575577329889
 21
126.0176712322405
 31
0.0
  0
LINE
  5
371
330
18
100
AcDbEntity
  8
目盛
100
AcDbLine
 10
62.89708780133245
 20
131.6774161003822
 30
0.0
 11
65.62645369643852
 21
129.8225409534702
 31
0.0
  0
LINE
  5
372
330
18
100
AcDbEntity
  8
目盛
100
AcDbLine
 10
62.30550365423082
 20
130.7768153078337
 30
0.0
 11
65.09178580838741
 21
129.0085868844031
 31
0.0
  0
LINE
  5
373
330
18
100
AcDbEntity
  8
目盛
100
AcDbLine
 10
61.74249997271465
 20
129.8580768002919
 30
0.0
 11
64.58294866182768
 21
128.1782401283156
 31
0.0
  0
LINE
  5
374
330
18
100
AcDbEntity
  8
目盛
100
AcDbLine
 10
61.20863237344534
 20
128.922107261743
 30
0.0
 11
64.10044441759012
 21
127.3323201372073
 31
0.0
  0
LINE
  5
375
330
18
100
AcDbEntity
  8
目盛
100
AcDbLine
 10
60.23038359936541
 20
127.0021859407362
 30
0.0
 11
63.2163128725033
 21
125.5971142785714
 31
0.0
  0
LINE
  5
376
330
18
100
AcDbEntity
  8
目盛
100
AcDbLine
 10
59.78696783798935
 20
126.0201288888271
 30
0.0
 11
62.8155581027465
 21
124.7095408497323
 31
0.0
  0
LINE
  5
377
330
18
100
AcDbEntity
  8
目盛
100
AcDbLine
 10
58.64471299002613
 20
122.9972391471148
 30
0.0
 11
63.6853125263905
 21
121.3594490769276
 31
0.0
  0
LINE
  5
378
330
18
100
AcDbEntity
  8
目盛
100
AcDbLine
 10
59.37461803298285
 20
125.0246283971386
 30
0.0
 11
62.4428804364141
 21
123.8098173732792
 31
0.0
  0
LINE
  5
379
330
18
100
AcDbEntity
  8
目盛
100
AcDbLine
 10
58.99374112381995
 20
124.0166669044676
 30
0.0
 11
62.09864766136894
 21
122.8988317676582
 31
0.0
  0
LINE
  5
37A
330
18
100
AcDbEntity
  8
目盛
100
AcDbLine
 10
57.38824141653672
 20
117.7636583909341
 30
0.0
 11
61.63530128109582
 21
117.0909901912611
 31
0.0
  0
LINE
  5
37B
330
18
100
AcDbEntity
  8
目盛
100
AcDbLine
 10
58.32787808023076
 20
121.9673511771997
 30
0.0
 11
61.49684724296472
 21
121.0466805272703
 31
0.0
  0
LINE
  5
37C
330
18
100
AcDbEntity
  8
目盛
100
AcDbLine
 10
58.04354907223788
 20
120.9280193698087
 30
0.0
 11
61.23987350396234
 21
120.1073427421646
 31
0.0
  0
LINE
  5
37D
330
18
100
AcDbEntity
  8
目盛
100
AcDbLine
 10
57.79200656445087
 20
119.8802694199555
 30
0.0
 11
61.01253187884876
 21
119.1603967233469
 31
0.0
  0
LINE
  5
37E
330
18
100
AcDbEntity
  8
目盛
100
AcDbLine
 10
57.57349879895585
 20
118.8251353303445
 30
0.0
 11
60.81504672636057
 21
118.2067769922116
 31
0.0
  0
LINE
  5
37F
330
18
100
AcDbEntity
  8
目盛
100
AcDbLine
 10
57.23641724386332
 20
116.6968861513098
 30
0.0
 11
60.5103957582011
 21
116.2832864805476
 31
0.0
  0
LINE
  5
380
330
18
100
AcDbEntity
  8
目盛
100
AcDbLine
 10
57.11817611306426
 20
115.6258713868792
 30
0.0
 11
60.40353059625445
 21
115.3153139529281
 31
0.0
  0
LINE
  5
381
330
18
100
AcDbEntity
  8
目盛
100
AcDbLine
 10
56.96595149894992
 20
112.3979562400541
 30
0.0
 11
62.26595149894993
 21
112.3979562400541
 31
0.0
  0
LINE
  5
382
330
18
100
AcDbEntity
  8
目盛
100
AcDbLine
 10
57.03363471386015
 20
114.5516710599096
 30
0.0
 11
60.3271229176735
 21
114.3444623454628
 31
0.0
  0
LINE
  5
383
330
18
100
AcDbEntity
  8
目盛
100
AcDbLine
 10
56.9828764784053
 20
113.4753452764339
 30
0.0
 11
60.28124812761226
 21
113.3716897714761
 31
0.0
  0
LINE
  5
384
330
18
100
AcDbEntity
  8
目盛
100
AcDbLine
 10
57.38824141653672
 20
107.0322540891742
 30
0.0
 11
61.63530128109582
 21
107.7049222888472
 31
0.0
  0
LINE
  5
385
330
18
100
AcDbEntity
  8
目盛
100
AcDbLine
 10
56.98287647840536
 20
111.3205672036744
 30
0.0
 11
60.28124812761226
 21
111.4242227086322
 31
0.0
  0
LINE
  5
386
330
18
100
AcDbEntity
  8
目盛
100
AcDbLine
 10
57.03363471386021
 20
110.2442414201987
 30
0.0
 11
60.3271229176735
 21
110.4514501346454
 31
0.0
  0
LINE
  5
387
330
18
100
AcDbEntity
  8
目盛
100
AcDbLine
 10
57.11817611306426
 20
109.1700410932291
 30
0.0
 11
60.40353059625445
 21
109.4805985271801
 31
0.0
  0
LINE
  5
388
330
18
100
AcDbEntity
  8
目盛
100
AcDbLine
 10
57.23641724386332
 20
108.0990263287985
 30
0.0
 11
60.5103957582011
 21
108.5126259995607
 31
0.0
  0
LINE
  5
389
330
18
100
AcDbEntity
  8
目盛
100
AcDbLine
 10
57.57349879895591
 20
105.9707771497638
 30
0.0
 11
60.81504672636057
 21
106.5891354878967
 31
0.0
  0
LINE
  5
38A
330
18
100
AcDbEntity
  8
目盛
100
AcDbLine
 10
57.79200656445087
 20
104.9156430601527
 30
0.0
 11
61.01253187884876
 21
105.6355157567614
 31
0.0
  0
LINE
  5
38B
330
18
100
AcDbEntity
  8
目盛
100
AcDbLine
 10
58.64471299002613
 20
101.7986733329935
 30
0.0
 11
63.68531252639044
 21
103.4364634031807
 31
0.0
  0
LINE
  5
38C
330
18
100
AcDbEntity
  8
目盛
100
AcDbLine
 10
58.04354907223782
 20
103.8678931102996
 30
0.0
 11
61.2398735039624
 21
104.6885697379436
 31
0.0
  0
LINE
  5
38D
330
18
100
AcDbEntity
  8
目盛
100
AcDbLine
 10
58.32787808023076
 20
102.8285613029086
 30
0.0
 11
61.49684724296472
 21
103.7492319528381
 31
0.0
  0
LINE
  5
38E
330
18
100
AcDbEntity
  8
目盛
100
AcDbLine
 10
60.70442771928893
 20
96.82608209898768
 30
0.0
 11
64.53575577329892
 21
98.77824124786776
 31
0.0
  0
LINE
  5
38F
330
18
100
AcDbEntity
  8
目盛
100
AcDbLine
 10
58.99374112382
 20
100.7792455756406
 30
0.0
 11
62.09864766136897
 21
101.8970807124501
 31
0.0
  0
LINE
  5
390
330
18
100
AcDbEntity
  8
目盛
100
AcDbLine
 10
59.3746180329829
 20
99.77128408296971
 30
0.0
 11
62.44288043641413
 21
100.986095106829
 31
0.0
  0
LINE
  5
391
330
18
100
AcDbEntity
  8
目盛
100
AcDbLine
 10
59.78696783798941
 20
98.77578359128115
 30
0.0
 11
62.81555810274657
 21
100.0863716303759
 31
0.0
  0
LINE
  5
392
330
18
100
AcDbEntity
  8
目盛
100
AcDbLine
 10
60.23038359936546
 20
97.79372653937214
 30
0.0
 11
63.21631287250332
 21
99.1987982015369
 31
0.0
  0
LINE
  5
393
330
18
100
AcDbEntity
  8
目盛
100
AcDbLine
 10
61.2086323734454
 20
95.8738052183653
 30
0.0
 11
64.10044441759012
 21
97.46359234290096
 31
0.0
  0
LINE
  5
394
330
18
100
AcDbEntity
  8
目盛
100
AcDbLine
 10
61.74249997271468
 20
94.93783567981637
 30
0.0
 11
64.58294866182772
 21
96.61767235179263
 31
0.0
  0
LINE
  5
395
330
18
100
AcDbEntity
  8
目盛
100
AcDbLine
 10
63.51666859188927
 20
92.23692208642232
 30
0.0
 11
67.80445866207648
 21
95.35218392357242
 31
0.0
  0
LINE
  5
396
330
18
100
AcDbEntity
  8
目盛
100
AcDbLine
 10
62.30550365423076
 20
94.01909717227454
 30
0.0
 11
65.09178580838753
 21
95.78732559570523
 31
0.0
  0
LINE
  5
397
330
18
100
AcDbEntity
  8
目盛
100
AcDbLine
 10
62.89708780133245
 20
93.11849637972605
 30
0.0
 11
65.62645369643852
 21
94.97337152663812
 31
0.0
  0
LINE
  5
398
330
18
100
AcDbEntity
  8
目盛
100
AcDbLine
 10
67.01218890425136
 20
88.14419364535558
 30
0.0
 11
70.0527480633535
 21
91.18475280445773
 31
0.0
  0
LINE
  5
399
330
18
100
AcDbEntity
  8
目盛
100
AcDbLine
 10
64.16363457446371
 20
91.37524429975702
 30
0.0
 11
66.77114611530353
 21
93.39783757681187
 31
0.0
  0
LINE
  5
39A
330
18
100
AcDbEntity
  8
目盛
100
AcDbLine
 10
64.83734727174035
 20
90.53431339167406
 30
0.0
 11
67.38004097290044
 21
92.6378125578447
 31
0.0
  0
LINE
  5
39B
330
18
100
AcDbEntity
  8
目盛
100
AcDbLine
 10
65.53714181062517
 20
89.71495925945282
 30
0.0
 11
68.01250834040573
 21
91.89728841502091
 31
0.0
  0
LINE
  5
39C
330
18
100
AcDbEntity
  8
目盛
100
AcDbLine
 10
66.26232757839549
 20
88.91799050670007
 30
0.0
 11
68.66792404888613
 21
91.17699595626481
 31
0.0
  0
LINE
  5
39D
330
18
100
AcDbEntity
  8
目盛
100
AcDbLine
 10
67.78598576559588
 20
87.39433231949972
 30
0.0
 11
70.04499121516054
 21
89.79992878999036
 31
0.0
  0
LINE
  5
39E
330
18
100
AcDbEntity
  8
目盛
100
AcDbLine
 10
68.58295451834866
 20
86.66914655172934
 30
0.0
 11
70.76528367391668
 21
89.1445130815099
 31
0.0
  0
LINE
  5
39F
330
18
100
AcDbEntity
  8
目盛
100
AcDbLine
 10
71.10491734531811
 20
84.64867333299343
 30
0.0
 11
74.22017918246822
 21
88.93646340318065
 31
0.0
  0
LINE
  5
3A0
330
18
100
AcDbEntity
  8
目盛
100
AcDbLine
 10
69.40230865056983
 20
85.96935201284452
 30
0.0
 11
71.50580781674054
 21
88.51204571400467
 31
0.0
  0
LINE
  5
3A1
330
18
100
AcDbEntity
  8
目盛
100
AcDbLine
 10
70.24323955865284
 20
85.29563931556793
 30
0.0
 11
72.26583283570764
 21
87.90315085640775
 31
0.0
  0
LINE
  5
3A2
330
18
100
AcDbEntity
  8
目盛
100
AcDbLine
 10
75.69407735788349
 20
81.83643246039313
 30
0.0
 11
77.64623650676353
 21
85.66776051440312
 31
0.0
  0
LINE
  5
3A3
330
18
100
AcDbEntity
  8
目盛
100
AcDbLine
 10
71.98649163862185
 20
84.02909254243667
 30
0.0
 11
73.84136678553389
 21
86.75845843754274
 31
0.0
  0
LINE
  5
3A4
330
18
100
AcDbEntity
  8
目盛
100
AcDbLine
 10
72.88709243117034
 20
83.43750839533504
 30
0.0
 11
74.65532085460106
 21
86.22379054949167
 31
0.0
  0
LINE
  5
3A5
330
18
100
AcDbEntity
  8
目盛
100
AcDbLine
 10
73.8058309387122
 20
82.87450471381887
 30
0.0
 11
75.48566761068847
 21
85.71495340293191
 31
0.0
  0
LINE
  5
3A6
330
18
100
AcDbEntity
  8
目盛
100
AcDbLine
 10
74.74180047726108
 20
82.34063711454956
 30
0.0
 11
76.33158760179674
 21
85.23244915869438
 31
0.0
  0
LINE
  5
3A7
330
18
100
AcDbEntity
  8
目盛
100
AcDbLine
 10
76.66172179826793
 20
81.36238834046963
 30
0.0
 11
78.06679346043267
 21
84.34831761360753
 31
0.0
  0
LINE
  5
3A8
330
18
100
AcDbEntity
  8
目盛
100
AcDbLine
 10
77.64377885017694
 20
80.91897257909357
 30
0.0
 11
78.95436688927174
 21
83.94756284385072
 31
0.0
  0
LINE
  5
3A9
330
18
100
AcDbEntity
  8
目盛
100
AcDbLine
 10
80.66666859188925
 20
79.77671773113036
 30
0.0
 11
82.30445866207645
 21
84.81731726749472
 31
0.0
  0
LINE
  5
3AA
330
18
100
AcDbEntity
  8
目盛
100
AcDbLine
 10
78.63927934186548
 20
80.50662277408708
 30
0.0
 11
79.85409036572491
 21
83.57488517751836
 31
0.0
  0
LINE
  5
3AB
330
18
100
AcDbEntity
  8
目盛
100
AcDbLine
 10
79.64724083453643
 20
80.12574586492418
 30
0.0
 11
80.76507597134588
 21
83.23065240247316
 31
0.0
  0
LINE
  5
3AC
330
18
100
AcDbEntity
  8
目盛
100
AcDbLine
 10
85.90024934806999
 20
78.52024615764094
 30
0.0
 11
86.57291754774297
 21
82.76730602220004
 31
0.0
  0
LINE
  5
3AD
330
18
100
AcDbEntity
  8
目盛
100
AcDbLine
 10
81.69655656180433
 20
79.45988282133498
 30
0.0
 11
82.61722721173379
 21
82.62885198406895
 31
0.0
  0
LINE
  5
3AE
330
18
100
AcDbEntity
  8
目盛
100
AcDbLine
 10
82.73588836919538
 20
79.1755538133421
 30
0.0
 11
83.55656499683943
 21
82.37187824506657
 31
0.0
  0
LINE
  5
3AF
330
18
100
AcDbEntity
  8
目盛
100
AcDbLine
 10
83.78363831904852
 20
78.92401130555509
 30
0.0
 11
84.50351101565713
 21
82.14453661995298
 31
0.0
  0
LINE
  5
3B0
330
18
100
AcDbEntity
  8
目盛
100
AcDbLine
 10
84.83877240865954
 20
78.70550354006008
 30
0.0
 11
85.45713074679241
 21
81.9470514674648
 31
0.0
  0
LINE
  5
3B1
330
18
100
AcDbEntity
  8
目盛
100
AcDbLine
 10
86.96702158769426
 20
78.36842198496754
 30
0.0
 11
87.38062125845647
 21
81.64240049930532
 31
0.0
  0
LINE
  5
3B2
330
18
100
AcDbEntity
  8
目盛
100
AcDbLine
 10
88.03803635212487
 20
78.25018085416849
 30
0.0
 11
88.34859378607594
 21
81.53553533735868
 31
0.0
  0
LINE
  5
3B3
330
18
100
AcDbEntity
  8
目盛
100
AcDbLine
 10
91.2659514989499
 20
78.09795624005414
 30
0.0
 11
91.2659514989499
 21
83.39795624005416
 31
0.0
  0
LINE
  5
3B4
330
18
100
AcDbEntity
  8
目盛
100
AcDbLine
 10
89.11223667909444
 20
78.16563945496437
 30
0.0
 11
89.3194453935412
 21
81.45912765877772
 31
0.0
  0
LINE
  5
3B5
330
18
100
AcDbEntity
  8
目盛
100
AcDbLine
 10
90.1885624625701
 20
78.11488121950953
 30
0.0
 11
90.29221796752791
 21
81.41325286871648
 31
0.0
  0
LINE
  5
3B6
330
18
100
AcDbEntity
  8
目盛
100
AcDbLine
 10
96.6316536498299
 20
78.52024615764088
 30
0.0
 11
95.95898545015685
 21
82.76730602219998
 31
0.0
  0
LINE
  5
3B7
330
18
100
AcDbEntity
  8
目盛
100
AcDbLine
 10
92.34334053532975
 20
78.11488121950953
 30
0.0
 11
92.23968503037193
 21
81.41325286871648
 31
0.0
  0
LINE
  5
3B8
330
18
100
AcDbEntity
  8
目盛
100
AcDbLine
 10
93.41966631880541
 20
78.16563945496437
 30
0.0
 11
93.2124576043587
 21
81.45912765877767
 31
0.0
  0
LINE
  5
3B9
330
18
100
AcDbEntity
  8
目盛
100
AcDbLine
 10
94.49386664577506
 20
78.25018085416843
 30
0.0
 11
94.18330921182393
 21
81.53553533735863
 31
0.0
  0
LINE
  5
3BA
330
18
100
AcDbEntity
  8
目盛
100
AcDbLine
 10
95.5648814102056
 20
78.36842198496748
 30
0.0
 11
95.15128173944336
 21
81.64240049930526
 31
0.0
  0
LINE
  5
3BB
330
18
100
AcDbEntity
  8
目盛
100
AcDbLine
 10
97.69313058924034
 20
78.70550354006008
 30
0.0
 11
97.07477225110745
 21
81.94705146746475
 31
0.0
  0
LINE
  5
3BC
330
18
100
AcDbEntity
  8
目盛
100
AcDbLine
 10
98.74826467885137
 20
78.92401130555509
 30
0.0
 11
98.02839198224276
 21
82.14453661995293
 31
0.0
  0
LINE
  5
3BD
330
18
100
AcDbEntity
  8
目盛
100
AcDbLine
 10
101.8652344060106
 20
79.77671773113036
 30
0.0
 11
100.2274443358234
 21
84.81731726749467
 31
0.0
  0
LINE
  5
3BE
330
18
100
AcDbEntity
  8
目盛
100
AcDbLine
 10
99.79601462870451
 20
79.17555381334199
 30
0.0
 11
98.97533800106046
 21
82.37187824506657
 31
0.0
  0
LINE
  5
3BF
330
18
100
AcDbEntity
  8
目盛
100
AcDbLine
 10
100.8353464360955
 20
79.45988282133493
 30
0.0
 11
99.91467578616605
 21
82.62885198406889
 31
0.0
  0
LINE
  5
3C0
330
18
100
AcDbEntity
  8
目盛
100
AcDbLine
 10
106.8378256400164
 20
81.83643246039315
 30
0.0
 11
104.8856664911363
 21
85.66776051440314
 31
0.0
  0
LINE
  5
3C1
330
18
100
AcDbEntity
  8
目盛
100
AcDbLine
 10
102.8846621633634
 20
80.12574586492423
 30
0.0
 11
101.7668270265539
 21
83.23065240247315
 31
0.0
  0
LINE
  5
3C2
330
18
100
AcDbEntity
  8
目盛
100
AcDbLine
 10
103.8926236560343
 20
80.50662277408713
 30
0.0
 11
102.6778126321749
 21
83.57488517751836
 31
0.0
  0
LINE
  5
3C3
330
18
100
AcDbEntity
  8
目盛
100
AcDbLine
 10
104.8881241477229
 20
80.91897257909357
 30
0.0
 11
103.5775361086282
 21
83.9475628438508
 31
0.0
  0
LINE
  5
3C4
330
18
100
AcDbEntity
  8
目盛
100
AcDbLine
 10
105.8701811996319
 20
81.36238834046963
 30
0.0
 11
104.4651095374671
 21
84.34831761360754
 31
0.0
  0
LINE
  5
3C5
330
18
100
AcDbEntity
  8
目盛
100
AcDbLine
 10
107.7901025206388
 20
82.34063711454963
 30
0.0
 11
106.2003153961031
 21
85.23244915869435
 31
0.0
  0
LINE
  5
3C6
330
18
100
AcDbEntity
  8
目盛
100
AcDbLine
 10
108.7260720591877
 20
82.87450471381891
 30
0.0
 11
107.0462353872114
 21
85.71495340293187
 31
0.0
  0
LINE
  5
3C7
330
18
100
AcDbEntity
  8
目盛
100
AcDbLine
 10
111.4269856525818
 20
84.64867333299343
 30
0.0
 11
108.3117238154316
 21
88.93646340318065
 31
0.0
  0
LINE
  5
3C8
330
18
100
AcDbEntity
  8
目盛
100
AcDbLine
 10
109.6448105667295
 20
83.43750839533498
 30
0.0
 11
107.8765821432988
 21
86.22379054949169
 31
0.0
  0
LINE
  5
3C9
330
18
100
AcDbEntity
  8
目盛
100
AcDbLine
 10
110.545411359278
 20
84.02909254243667
 30
0.0
 11
108.6905362123659
 21
86.75845843754274
 31
0.0
  0
LINE
  5
3CA
330
18
100
AcDbEntity
  8
目盛
100
AcDbLine
 10
115.5197140936485
 20
88.14419364535558
 30
0.0
 11
112.4791549345463
 21
91.18475280445773
 31
0.0
  0
LINE
  5
3CB
330
18
100
AcDbEntity
  8
目盛
100
AcDbLine
 10
112.288663439247
 20
85.29563931556793
 30
0.0
 11
110.2660701621922
 21
87.90315085640775
 31
0.0
  0
LINE
  5
3CC
330
18
100
AcDbEntity
  8
目盛
100
AcDbLine
 10
113.12959434733
 20
85.96935201284457
 30
0.0
 11
111.0260951811594
 21
88.51204571400467
 31
0.0
  0
LINE
  5
3CD
330
18
100
AcDbEntity
  8
目盛
100
AcDbLine
 10
113.9489484795512
 20
86.6691465517294
 30
0.0
 11
111.7666193239831
 21
89.14451308150995
 31
0.0
  0
LINE
  5
3CE
330
18
100
AcDbEntity
  8
目盛
100
AcDbLine
 10
114.745917232304
 20
87.39433231949972
 30
0.0
 11
112.4869117827392
 21
89.79992878999036
 31
0.0
  0
LINE
  5
3CF
330
18
100
AcDbEntity
  8
目盛
100
AcDbLine
 10
116.2695754195044
 20
88.91799050670011
 30
0.0
 11
113.8639789490137
 21
91.17699595626476
 31
0.0
  0
LINE
  5
3D0
330
18
100
AcDbEntity
  8
目盛
100
AcDbLine
 10
116.9947611872747
 20
89.71495925945289
 30
0.0
 11
114.5193946574941
 21
91.89728841502091
 31
0.0
  0
LINE
  5
3D1
330
18
100
AcDbEntity
  8
目盛
100
AcDbLine
 10
119.0152344060106
 20
92.23692208642233
 30
0.0
 11
114.7274443358234
 21
95.35218392357245
 31
0.0
  0
LINE
  5
3D2
330
18
100
AcDbEntity
  8
目盛
100
AcDbLine
 10
117.6945557261595
 20
90.53431339167406
 30
0.0
 11
115.1518620249994
 21
92.63781255784477
 31
0.0
  0
LINE
  5
3D3
330
18
100
AcDbEntity
  8
目盛
100
AcDbLine
 10
118.3682684234361
 20
91.37524429975707
 30
0.0
 11
115.7607568825963
 21
93.39783757681187
 31
0.0
  0
LINE
  5
3D4
330
18
100
AcDbEntity
  8
目盛
100
AcDbLine
 10
121.8274752786109
 20
96.82608209898768
 30
0.0
 11
117.9961472246009
 21
98.77824124786776
 31
0.0
  0
LINE
  5
3D5
330
18
100
AcDbEntity
  8
目盛
100
AcDbLine
 10
119.6348151965674
 20
93.11849637972608
 30
0.0
 11
116.9054493014613
 21
94.97337152663808
 31
0.0
  0
LINE
  5
3D6
330
18
100
AcDbEntity
  8
目盛
100
AcDbLine
 10
120.226399343669
 20
94.01909717227454
 30
0.0
 11
117.4401171895124
 21
95.78732559570529
 31
0.0
  0
LINE
  5
3D7
330
18
100
AcDbEntity
  8
目盛
100
AcDbLine
 10
120.7894030251852
 20
94.93783567981642
 30
0.0
 11
117.9489543360721
 21
96.61767235179269
 31
0.0
  0
LINE
  5
3D8
330
18
100
AcDbEntity
  8
目盛
100
AcDbLine
 10
121.3232706244545
 20
95.8738052183653
 30
0.0
 11
118.4314585803097
 21
97.46359234290094
 31
0.0
  0
LINE
  5
3D9
330
18
100
AcDbEntity
  8
目盛
100
AcDbLine
 10
122.3015193985344
 20
97.79372653937214
 30
0.0
 11
119.3155901253965
 21
99.19879820153688
 31
0.0
  0
LINE
  5
3DA
330
18
100
AcDbEntity
  8
目盛
100
AcDbLine
 10
122.7449351599105
 20
98.77578359128115
 30
0.0
 11
119.7163448951533
 21
100.0863716303759
 31
0.0
  0
LINE
  5
3DB
330
18
100
AcDbEntity
  8
目盛
100
AcDbLine
 10
123.8871900078737
 20
101.7986733329934
 30
0.0
 11
118.8465904715093
 21
103.4364634031806
 31
0.0
  0
LINE
  5
3DC
330
18
100
AcDbEntity
  8
目盛
100
AcDbLine
 10
123.157284964917
 20
99.7712840829697
 30
0.0
 11
120.0890225614857
 21
100.9860951068291
 31
0.0
  0
LINE
  5
3DD
330
18
100
AcDbEntity
  8
目盛
100
AcDbLine
 10
123.5381618740799
 20
100.7792455756406
 30
0.0
 11
120.4332553365309
 21
101.89708071245
 31
0.0
  0
LINE
  5
3DE
330
18
100
AcDbEntity
  8
目盛
100
AcDbLine
 10
125.1436615813631
 20
107.0322540891742
 30
0.0
 11
120.896601716804
 21
107.7049222888472
 31
0.0
  0
LINE
  5
3DF
330
18
100
AcDbEntity
  8
目盛
100
AcDbLine
 10
124.2040249176691
 20
102.8285613029086
 30
0.0
 11
121.0350557549351
 21
103.749231952838
 31
0.0
  0
LINE
  5
3E0
330
18
100
AcDbEntity
  8
目盛
100
AcDbLine
 10
124.4883539256619
 20
103.8678931102996
 30
0.0
 11
121.2920294939375
 21
104.6885697379437
 31
0.0
  0
LINE
  5
3E1
330
18
100
AcDbEntity
  8
目盛
100
AcDbLine
 10
124.7398964334489
 20
104.9156430601527
 30
0.0
 11
121.519371119051
 21
105.6355157567614
 31
0.0
  0
LINE
  5
3E2
330
18
100
AcDbEntity
  8
目盛
100
AcDbLine
 10
124.9584041989439
 20
105.9707771497638
 30
0.0
 11
121.7168562715392
 21
106.5891354878967
 31
0.0
  0
LINE
  5
3E3
330
18
100
AcDbEntity
  8
目盛
100
AcDbLine
 10
125.2954857540365
 20
108.0990263287985
 30
0.0
 11
122.0215072396987
 21
108.5126259995607
 31
0.0
  0
LINE
  5
3E4
330
18
100
AcDbEntity
  8
目盛
100
AcDbLine
 10
125.4137268848355
 20
109.1700410932291
 30
0.0
 11
122.1283724016454
 21
109.4805985271802
 31
0.0
  0
LINE
  5
3E5
330
18
100
AcDbEntity
  8
目盛
100
AcDbLine
 10
125.5659514989499
 20
112.3979562400541
 30
0.0
 11
120.2659514989499
 21
112.3979562400541
 31
0.0
  0
LINE
  5
3E6
330
18
100
AcDbEntity
  8
目盛
100
AcDbLine
 10
125.4982682840397
 20
110.2442414201987
 30
0.0
 11
122.2047800802263
 21
110.4514501346454
 31
0.0
  0
LINE
  5
3E7
330
18
100
AcDbEntity
  8
目盛
100
AcDbLine
 10
125.5490265194945
 20
111.3205672036743
 30
0.0
 11
122.2506548702876
 21
111.4242227086321
 31
0.0
  0
LINE
  5
3E8
330
18
100
AcDbEntity
  8
目盛
100
AcDbLine
 10
125.1436615813631
 20
117.7636583909341
 30
0.0
 11
120.896601716804
 21
117.0909901912611
 31
0.0
  0
LINE
  5
3E9
330
18
100
AcDbEntity
  8
目盛
100
AcDbLine
 10
125.5490265194945
 20
113.4753452764339
 30
0.0
 11
122.2506548702875
 21
113.3716897714761
 31
0.0
  0
LINE
  5
3EA
330
18
100
AcDbEntity
  8
目盛
100
AcDbLine
 10
125.4982682840396
 20
114.5516710599096
 30
0.0
 11
122.2047800802263
 21
114.3444623454629
 31
0.0
  0
LINE
  5
3EB
330
18
100
AcDbEntity
  8
目盛
100
AcDbLine
 10
125.4137268848356
 20
115.6258713868792
 30
0.0
 11
122.1283724016454
 21
115.3153139529281
 31
0.0
  0
LINE
  5
3EC
330
18
100
AcDbEntity
  8
目盛
100
AcDbLine
 10
125.2954857540365
 20
116.6968861513098
 30
0.0
 11
122.0215072396987
 21
116.2832864805476
 31
0.0
  0
LINE
  5
3ED
330
18
100
AcDbEntity
  8
目盛
100
AcDbLine
 10
124.9584041989439
 20
118.8251353303445
 30
0.0
 11
121.7168562715393
 21
118.2067769922116
 31
0.0
  0
LINE
  5
3EE
330
18
100
AcDbEntity
  8
目盛
100
AcDbLine
 10
124.7398964334489
 20
119.8802694199556
 30
0.0
 11
121.519371119051
 21
119.160396723347
 31
0.0
  0
LINE
  5
3EF
330
18
100
AcDbEntity
  8
目盛
100
AcDbLine
 10
123.8871900078736
 20
122.9972391471148
 30
0.0
 11
118.8465904715093
 21
121.3594490769276
 31
0.0
  0
LINE
  5
3F0
330
18
100
AcDbEntity
  8
目盛
100
AcDbLine
 10
124.488353925662
 20
120.9280193698087
 30
0.0
 11
121.2920294939374
 21
120.1073427421647
 31
0.0
  0
LINE
  5
3F1
330
18
100
AcDbEntity
  8
目盛
100
AcDbLine
 10
124.2040249176691
 20
121.9673511771997
 30
0.0
 11
121.0350557549351
 21
121.0466805272702
 31
0.0
  0
LINE
  5
3F2
330
18
100
AcDbEntity
  8
目盛
100
AcDbLine
 10
121.8274752786109
 20
127.9698303811206
 30
0.0
 11
117.9961472246009
 21
126.0176712322405
 31
0.0
  0
LINE
  5
3F3
330
18
100
AcDbEntity
  8
目盛
100
AcDbLine
 10
123.5381618740798
 20
124.0166669044676
 30
0.0
 11
120.4332553365309
 21
122.8988317676581
 31
0.0
  0
LINE
  5
3F4
330
18
100
AcDbEntity
  8
目盛
100
AcDbLine
 10
123.1572849649169
 20
125.0246283971386
 30
0.0
 11
120.0890225614857
 21
123.8098173732792
 31
0.0
  0
LINE
  5
3F5
330
18
100
AcDbEntity
  8
目盛
100
AcDbLine
 10
122.7449351599104
 20
126.0201288888271
 30
0.0
 11
119.7163448951533
 21
124.7095408497324
 31
0.0
  0
LINE
  5
3F6
330
18
100
AcDbEntity
  8
目盛
100
AcDbLine
 10
122.3015193985344
 20
127.0021859407362
 30
0.0
 11
119.3155901253965
 21
125.5971142785714
 31
0.0
  0
LINE
  5
3F7
330
18
100
AcDbEntity
  8
目盛
100
AcDbLine
 10
121.3232706244544
 20
128.922107261743
 30
0.0
 11
118.4314585803097
 21
127.3323201372073
 31
0.0
  0
LINE
  5
3F8
330
18
100
AcDbEntity
  8
目盛
100
AcDbLine
 10
120.7894030251852
 20
129.8580768002919
 30
0.0
 11
117.9489543360721
 21
128.1782401283156
 31
0.0
  0
LINE
  5
3F9
330
18
100
AcDbEntity
  8
目盛
100
AcDbLine
 10
119.0152344060106
 20
132.5589903936859
 30
0.0
 11
114.7274443358234
 21
129.4437285565358
 31
0.0
  0
LINE
  5
3FA
330
18
100
AcDbEntity
  8
目盛
100
AcDbLine
 10
120.2263993436691
 20
130.7768153078338
 30
0.0
 11
117.4401171895124
 21
129.0085868844031
 31
0.0
  0
LINE
  5
3FB
330
18
100
AcDbEntity
  8
目盛
100
AcDbLine
 10
119.6348151965674
 20
131.6774161003822
 30
0.0
 11
116.9054493014613
 21
129.8225409534702
 31
0.0
  0
LINE
  5
3FC
330
18
100
AcDbEntity
  8
目盛
100
AcDbLine
 10
115.5197140936485
 20
136.6517188347527
 30
0.0
 11
112.4791549345464
 21
133.6111596756506
 31
0.0
  0
LINE
  5
3FD
330
18
100
AcDbEntity
  8
目盛
100
AcDbLine
 10
118.3682684234361
 20
133.4206681803512
 30
0.0
 11
115.7607568825963
 21
131.3980749032964
 31
0.0
  0
LINE
  5
3FE
330
18
100
AcDbEntity
  8
目盛
100
AcDbLine
 10
117.6945557261595
 20
134.2615990884342
 30
0.0
 11
115.1518620249994
 21
132.1580999222636
 31
0.0
  0
LINE
  5
3FF
330
18
100
AcDbEntity
  8
目盛
100
AcDbLine
 10
116.9947611872747
 20
135.0809532206554
 30
0.0
 11
114.5193946574942
 21
132.8986240650874
 31
0.0
  0
LINE
  5
400
330
18
100
AcDbEntity
  8
目盛
100
AcDbLine
 10
116.2695754195044
 20
135.8779219734082
 30
0.0
 11
113.8639789490137
 21
133.6189165238435
 31
0.0
  0
LINE
  5
401
330
18
100
AcDbEntity
  8
目盛
100
AcDbLine
 10
114.745917232304
 20
137.4015801606086
 30
0.0
 11
112.4869117827393
 21
134.9959836901179
 31
0.0
  0
LINE
  5
402
330
18
100
AcDbEntity
  8
目盛
100
AcDbLine
 10
113.9489484795512
 20
138.1267659283789
 30
0.0
 11
111.7666193239831
 21
135.6513993985983
 31
0.0
  0
LINE
  5
403
330
18
100
AcDbEntity
  8
目盛
100
AcDbLine
 10
111.4269856525818
 20
140.1472391471148
 30
0.0
 11
108.3117238154317
 21
135.8594490769276
 31
0.0
  0
LINE
  5
404
330
18
100
AcDbEntity
  8
目盛
100
AcDbLine
 10
113.12959434733
 20
138.8265604672638
 30
0.0
 11
111.0260951811594
 21
136.2838667661036
 31
0.0
  0
LINE
  5
405
330
18
100
AcDbEntity
  8
目盛
100
AcDbLine
 10
112.2886634392471
 20
139.5002731645403
 30
0.0
 11
110.2660701621922
 21
136.8927616237005
 31
0.0
  0
LINE
  5
406
330
18
100
AcDbEntity
  8
目盛
100
AcDbLine
 10
106.8378256400164
 20
142.9594800197151
 30
0.0
 11
104.8856664911363
 21
139.1281519657052
 31
0.0
  0
LINE
  5
407
330
18
100
AcDbEntity
  8
目盛
100
AcDbLine
 10
110.545411359278
 20
140.7668199376716
 30
0.0
 11
108.690536212366
 21
138.0374540425655
 31
0.0
  0
LINE
  5
408
330
18
100
AcDbEntity
  8
目盛
100
AcDbLine
 10
109.6448105667295
 20
141.3584040847732
 30
0.0
 11
107.8765821432988
 21
138.5721219306166
 31
0.0
  0
LINE
  5
409
330
18
100
AcDbEntity
  8
目盛
100
AcDbLine
 10
108.7260720591877
 20
141.9214077662894
 30
0.0
 11
107.0462353872114
 21
139.0809590771763
 31
0.0
  0
LINE
  5
40A
330
18
100
AcDbEntity
  8
目盛
100
AcDbLine
 10
107.7901025206388
 20
142.4552753655587
 30
0.0
 11
106.2003153961031
 21
139.5634633214139
 31
0.0
  0
LINE
  5
40B
330
18
100
AcDbEntity
  8
目盛
100
AcDbLine
 10
105.8701811996319
 20
143.4335241396387
 30
0.0
 11
104.4651095374672
 21
140.4475948665007
 31
0.0
  0
LINE
  5
40C
330
18
100
AcDbEntity
  8
目盛
100
AcDbLine
 10
104.8881241477229
 20
143.8769399010147
 30
0.0
 11
103.5775361086281
 21
140.8483496362576
 31
0.0
  0
LINE
  5
40D
330
18
100
AcDbEntity
  8
目盛
100
AcDbLine
 10
101.8652344060106
 20
145.0191947489779
 30
0.0
 11
100.2274443358234
 21
139.9785952126135
 31
0.0
  0
LINE
  5
40E
330
18
100
AcDbEntity
  8
目盛
100
AcDbLine
 10
103.8926236560344
 20
144.2892897060212
 30
0.0
 11
102.6778126321749
 21
141.22102730259
 31
0.0
  0
LINE
  5
40F
330
18
100
AcDbEntity
  8
目盛
100
AcDbLine
 10
102.8846621633634
 20
144.6701666151841
 30
0.0
 11
101.766827026554
 21
141.5652600776351
 31
0.0
  0
CIRCLE
  5
42C
330
18
100
AcDbEntity
  8
外形線
100
AcDbCircle
 10
91.26595149894994
 20
112.3979562400541
 30
0.0
 40
21.0
  0
TEXT
  5
42E
330
18
100
AcDbEntity
  8
文字
100
AcDbText
 10
89.81380050054113
 20
137.4159163345989
 30
0.0
 40
3.0
  1
0
  7
STYLE3
100
AcDbText
  0
TEXT
  5
42F
330
18
100
AcDbEntity
  8
文字
100
AcDbText
 10
90.23290332295905
 20
134.420062799071
 30
0.0
 40
1.6
  1
0
  7
STYLE3
100
AcDbText
  0
TEXT
  5
430
330
18
100
AcDbEntity
  8
文字
100
AcDbText
 10
97.12091084901331
 20
136.0951646497396
 30
0.0
 40
3.0
  1
10
  7
STYLE3
100
AcDbText
  0
TEXT
  5
431
330
18
100
AcDbEntity
  8
文字
100
AcDbText
 10
104.4570661754807
 20
132.0647064310177
 30
0.0
 40
3.0
  1
20
  7
STYLE3
100
AcDbText
  0
TEXT
  5
432
330
18
100
AcDbEntity
  8
文字
100
AcDbText
 10
108.9478974612849
 20
126.5531304174835
 30
0.0
 40
3.0
  1
30
  7
STYLE3
100
AcDbText
  0
TEXT
  5
433
330
18
100
AcDbEntity
  8
文字
100
AcDbText
 10
113.0937004072424
 20
119.1884926421628
 30
0.0
 40
3.0
  1
40
  7
STYLE3
100
AcDbText
  0
TEXT
  5
434
330
18
100
AcDbEntity
  8
文字
100
AcDbText
 10
114.7890829462236
 20
110.9474660917827
 30
0.0
 40
3.0
  1
50
  7
STYLE3
100
AcDbText
  0
TEXT
  5
435
330
18
100
AcDbEntity
  8
文字
100
AcDbText
 10
113.2463114453043
 20
101.7453311768071
 30
0.0
 40
3.0
  1
60
  7
STYLE3
100
AcDbText
  0
TEXT
  5
436
330
18
100
AcDbEntity
  8
文字
100
AcDbText
 10
110.0187730355386
 20
95.57893453967535
 30
0.0
 40
3.0
  1
70
  7
STYLE3
100
AcDbText
  0
TEXT
  5
437
330
18
100
AcDbEntity
  8
文字
100
AcDbText
 10
104.9741090709084
 20
89.4937915087002
 30
0.0
 40
3.0
  1
80
  7
STYLE3
100
AcDbText
  0
TEXT
  5
438
330
18
100
AcDbEntity
  8
文字
100
AcDbText
 10
96.76540940224496
 20
86.11852608138958
 30
0.0
 40
3.0
  1
90
  7
STYLE3
100
AcDbText
  0
TEXT
  5
439
330
18
100
AcDbEntity
  8
文字
100
AcDbText
 10
89.65725362911681
 20
84.23175355923234
 30
0.0
 40
3.0
  1
0
  7
STYLE3
100
AcDbText
  0
TEXT
  5
43A
330
18
100
AcDbEntity
  8
文字
100
AcDbText
 10
79.86206698766491
 20
86.01212430441313
 30
0.0
 40
3.0
  1
10
  7
STYLE3
100
AcDbText
  0
TEXT
  5
43B
330
18
100
AcDbEntity
  8
文字
100
AcDbText
 10
72.51990532576397
 20
89.95035406123207
 30
0.0
 40
3.0
  1
20
  7
STYLE3
100
AcDbText
  0
TEXT
  5
43C
330
18
100
AcDbEntity
  8
文字
100
AcDbText
 10
68.01660560804695
 20
95.45061307941631
 30
0.0
 40
3.0
  1
30
  7
STYLE3
100
AcDbText
  0
TEXT
  5
43D
330
18
100
AcDbEntity
  8
文字
100
AcDbText
 10
63.60705797352299
 20
102.7168493208351
 30
0.0
 40
3.0
  1
40
  7
STYLE3
100
AcDbText
  0
TEXT
  5
43E
330
18
100
AcDbEntity
  8
文字
100
AcDbText
 10
61.6928114625795
 20
111.2367287477115
 30
0.0
 40
3.0
  1
50
  7
STYLE3
100
AcDbText
  0
TEXT
  5
43F
330
18
100
AcDbEntity
  8
文字
100
AcDbText
 10
63.65876257630353
 20
120.1274784055721
 30
0.0
 40
3.0
  1
60
  7
STYLE3
100
AcDbText
  0
TEXT
  5
440
330
18
100
AcDbEntity
  8
文字
100
AcDbText
 10
67.72895304193335
 20
127.1165351607373
 30
0.0
 40
3.0
  1
70
  7
STYLE3
100
AcDbText
  0
TEXT
  5
441
330
18
100
AcDbEntity
  8
文字
100
AcDbText
 10
74.22837024280934
 20
132.9232893875511
 30
0.0
 40
3.0
  1
80
  7
STYLE3
100
AcDbText
  0
TEXT
  5
442
330
18
100
AcDbEntity
  8
文字
100
AcDbText
 10
81.48589504243583
 20
136.3145935187321
 30
0.0
 40
3.0
  1
90
  7
STYLE3
100
AcDbText
  0
TEXT
  5
443
330
18
100
AcDbEntity
  8
文字
100
AcDbText
 10
97.78719590961728
 20
132.9992643983852
 30
0.0
 40
1.6
  1
90
  7
STYLE3
100
AcDbText
  0
TEXT
  5
444
330
18
100
AcDbEntity
  8
文字
100
AcDbText
 10
103.947234014951
 20
129.3517614002143
 30
0.0
 40
1.6
  1
80
  7
STYLE3
100
AcDbText
  0
TEXT
  5
445
330
18
100
AcDbEntity
  8
文字
100
AcDbText
 10
109.3109260131622
 20
123.7380002983308
 30
0.0
 40
1.6
  1
70
  7
STYLE3
100
AcDbText
  0
TEXT
  5
446
330
18
100
AcDbEntity
  8
文字
100
AcDbText
 10
112.0744370306087
 20
116.8770821043278
 30
0.0
 40
1.6
  1
60
  7
STYLE3
100
AcDbText
  0
TEXT
  5
447
330
18
100
AcDbEntity
  8
文字
100
AcDbText
 10
112.2357576465967
 20
111.5682583839413
 30
0.0
 40
1.6
  1
50
  7
STYLE3
100
AcDbText
  0
TEXT
  5
448
330
18
100
AcDbEntity
  8
文字
100
AcDbText
 10
111.9876905115342
 20
105.3543198109692
 30
0.0
 40
1.6
  1
40
  7
STYLE3
100
AcDbText
  0
TEXT
  5
449
330
18
100
AcDbEntity
  8
文字
100
AcDbText
 10
108.8809209479929
 20
99.49431464865069
 30
0.0
 40
1.6
  1
30
  7
STYLE3
100
AcDbText
  0
TEXT
  5
44A
330
18
100
AcDbEntity
  8
文字
100
AcDbText
 10
104.1654715112485
 20
93.66802297654016
 30
0.0
 40
1.6
  1
20
  7
STYLE3
100
AcDbText
  0
TEXT
  5
44B
330
18
100
AcDbEntity
  8
文字
100
AcDbText
 10
97.65969401618864
 20
90.23940378985452
 30
0.0
 40
1.6
  1
10
  7
STYLE3
100
AcDbText
  0
TEXT
  5
44C
330
18
100
AcDbEntity
  8
文字
100
AcDbText
 10
90.38944862819439
 20
88.43140345178113
 30
0.0
 40
1.6
  1
0
  7
STYLE3
100
AcDbText
  0
TEXT
  5
44D
330
18
100
AcDbEntity
  8
文字
100
AcDbText
 10
82.40561770073682
 20
90.13935798397398
 30
0.0
 40
1.6
  1
90
  7
STYLE3
100
AcDbText
  0
TEXT
  5
44E
330
18
100
AcDbEntity
  8
文字
100
AcDbText
 10
75.39922036979411
 20
93.87446964945167
 30
0.0
 40
1.6
  1
80
  7
STYLE3
100
AcDbText
  0
TEXT
  5
44F
330
18
100
AcDbEntity
  8
文字
100
AcDbText
 10
70.47716239127467
 20
99.34931024292694
 30
0.0
 40
1.6
  1
70
  7
STYLE3
100
AcDbText
  0
TEXT
  5
450
330
18
100
AcDbEntity
  8
文字
100
AcDbText
 10
67.55921415920434
 20
106.3532855587387
 30
0.0
 40
1.6
  1
60
  7
STYLE3
100
AcDbText
  0
TEXT
  5
451
330
18
100
AcDbEntity
  8
文字
100
AcDbText
 10
67.17062383402586
 20
111.8259177138675
 30
0.0
 40
1.6
  1
50
  7
STYLE3
100
AcDbText
  0
TEXT
  5
452
330
18
100
AcDbEntity
  8
文字
100
AcDbText
 10
67.83496525388105
 20
118.3592290477883
 30
0.0
 40
1.6
  1
40
  7
STYLE3
100
AcDbText
  0
TEXT
  5
453
330
18
100
AcDbEntity
  8
文字
100
AcDbText
 10
71.27260950581868
 20
124.8408845811124
 30
0.0
 40
1.6
  1
30
  7
STYLE3
100
AcDbText
  0
TEXT
  5
454
330
18
100
AcDbEntity
  8
文字
100
AcDbText
 10
77.29603206299421
 20
130.6531767377884
 30
0.0
 40
1.6
  1
20
  7
STYLE3
100
AcDbText
  0
TEXT
  5
455
330
18
100
AcDbEntity
  8
文字
100
AcDbText
 10
82.89433606518347
 20
133.6689007587596
 30
0.0
 40
1.6
  1
10
  7
STYLE3
100
AcDbText
  0
HATCH
  5
D37
330
18
100
AcDbEntity
  8
ROGO
 62
     4
100
AcDbHatch
 10
0.0
 20
0.0
 30
0.0
210
0.0
220
0.0
230
1.0
  2
SOLID
 70
     1
 71
     1
 91
        1
 92
        7
 72
     0
 73
     1
 93
       11
 10
98.98793456669608
 20
98.80328152272495
 10
100.1233464739994
 20
98.80328152272493
 10
100.5243747274984
 20
99.60753799772096
 10
100.9254029809977
 20
98.80328152272493
 10
102.0607900464014
 20
98.80328152272497
 10
101.2925699660003
 20
100.3439359990457
 10
103.1590475924949
 20
101.8845904753667
 10
102.023660527091
 20
101.8845904753667
 10
101.4920386348685
 20
101.5481742405084
 10
101.6597866348017
 20
101.8845904753667
 10
100.5243747274984
 20
101.8845904753666
 97
       11
330
D7D
330
D80
330
D81
330
D39
330
D6D
330
D40
330
D6C
330
D38
330
D7C
330
D7F
330
D7E
 75
     0
 76
     1
 47
0.0514683685270805
 98
        1
 10
100.4266571549115
 20
100.5626488895837
450
        0
451
        0
460
0.0
461
0.0
452
        0
462
0.0
453
        0
470

  0
LINE
  5
D38
102
{ACAD_REACTORS
330
D37
102
}
330
18
100
AcDbEntity
  8
ROGO
 62
     4
100
AcDbLine
 10
100.5243747274984
 20
99.60753799772096
 30
0.0
 11
100.9254029809977
 21
98.80328152272495
 31
0.0
  0
LINE
  5
D39
102
{ACAD_REACTORS
330
D37
102
}
330
18
100
AcDbEntity
  8
ROGO
 62
     4
100
AcDbLine
 10
100.5243747274984
 20
101.8845904753667
 30
0.0
 11
101.6597866348017
 21
101.8845904753667
 31
0.0
  0
HATCH
  5
D3A
330
18
100
AcDbEntity
  8
ROGO
 62
     4
100
AcDbHatch
 10
0.0
 20
0.0
 30
0.0
210
0.0
220
0.0
230
1.0
  2
SOLID
 70
     1
 71
     1
 91
        2
 92
        5
 93
        6
 72
     1
 10
79.26595149894999
 20
98.80328152272495
 11
80.69827559440083
 21
98.80328152272495
 72
     1
 10
80.69827559440083
 20
98.80328152272495
 11
81.20018042216774
 21
99.91263908115781
 72
     1
 10
81.20018042216774
 20
99.91263908115781
 11
82.53910968016198
 21
99.91263908115783
 72
     4
 94
        3
 73
     0
 74
     0
 95
       18
 96
       14
 40
0.108740278791501
 40
0.108740278791501
 40
0.108740278791501
 40
0.108740278791501
 40
0.6623149649549278
 40
1.384304701649787
 40
2.097394834876493
 40
2.774073369849618
 40
3.428974823686337
 40
4.005208313035923
 40
4.455173659284313
 40
4.720999734343524
 40
5.086034088486724
 40
5.569973738255373
 40
6.060470601257719
 40
6.060470601257719
 40
6.060470601257719
 40
6.060470601257719
 10
82.53910968016194
 20
99.91263908115781
 10
82.63334130930472
 20
99.91334079556777
 10
82.85047283039265
 20
99.91495770826015
 10
83.15423812935391
 20
100.0772358057727
 10
83.44229442426515
 20
100.2839662785792
 10
83.67430417374853
 20
100.5422544361137
 10
83.81885323783833
 20
100.8375626933213
 10
83.84124343097075
 20
101.1205885330126
 10
83.82757476815212
 20
101.344458453601
 10
83.72990530686095
 20
101.5005013460413
 10
83.62836598338029
 20
101.6588689243931
 10
83.44217719918052
 20
101.7960528029319
 10
83.28962245009156
 20
101.8561597342741
 10
83.21204525743363
 20
101.8845904753667
 72
     1
 10
83.21204525743366
 20
101.8845904753667
 11
80.79055451223419
 21
101.8845904753667
 72
     1
 10
80.79055451223419
 20
101.8845904753667
 11
79.26595149894999
 21
98.80328152272495
 97
        6
330
D62
330
D41
330
D44
330
D40
330
D42
330
D3F
 92
       20
 93
        4
 72
     1
 10
81.51007823988493
 20
100.5976045714404
 11
81.74734372944262
 21
101.1220312149681
 72
     1
 10
81.74734372944262
 20
101.1220312149681
 11
82.35701491673571
 21
101.1220312149681
 72
     4
 94
        3
 73
     0
 74
     0
 95
       15
 96
       11
 40
0.0
 40
0.0
 40
0.0
 40
0.0
 40
0.2312176979325164
 40
0.3366402502980286
 40
0.4563018654241719
 40
0.537820921275743
 40
0.6667441535771673
 40
0.7439656479345594
 40
0.8764524275297516
 40
0.9206147155808256
 40
0.9206147155808256
 40
0.9206147155808256
 40
0.9206147155808256
 10
82.35701491673571
 20
101.1220312149681
 10
82.44385580024456
 20
101.1224289925688
 10
82.57029135003994
 20
101.1230081348761
 10
82.63943081179382
 20
100.9666069941411
 10
82.60843920845465
 20
100.865909057788
 10
82.56948023720116
 20
100.7625236624316
 10
82.50063091137191
 20
100.6922717270135
 10
82.4082250315463
 20
100.6246072703653
 10
82.32089705922604
 20
100.6164161849006
 10
82.26410001612746
 20
100.6013668955731
 10
82.24990074855591
 20
100.5976045714404
 72
     1
 10
82.24990074855595
 20
100.5976045714404
 11
81.51007823988493
 21
100.5976045714404
 97
        4
330
D43
330
D3E
330
D61
330
D3D
 75
     0
 76
     1
 47
0.0514683685270805
 98
        2
 10
80.80349700457773
 20
100.9262216162786
 10
80.80349700457773
 20
100.9262216162786
450
        0
451
        0
460
0.0
461
0.0
452
        0
462
0.0
453
        0
470

  0
HATCH
  5
D3B
330
18
100
AcDbEntity
  8
ROGO
 62
     4
100
AcDbHatch
 10
0.0
 20
0.0
 30
0.0
210
0.0
220
0.0
230
1.0
  2
SOLID
 70
     1
 71
     0
 91
        1
 92
        7
 72
     0
 73
     1
 93
        4
 10
80.83801045135606
 20
99.11213673025413
 10
80.69827559440083
 20
98.80328152272497
 10
98.98793456669606
 20
98.80328152272495
 10
99.14193974826474
 20
99.11213673025413
 97
        0
 75
     0
 76
     1
 47
0.0514683685270805
 98
        1
 10
92.39545662481445
 20
99.03044949152473
450
        0
451
        0
460
0.0
461
0.0
452
        0
462
0.0
453
        0
470

  0
LINE
  5
D3C
330
18
100
AcDbEntity
  8
ROGO
 62
     4
100
AcDbLine
 10
80.81659101517734
 20
99.11213673025413
 30
0.0
 11
99.14193974826496
 21
99.11213673025413
 31
0.0
  0
LINE
  5
D3D
102
{ACAD_REACTORS
330
D3A
102
}
330
18
100
AcDbEntity
  8
ROGO
 62
     4
100
AcDbLine
 10
82.24990074855602
 20
100.5976045714404
 30
0.0
 11
81.51007823988496
 21
100.5976045714404
 31
0.0
  0
LINE
  5
D3E
102
{ACAD_REACTORS
330
D3A
102
}
330
18
100
AcDbEntity
  8
ROGO
 62
     4
100
AcDbLine
 10
82.35701491673571
 20
101.1220312149681
 30
0.0
 11
81.74734372944262
 21
101.1220312149681
 31
0.0
  0
LINE
  5
D3F
102
{ACAD_REACTORS
330
D3A
102
}
330
18
100
AcDbEntity
  8
ROGO
 62
     4
100
AcDbLine
 10
82.53910968062612
 20
99.91263908115781
 30
0.0
 11
81.20018042216774
 21
99.91263908115781
 31
0.0
  0
LINE
  5
D40
102
{ACAD_REACTORS
330
D3A
330
D37
102
}
330
18
100
AcDbEntity
  8
ROGO
 62
     4
100
AcDbLine
 10
79.26595149894993
 20
98.80328152272495
 30
0.0
 11
100.1233464739994
 21
98.80328152272495
 31
0.0
  0
LINE
  5
D41
102
{ACAD_REACTORS
330
D3A
102
}
330
18
100
AcDbEntity
  8
ROGO
 62
     4
100
AcDbLine
 10
80.79055451223419
 20
101.8845904753667
 30
0.0
 11
83.21204525743373
 21
101.8845904753667
 31
0.0
  0
LINE
  5
D42
102
{ACAD_REACTORS
330
D3A
102
}
330
18
100
AcDbEntity
  8
ROGO
 62
     4
100
AcDbLine
 10
81.20018042216774
 20
99.91263908115781
 30
0.0
 11
80.69827559440083
 21
98.80328152272495
 31
0.0
  0
LINE
  5
D43
102
{ACAD_REACTORS
330
D3A
102
}
330
18
100
AcDbEntity
  8
ROGO
 62
     4
100
AcDbLine
 10
81.74734372944262
 20
101.1220312149681
 30
0.0
 11
81.51007823988496
 21
100.5976045714404
 31
0.0
  0
LINE
  5
D44
102
{ACAD_REACTORS
330
D3A
102
}
330
18
100
AcDbEntity
  8
ROGO
 62
     4
100
AcDbLine
 10
80.79055451223419
 20
101.8845904753667
 30
0.0
 11
79.26595149894993
 21
98.80328152272483
 31
0.0
  0
HATCH
  5
D45
330
18
100
AcDbEntity
  8
ROGO
 62
     4
100
AcDbHatch
 10
0.0
 20
0.0
 30
0.0
210
0.0
220
0.0
230
1.0
  2
SOLID
 70
     1
 71
     1
 91
        1
 92
        5
 93
        8
 72
     1
 10
93.39171993373192
 20
101.1508967048049
 11
93.75756334383702
 21
101.8845904753667
 72
     1
 10
93.75756334383702
 20
101.8845904753667
 11
91.78277161452582
 21
101.8845904753667
 72
     4
 94
        3
 73
     0
 74
     0
 95
       26
 96
       22
 40
0.0
 40
0.0
 40
0.0
 40
0.0
 40
0.357734574887805
 40
0.5972101726228156
 40
0.7698915807382015
 40
0.8988272007460844
 40
1.066063466978272
 40
1.188129637910205
 40
1.408552691510016
 40
1.58797388820426
 40
1.710009051101083
 40
1.829670776496108
 40
2.043722339559202
 40
2.195082342754959
 40
2.276601398606381
 40
2.392396809406838
 40
2.476015273749354
 40
2.597150821771444
 40
2.665703063963389
 40
2.81488043248657
 40
2.882996114846353
 40
2.882996114846353
 40
2.882996114846353
 40
2.882996114846353
 10
91.78277161452584
 20
101.8845904753667
 10
91.66135097250409
 20
101.8773463116491
 10
91.45864861250851
 20
101.8652527412538
 10
91.23608265432947
 20
101.7300463118411
 10
91.0730178036418
 20
101.6514432354133
 10
90.95672014988952
 20
101.5445890495508
 10
90.8714734982529
 20
101.4342164811055
 10
90.76400409049673
 20
101.3027083750756
 10
90.67636585941301
 20
101.1495725072236
 10
90.63173703619327
 20
100.9807900841923
 10
90.59220524815874
 20
100.8462695137298
 10
90.56288781235322
 20
100.6963638932416
 10
90.5703469979881
 20
100.534413089075
 10
90.58102889319659
 20
100.3840014731843
 10
90.62872095780907
 20
100.2766300991455
 10
90.68303377168247
 20
100.2001890797038
 10
90.74953906846003
 20
100.1159977714052
 10
90.82231040664945
 20
100.0602381405413
 10
90.88249824334139
 20
99.95922582227413
 10
90.98785502107366
 20
99.94633592195768
 10
91.0548239804601
 20
99.92068117320723
 10
91.07581699586948
 20
99.91263908115781
 72
     1
 10
91.07581699586946
 20
99.91263908115779
 11
92.77428469058319
 21
99.91263908115781
 72
     1
 10
92.77428469058319
 20
99.91263908115781
 11
93.14012422650639
 21
100.646325082103
 72
     1
 10
93.14012422650639
 20
100.646325082103
 11
91.8791741811092
 21
100.646325082103
 72
     4
 94
        3
 73
     0
 74
     0
 95
       16
 96
       12
 40
0.0
 40
0.0
 40
0.0
 40
0.0
 40
0.1080348911233773
 40
0.2171840836689707
 40
0.2822866714260023
 40
0.3447066541505936
 40
0.4132586239737345
 40
0.4611302068884088
 40
0.5065561843420011
 40
0.5986735448410867
 40
0.7872732608781572
 40
0.7872732608781572
 40
0.7872732608781572
 40
0.7872732608781572
 10
91.87917418110922
 20
100.646325082103
 10
91.84113948408258
 20
100.6575154476571
 10
91.76467778975895
 20
100.680011599257
 10
91.75827856338623
 20
100.7890646777929
 10
91.76699658351173
 20
100.8667739200328
 10
91.80350767126938
 20
100.9233507863111
 10
91.84780195348286
 20
100.9645179005589
 10
91.86429467925723
 20
101.0181316301368
 10
91.91277354402576
 20
101.0586167036306
 10
91.99873956090732
 20
101.1266664567843
 10
92.09380309397833
 20
101.141159533733
 10
92.15767151111881
 20
101.1508967048049
 72
     1
 10
92.15767151111883
 20
101.1508967048049
 11
93.39171993373192
 21
101.1508967048049
 97
        8
330
D76
330
D46
330
D47
330
D77
330
D79
330
D78
330
D7A
330
D7B
 75
     0
 76
     1
 47
0.0514683685270805
 98
        1
 10
92.47342939765601
 20
101.4456109766179
450
        0
451
        0
460
0.0
461
0.0
452
        0
462
0.0
453
        0
470

  0
SPLINE
  5
D46
102
{ACAD_REACTORS
330
D45
102
}
330
18
100
AcDbEntity
  8
ROGO
 62
     4
100
AcDbSpline
210
0.0
220
0.0
230
1.0
 70
     8
 71
     3
 72
    26
 73
    22
 74
    20
 42
0.0000000001
 43
0.0000000001
 44
0.0000000001
 40
0.0
 40
0.0
 40
0.0
 40
0.0
 40
0.357734574887805
 40
0.5972101726228156
 40
0.7698915807382015
 40
0.8988272007460844
 40
1.066063466978272
 40
1.188129637910205
 40
1.408552691510016
 40
1.58797388820426
 40
1.710009051101083
 40
1.829670776496108
 40
2.043722339559202
 40
2.195082342754959
 40
2.276601398606381
 40
2.392396809406838
 40
2.476015273749354
 40
2.597150821771444
 40
2.665703063963389
 40
2.81488043248657
 40
2.882996114846353
 40
2.882996114846353
 40
2.882996114846353
 40
2.882996114846353
 10
91.78277161452584
 20
101.8845904753667
 30
0.0
 10
91.66135097250409
 20
101.8773463116491
 30
0.0
 10
91.45864861250851
 20
101.8652527412538
 30
0.0
 10
91.23608265432947
 20
101.7300463118411
 30
0.0
 10
91.0730178036418
 20
101.6514432354133
 30
0.0
 10
90.95672014988952
 20
101.5445890495508
 30
0.0
 10
90.8714734982529
 20
101.4342164811055
 30
0.0
 10
90.76400409049673
 20
101.3027083750756
 30
0.0
 10
90.67636585941301
 20
101.1495725072236
 30
0.0
 10
90.63173703619327
 20
100.9807900841923
 30
0.0
 10
90.59220524815874
 20
100.8462695137298
 30
0.0
 10
90.56288781235322
 20
100.6963638932416
 30
0.0
 10
90.5703469979881
 20
100.534413089075
 30
0.0
 10
90.58102889319659
 20
100.3840014731843
 30
0.0
 10
90.62872095780907
 20
100.2766300991455
 30
0.0
 10
90.68303377168247
 20
100.2001890797038
 30
0.0
 10
90.74953906846003
 20
100.1159977714052
 30
0.0
 10
90.82231040664945
 20
100.0602381405413
 30
0.0
 10
90.88249824334139
 20
99.95922582227413
 30
0.0
 10
90.98785502107366
 20
99.94633592195768
 30
0.0
 10
91.0548239804601
 20
99.92068117320723
 30
0.0
 10
91.07581699586948
 20
99.91263908115781
 30
0.0
 11
91.78277161452584
 21
101.8845904753667
 31
0.0
 11
91.42929430519748
 21
101.8295648644192
 31
0.0
 11
91.21506535291022
 21
101.7225390828876
 31
0.0
 11
91.06510539427294
 21
101.6369185274455
 31
0.0
 11
90.96870282768955
 21
101.5512976230882
 31
0.0
 11
90.86158865950997
 21
101.4228666154675
 31
0.0
 11
90.78660868019122
 21
101.3265434469807
 31
0.0
 11
90.67949389608363
 21
101.1338967610921
 31
0.0
 11
90.62593711995763
 21
100.9626553012928
 31
0.0
 11
90.59380293109668
 21
100.8449269067166
 31
0.0
 11
90.57237972790394
 21
100.7271985121404
 31
0.0
 11
90.57237972790394
 21
100.5131469490773
 31
0.0
 11
90.59380293109668
 21
100.3633107153674
 31
0.0
 11
90.62593711995763
 21
100.288392424055
 31
0.0
 11
90.69020549767996
 21
100.192069255568
 31
0.0
 11
90.74376288973374
 21
100.1278535773002
 31
0.0
 11
90.8294538547207
 21
100.042233021858
 31
0.0
 11
90.8722996451784
 21
99.98871995663472
 31
0.0
 11
91.01154861814704
 21
99.93520724032652
 31
0.0
 11
91.07581699586948
 21
99.91263908115781
 31
0.0
  0
LINE
  5
D47
102
{ACAD_REACTORS
330
D45
102
}
330
18
100
AcDbEntity
  8
ROGO
 62
     4
100
AcDbLine
 10
91.07581699586935
 20
99.91263908115781
 30
0.0
 11
92.77428469058319
 21
99.91263908115781
 31
0.0
  0
HATCH
  5
D48
330
18
100
AcDbEntity
  8
ROGO
 62
     4
100
AcDbHatch
 10
0.0
 20
0.0
 30
0.0
210
0.0
220
0.0
230
1.0
  2
SOLID
 70
     1
 71
     1
 91
        2
 92
        7
 72
     0
 73
     1
 93
        8
 10
89.65975712176669
 20
101.8845904753667
 10
88.08236489023775
 20
101.8845904753667
 10
86.66035241544538
 20
99.91263908115779
 10
87.75246052821778
 20
99.91263908115783
 10
88.0232029051457
 20
100.2880864257619
 10
89.26943022322296
 20
100.2880864257619
 10
89.43621881047162
 20
99.91263908115781
 10
90.53577606793911
 20
99.91263908115781
 97
        8
330
D4F
330
D55
330
D50
330
D51
330
D53
330
D49
330
D4E
330
D4B
 92
       22
 72
     0
 73
     1
 93
        3
 10
89.09351327076896
 20
100.684082061669
 10
88.30876305428386
 20
100.684082061669
 10
88.79436328901411
 20
101.3574798530944
 97
        3
330
D52
330
D54
330
D4A
 75
     0
 76
     1
 47
0.0128389261915577
 98
        2
 10
89.53623484622577
 20
101.4114916325587
 10
89.53623484622577
 20
101.4114916325587
450
        0
451
        0
460
0.0
461
0.0
452
        0
462
0.0
453
        0
470

  0
LINE
  5
D49
102
{ACAD_REACTORS
330
D48
102
}
330
18
100
AcDbEntity
  8
ROGO
 62
     4
100
AcDbLine
 10
89.26943022322294
 20
100.2880864257619
 30
0.0
 11
89.43621881047162
 21
99.91263908115781
 31
0.0
  0
LINE
  5
D4A
102
{ACAD_REACTORS
330
D48
102
}
330
18
100
AcDbEntity
  8
ROGO
 62
     4
100
AcDbLine
 10
88.79436328901411
 20
101.3574798530944
 30
0.0
 11
89.09351327076903
 21
100.6840820616689
 31
0.0
  0
LINE
  5
D4B
102
{ACAD_REACTORS
330
D48
102
}
330
18
100
AcDbEntity
  8
ROGO
 62
     4
100
AcDbLine
 10
89.65975712176671
 20
101.8845904753667
 30
0.0
 11
90.53577606793911
 21
99.91263908115781
 31
0.0
  0
HATCH
  5
D4C
330
18
100
AcDbEntity
  8
ROGO
 62
     4
100
AcDbHatch
 10
0.0
 20
0.0
 30
0.0
210
0.0
220
0.0
230
1.0
  2
SOLID
 70
     1
 71
     1
 91
        1
 92
        1
 93
       12
 72
     1
 10
84.6426019064709
 20
101.8845904753667
 11
87.30974820493534
 21
101.8845904753667
 72
     1
 10
87.30974820493534
 20
101.8845904753667
 11
87.08624370596115
 21
101.4328752369445
 72
     1
 10
87.08624370596115
 20
101.4328752369445
 11
85.68445900877955
 21
101.4328752369445
 72
     1
 10
85.68445900877955
 20
101.4328752369445
 11
85.50970626452842
 21
101.0796900532161
 72
     1
 10
85.50970626452842
 20
101.0796900532161
 11
86.91149096171002
 21
101.0796900532161
 72
     1
 10
86.91149096171002
 20
101.0796900532161
 11
86.73229839331808
 21
100.7175317336919
 72
     1
 10
86.73229839331808
 20
100.7175317336919
 11
85.33051369613659
 21
100.7175317336919
 72
     1
 10
85.33051369613659
 20
100.7175317336919
 11
85.15575355369426
 21
100.3643315978007
 72
     1
 10
85.15575355369438
 20
100.3643315978007
 11
86.55753825087586
 21
100.3643315978007
 72
     1
 10
86.55753825087586
 20
100.3643315978007
 11
86.33404499442681
 21
99.91263908115781
 72
     1
 10
86.33404499442681
 20
99.91263908115781
 11
83.66689869596248
 21
99.91263908115781
 72
     1
 10
83.66689869596248
 20
99.91263908115781
 11
84.6426019064709
 21
101.8845904753667
 97
       12
330
D4D
330
D5F
330
D5C
330
D5D
330
D5B
330
D58
330
D59
330
D56
330
D5A
330
D57
330
D5E
330
D60
 75
     0
 76
     1
 98
        1
 10
-24.45618817772558
 20
-34.46702458784506
450
        0
451
        0
460
0.0
461
0.0
452
        0
462
0.0
453
        0
470

  0
LINE
  5
D4D
102
{ACAD_REACTORS
330
D4C
102
}
330
18
100
AcDbEntity
  8
ROGO
 62
     4
100
AcDbLine
 10
84.6426019064709
 20
101.8845904753667
 30
0.0
 11
87.30974820493534
 21
101.8845904753667
 31
0.0
  0
LINE
  5
D4E
102
{ACAD_REACTORS
330
D48
102
}
330
18
100
AcDbEntity
  8
ROGO
 62
     4
100
AcDbLine
 10
90.53577606793911
 20
99.91263908115781
 30
0.0
 11
89.43621881047162
 21
99.91263908115781
 31
0.0
  0
LINE
  5
D4F
102
{ACAD_REACTORS
330
D48
102
}
330
18
100
AcDbEntity
  8
ROGO
 62
     4
100
AcDbLine
 10
88.08236489023775
 20
101.8845904753667
 30
0.0
 11
89.65975712176671
 21
101.8845904753667
 31
0.0
  0
LINE
  5
D50
102
{ACAD_REACTORS
330
D48
102
}
330
18
100
AcDbEntity
  8
ROGO
 62
     4
100
AcDbLine
 10
86.66035241544538
 20
99.91263908115781
 30
0.0
 11
87.75246052821776
 21
99.91263908115781
 31
0.0
  0
LINE
  5
D51
102
{ACAD_REACTORS
330
D48
102
}
330
18
100
AcDbEntity
  8
ROGO
 62
     4
100
AcDbLine
 10
88.02320290514572
 20
100.2880864257619
 30
0.0
 11
87.75246052821776
 21
99.91263908115781
 31
0.0
  0
LINE
  5
D52
102
{ACAD_REACTORS
330
D48
102
}
330
18
100
AcDbEntity
  8
ROGO
 62
     4
100
AcDbLine
 10
88.30876305428379
 20
100.684082061669
 30
0.0
 11
89.09351327076903
 21
100.684082061669
 31
0.0
  0
LINE
  5
D53
102
{ACAD_REACTORS
330
D48
102
}
330
18
100
AcDbEntity
  8
ROGO
 62
     4
100
AcDbLine
 10
88.02320290514572
 20
100.2880864257619
 30
0.0
 11
89.26943022322294
 21
100.2880864257619
 31
0.0
  0
LINE
  5
D54
102
{ACAD_REACTORS
330
D48
102
}
330
18
100
AcDbEntity
  8
ROGO
 62
     4
100
AcDbLine
 10
88.79436328901411
 20
101.3574798530944
 30
0.0
 11
88.30876305428379
 21
100.6840820616689
 31
0.0
  0
LINE
  5
D55
102
{ACAD_REACTORS
330
D48
102
}
330
18
100
AcDbEntity
  8
ROGO
 62
     4
100
AcDbLine
 10
88.08236489023775
 20
101.8845904753667
 30
0.0
 11
86.66035241544538
 21
99.91263908115781
 31
0.0
  0
LINE
  5
D56
102
{ACAD_REACTORS
330
D4C
102
}
330
18
100
AcDbEntity
  8
ROGO
 62
     4
100
AcDbLine
 10
85.33051369613659
 20
100.7175317336919
 30
0.0
 11
85.15575355369426
 21
100.3643315978007
 31
0.0
  0
LINE
  5
D57
102
{ACAD_REACTORS
330
D4C
102
}
330
18
100
AcDbEntity
  8
ROGO
 62
     4
100
AcDbLine
 10
86.55753825087586
 20
100.3643315978007
 30
0.0
 11
86.33404499442681
 21
99.91263908115781
 31
0.0
  0
LINE
  5
D58
102
{ACAD_REACTORS
330
D4C
102
}
330
18
100
AcDbEntity
  8
ROGO
 62
     4
100
AcDbLine
 10
86.91149096171002
 20
101.0796900532161
 30
0.0
 11
86.73229839331808
 21
100.7175317336919
 31
0.0
  0
LINE
  5
D59
102
{ACAD_REACTORS
330
D4C
102
}
330
18
100
AcDbEntity
  8
ROGO
 62
     4
100
AcDbLine
 10
85.33051369613659
 20
100.7175317336919
 30
0.0
 11
86.73229839331808
 21
100.7175317336919
 31
0.0
  0
LINE
  5
D5A
102
{ACAD_REACTORS
330
D4C
102
}
330
18
100
AcDbEntity
  8
ROGO
 62
     4
100
AcDbLine
 10
85.15575355369438
 20
100.3643315978007
 30
0.0
 11
86.55753825087586
 21
100.3643315978007
 31
0.0
  0
LINE
  5
D5B
102
{ACAD_REACTORS
330
D4C
102
}
330
18
100
AcDbEntity
  8
ROGO
 62
     4
100
AcDbLine
 10
85.50970626452842
 20
101.0796900532161
 30
0.0
 11
86.91149096171002
 21
101.0796900532161
 31
0.0
  0
LINE
  5
D5C
102
{ACAD_REACTORS
330
D4C
102
}
330
18
100
AcDbEntity
  8
ROGO
 62
     4
100
AcDbLine
 10
85.68445900877955
 20
101.4328752369445
 30
0.0
 11
87.08624370596115
 21
101.4328752369445
 31
0.0
  0
LINE
  5
D5D
102
{ACAD_REACTORS
330
D4C
102
}
330
18
100
AcDbEntity
  8
ROGO
 62
     4
100
AcDbLine
 10
85.68445900877955
 20
101.4328752369445
 30
0.0
 11
85.50970626452842
 21
101.0796900532161
 31
0.0
  0
LINE
  5
D5E
102
{ACAD_REACTORS
330
D4C
102
}
330
18
100
AcDbEntity
  8
ROGO
 62
     4
100
AcDbLine
 10
83.66689869596248
 20
99.91263908115781
 30
0.0
 11
86.33404499442681
 21
99.91263908115781
 31
0.0
  0
LINE
  5
D5F
102
{ACAD_REACTORS
330
D4C
102
}
330
18
100
AcDbEntity
  8
ROGO
 62
     4
100
AcDbLine
 10
87.30974820493534
 20
101.8845904753667
 30
0.0
 11
87.08624370596115
 21
101.4328752369445
 31
0.0
  0
LINE
  5
D60
102
{ACAD_REACTORS
330
D4C
102
}
330
18
100
AcDbEntity
  8
ROGO
 62
     4
100
AcDbLine
 10
84.6426019064709
 20
101.8845904753667
 30
0.0
 11
83.66689869596248
 21
99.91263908115781
 31
0.0
  0
SPLINE
  5
D61
102
{ACAD_REACTORS
330
D3A
102
}
330
18
100
AcDbEntity
  8
ROGO
 62
     4
100
AcDbSpline
210
0.0
220
0.0
230
1.0
 70
     8
 71
     3
 72
    15
 73
    11
 74
     9
 42
0.0000000001
 43
0.0000000001
 44
0.0000000001
 40
0.0
 40
0.0
 40
0.0
 40
0.0
 40
0.2312176979325164
 40
0.3366402502980286
 40
0.4563018654241719
 40
0.537820921275743
 40
0.6667441535771673
 40
0.7439656479345594
 40
0.8764524275297516
 40
0.9206147155808256
 40
0.9206147155808256
 40
0.9206147155808256
 40
0.9206147155808256
 10
82.35701491673571
 20
101.1220312149681
 30
0.0
 10
82.44385580024456
 20
101.1224289925688
 30
0.0
 10
82.57029135003994
 20
101.1230081348761
 30
0.0
 10
82.63943081179382
 20
100.9666069941411
 30
0.0
 10
82.60843920845465
 20
100.865909057788
 30
0.0
 10
82.56948023720116
 20
100.7625236624316
 30
0.0
 10
82.50063091137191
 20
100.6922717270135
 30
0.0
 10
82.4082250315463
 20
100.6246072703653
 30
0.0
 10
82.32089705922604
 20
100.6164161849006
 30
0.0
 10
82.26410001612746
 20
100.6013668955731
 30
0.0
 10
82.24990074855591
 20
100.5976045714404
 30
0.0
 11
82.35701491673571
 21
101.1220312149681
 31
0.0
 11
82.58195485469164
 21
101.0685181497447
 31
0.0
 11
82.62480064514901
 21
100.9721949812579
 31
0.0
 11
82.60337805788415
 21
100.8544665866818
 31
0.0
 11
82.5712438690231
 21
100.7795482953693
 31
0.0
 11
82.48555228810815
 21
100.6832251268825
 31
0.0
 11
82.42128391038582
 21
100.640414674704
 31
0.0
 11
82.2927465390134
 21
100.6083071844849
 31
0.0
 11
82.24990074855591
 21
100.5976045714404
 31
0.0
  0
SPLINE
  5
D62
102
{ACAD_REACTORS
330
D3A
102
}
330
18
100
AcDbEntity
  8
ROGO
 62
     4
100
AcDbSpline
210
0.0
220
0.0
230
1.0
 70
     8
 71
     3
 72
    18
 73
    14
 74
     0
 42
0.0000000001
 43
0.0000000001
 40
0.1087402787915014
 40
0.1087402787915014
 40
0.1087402787915014
 40
0.1087402787915014
 40
0.5992371417938475
 40
1.083176791562496
 40
1.448211145705696
 40
1.714037220764907
 40
2.164002567013297
 40
2.740236056362883
 40
3.395137510199602
 40
4.071816045172726
 40
4.784906178399433
 40
5.506895915094292
 40
6.060470601257719
 40
6.060470601257719
 40
6.060470601257719
 40
6.060470601257719
 10
83.21204525743363
 20
101.8845904753667
 30
0.0
 10
83.28962245009156
 20
101.8561597342741
 30
0.0
 10
83.44217719918052
 20
101.7960528029319
 30
0.0
 10
83.62836598338029
 20
101.6588689243931
 30
0.0
 10
83.72990530686095
 20
101.5005013460413
 30
0.0
 10
83.82757476815212
 20
101.344458453601
 30
0.0
 10
83.84124343097075
 20
101.1205885330126
 30
0.0
 10
83.81885323783833
 20
100.8375626933213
 30
0.0
 10
83.67430417374853
 20
100.5422544361137
 30
0.0
 10
83.44229442426515
 20
100.2839662785792
 30
0.0
 10
83.15423812935391
 20
100.0772358057727
 30
0.0
 10
82.85047283039265
 20
99.91495770826015
 30
0.0
 10
82.63334130930472
 20
99.91334079556777
 30
0.0
 10
82.53910968016194
 20
99.91263908115781
 30
0.0
  0
HATCH
  5
D63
330
18
100
AcDbEntity
  8
ROGO
 62
     4
100
AcDbHatch
 10
0.0
 20
0.0
 30
0.0
210
0.0
220
0.0
230
1.0
  2
SOLID
 70
     1
 71
     1
 91
        2
 92
        5
 93
        6
 72
     4
 94
        3
 73
     0
 74
     0
 95
       38
 96
       34
 40
0.0
 40
0.0
 40
0.0
 40
0.0
 40
0.2714595552784945
 40
0.3567130521393607
 40
0.4662579991314252
 40
0.5575456336446712
 40
0.6345690266699715
 40
0.7368736702848842
 40
0.789147311082002
 40
0.8480211518140512
 40
0.9347901142206003
 40
1.033080520335933
 40
1.096840544178416
 40
1.166105320047315
 40
1.243101009489235
 40
1.359945869735449
 40
1.470960671966381
 40
1.522570899489304
 40
1.581425459868222
 40
1.651148677935716
 40
1.700782649520471
 40
1.742390211897043
 40
1.801796411421822
 40
1.867073648477106
 40
1.932350522079321
 40
1.989467877344612
 40
2.120276773663816
 40
2.171887001186595
 40
2.275107517537616
 40
2.366349862187057
 40
2.541026490534564
 40
2.756559363428497
 40
3.067820196019685
 40
3.067820196019685
 40
3.067820196019685
 40
3.067820196019685
 10
94.85264192434081
 20
101.8928156222883
 10
94.76215631792261
 20
101.8864234520294
 10
94.64325316563895
 20
101.878023782471
 10
94.49227396447922
 20
101.836659982647
 10
94.40997359578872
 20
101.787382377495
 10
94.3243236120478
 20
101.7511609756839
 10
94.25129902385355
 20
101.6975242624674
 10
94.17743619456041
 20
101.669885780897
 10
94.12571518042488
 20
101.6200486585032
 10
94.06585232536702
 20
101.5896059931366
 10
94.01818247104918
 20
101.5214664577117
 10
93.9649010944653
 20
101.4577584612541
 10
93.90308799458869
 20
101.411254465109
 10
93.85235715393276
 20
101.3624116632833
 10
93.80581866168695
 20
101.2870325444733
 10
93.77827509908232
 20
101.1868760164024
 10
93.70063441934087
 20
101.1236407966074
 10
93.68894416387613
 20
101.0476131944005
 10
93.64599873626005
 20
101.0027581884551
 10
93.62732456234462
 20
100.9448568197617
 10
93.62021253803803
 20
100.8918089385183
 10
93.61167641300813
 20
100.8422658896929
 10
93.58934752655111
 20
100.7901487907951
 10
93.59663575213025
 20
100.7257704389859
 10
93.59455955547051
 20
100.6634307441076
 10
93.59578139964193
 20
100.5792702148092
 10
93.59137159481182
 20
100.4973295899499
 10
93.62653806022057
 20
100.4081587552054
 10
93.64734840739959
 20
100.3286752924129
 10
93.704340928409
 20
100.2186207997163
 10
93.80265183279503
 20
100.0916417111767
 10
93.98959824100293
 20
99.93751315597984
 10
94.16935267833205
 20
99.92187753150595
 10
94.27556221584636
 20
99.91263908115781
 72
     1
 10
94.27556221584634
 20
99.91263908115783
 11
95.40251966622603
 21
99.91263908115781
 72
     4
 94
        3
 73
     0
 74
     0
 95
       11
 96
        7
 40
0.1647869275458135
 40
0.1647869275458135
 40
0.1647869275458135
 40
0.1647869275458135
 40
0.2545010798212315
 40
0.5111620267764023
 40
0.7602998271033902
 40
0.8850764140209603
 40
0.8850764140209603
 40
0.8850764140209603
 40
0.8850764140209603
 10
95.4025196662258
 20
99.91263908115781
 10
95.41824533211039
 20
99.9123360143529
 10
95.47896015739789
 20
99.91116591139808
 10
95.58272252159033
 20
99.92607259486504
 10
95.69189435165961
 20
99.94035736946244
 10
95.75697960305516
 20
99.95076053975612
 10
95.77797119836478
 20
99.95660355831143
 72
     4
 94
        3
 73
     0
 74
     0
 95
        9
 96
        5
 40
0.0
 40
0.0
 40
0.0
 40
0.0
 40
0.1705622292886746
 40
0.3998937933619902
 40
0.3998937933619902
 40
0.3998937933619902
 40
0.3998937933619902
 10
95.77797119836478
 20
99.95660355831143
 10
95.83276072118747
 20
99.9733660579165
 10
95.96121817750377
 20
100.0126667845853
 10
96.06735346265848
 20
100.0957293617723
 10
96.12822005111755
 20
100.1433641864644
 72
     4
 94
        3
 73
     0
 74
     0
 95
       25
 96
       21
 40
0.0
 40
0.0
 40
0.0
 40
0.0
 40
0.165525918914855
 40
0.3412380755365305
 40
0.5940540902285263
 40
0.7697671103696209
 40
0.9377330196075423
 40
1.11479469302833
 40
1.274661249598185
 40
1.574522170874768
 40
1.815540668866877
 40
2.15849091873445
 40
2.536227739636605
 40
2.738070817316548
 40
2.925680654369045
 40
3.162706124480894
 40
3.395643218188267
 40
3.648478129958861
 40
3.928509979727306
 40
4.337226830236035
 40
4.337226830236035
 40
4.337226830236035
 40
4.337226830236035
 10
96.12822005111755
 20
100.1433641864644
 10
96.15058437346116
 20
100.16184523933
 10
96.1930033783622
 20
100.205800220195
 10
96.26824046845346
 20
100.2770414509771
 10
96.33454081897779
 20
100.360043138202
 10
96.41632707465081
 20
100.427313096783
 10
96.458904743653
 20
100.5095556077872
 10
96.52027709255381
 20
100.5742375909226
 10
96.57175844349026
 20
100.6741325336043
 10
96.61543782535014
 20
100.7888801774505
 10
96.65708008457627
 20
100.9384515504906
 10
96.67303782790353
 20
101.1071902920089
 10
96.64941838326754
 20
101.2704449397461
 10
96.59235977579285
 20
101.3924724264216
 10
96.55041101142344
 20
101.4941697600221
 10
96.48674850602631
 20
101.5904950412101
 10
96.41411819178646
 20
101.6952594369477
 10
96.31179493995141
 20
101.7819165531527
 10
96.17806895557194
 20
101.886438999351
 10
96.05351318636511
 20
101.8904408477526
 10
95.97959937472026
 20
101.8928156222883
 72
     1
 10
95.97959937472031
 20
101.8928156222883
 11
94.85264192434083
 21
101.8928156222883
 97
        6
330
D69
330
D68
330
D6A
330
D67
330
D66
330
D65
 92
       20
 93
        1
 72
     3
 10
95.11162291251755
 20
100.8751186982034
 11
0.2677303718959485
 21
0.2354353599673917
 40
0.678808341743879
 50
0.0
 51
360.0
 73
     1
 97
        1
330
D64
 75
     0
 76
     1
 47
0.088756267210375
 98
        2
 10
95.19035902530006
 20
101.3458829264289
 10
95.19035902530006
 20
101.3458829264289
450
        0
451
        0
460
0.0
461
0.0
452
        0
462
0.0
453
        0
470

  0
ELLIPSE
  5
D64
102
{ACAD_REACTORS
330
D63
102
}
330
18
100
AcDbEntity
  8
ROGO
 62
     4
100
AcDbEllipse
 10
95.11162291251755
 20
100.8751186982034
 30
0.0
 11
0.2677303718959485
 21
0.2354353599673917
 31
0.0
210
0.0
220
0.0
230
1.0
 40
0.678808341743879
 41
0.0
 42
6.283185307179586
  0
SPLINE
  5
D65
102
{ACAD_REACTORS
330
D63
102
}
330
18
100
AcDbEntity
  8
ROGO
 62
     4
100
AcDbSpline
210
0.0
220
0.0
230
1.0
 70
     8
 71
     3
 72
     9
 73
     5
 74
     3
 42
0.0000000001
 43
0.0000000001
 44
0.0000000001
 40
0.0
 40
0.0
 40
0.0
 40
0.0
 40
0.1705622292886746
 40
0.3998937933619902
 40
0.3998937933619902
 40
0.3998937933619902
 40
0.3998937933619902
 10
95.77797119836478
 20
99.95660355831143
 30
0.0
 10
95.83276072118747
 20
99.9733660579165
 30
0.0
 10
95.96121817750377
 20
100.0126667845853
 30
0.0
 10
96.06735346265848
 20
100.0957293617723
 30
0.0
 10
96.12822005111755
 20
100.1433641864644
 30
0.0
 11
95.77797119836478
 21
99.95660355831143
 31
0.0
 11
95.93827895529775
 21
100.0148521387837
 31
0.0
 11
96.12822005111755
 21
100.1433641864644
 31
0.0
  0
SPLINE
  5
D66
102
{ACAD_REACTORS
330
D63
102
}
330
18
100
AcDbEntity
  8
ROGO
 62
     4
100
AcDbSpline
210
0.0
220
0.0
230
1.0
 70
     8
 71
     3
 72
    11
 73
     7
 74
     0
 42
0.0000000001
 43
0.0000000001
 40
0.1647869275458134
 40
0.1647869275458134
 40
0.1647869275458134
 40
0.1647869275458134
 40
0.2895635144633836
 40
0.5387013147903714
 40
0.7953622617455423
 40
0.8850764140209602
 40
0.8850764140209602
 40
0.8850764140209602
 40
0.8850764140209602
 10
95.77797119836478
 20
99.95660355831143
 30
0.0
 10
95.75697960305516
 20
99.95076053975612
 30
0.0
 10
95.69189435165961
 20
99.94035736946244
 30
0.0
 10
95.58272252159033
 20
99.92607259486504
 30
0.0
 10
95.47896015739789
 20
99.91116591139808
 30
0.0
 10
95.41824533211039
 20
99.9123360143529
 30
0.0
 10
95.4025196662258
 20
99.91263908115781
 30
0.0
  0
LINE
  5
D67
102
{ACAD_REACTORS
330
D63
102
}
330
18
100
AcDbEntity
  8
ROGO
 62
     4
100
AcDbLine
 10
94.27556221584636
 20
99.91263908115781
 30
0.0
 11
95.4025196662258
 21
99.91263908115781
 31
0.0
  0
LINE
  5
D68
102
{ACAD_REACTORS
330
D63
102
}
330
18
100
AcDbEntity
  8
ROGO
 62
     4
100
AcDbLine
 10
94.85264192434081
 20
101.8928156222883
 30
0.0
 11
95.97959937472026
 21
101.8928156222883
 31
0.0
  0
SPLINE
  5
D69
102
{ACAD_REACTORS
330
D63
102
}
330
18
100
AcDbEntity
  8
ROGO
 62
     4
100
AcDbSpline
210
0.0
220
0.0
230
1.0
 70
     8
 71
     3
 72
    25
 73
    21
 74
     0
 42
0.0000000001
 43
0.0000000001
 40
0.0
 40
0.0
 40
0.0
 40
0.0
 40
0.4087168505087288
 40
0.6887487002771746
 40
0.9415836120477687
 40
1.17452070575514
 40
1.41154617586699
 40
1.599156012919487
 40
1.80099909059943
 40
2.178735911501585
 40
2.521686161369157
 40
2.762704659361267
 40
3.06256558063785
 40
3.222432137207705
 40
3.399493810628493
 40
3.567459719866414
 40
3.743172740007509
 40
3.995988754699505
 40
4.17170091132118
 40
4.337226830236035
 40
4.337226830236035
 40
4.337226830236035
 40
4.337226830236035
 10
95.97959937472026
 20
101.8928156222883
 30
0.0
 10
96.05351318636511
 20
101.8904408477526
 30
0.0
 10
96.17806895557194
 20
101.886438999351
 30
0.0
 10
96.31179493995141
 20
101.7819165531527
 30
0.0
 10
96.41411819178646
 20
101.6952594369477
 30
0.0
 10
96.48674850602631
 20
101.5904950412101
 30
0.0
 10
96.55041101142344
 20
101.4941697600221
 30
0.0
 10
96.59235977579285
 20
101.3924724264216
 30
0.0
 10
96.64941838326754
 20
101.2704449397461
 30
0.0
 10
96.67303782790353
 20
101.1071902920089
 30
0.0
 10
96.65708008457627
 20
100.9384515504906
 30
0.0
 10
96.61543782535014
 20
100.7888801774505
 30
0.0
 10
96.57175844349026
 20
100.6741325336043
 30
0.0
 10
96.52027709255381
 20
100.5742375909226
 30
0.0
 10
96.458904743653
 20
100.5095556077872
 30
0.0
 10
96.41632707465081
 20
100.427313096783
 30
0.0
 10
96.33454081897779
 20
100.360043138202
 30
0.0
 10
96.26824046845346
 20
100.2770414509771
 30
0.0
 10
96.1930033783622
 20
100.205800220195
 30
0.0
 10
96.15058437346116
 20
100.16184523933
 30
0.0
 10
96.12822005111755
 20
100.1433641864644
 30
0.0
  0
SPLINE
  5
D6A
102
{ACAD_REACTORS
330
D63
102
}
330
18
100
AcDbEntity
  8
ROGO
 62
     4
100
AcDbSpline
210
0.0
220
0.0
230
1.0
 70
     8
 71
     3
 72
    38
 73
    34
 74
    32
 42
0.0000000001
 43
0.0000000001
 44
0.0000000001
 40
0.0
 40
0.0
 40
0.0
 40
0.0
 40
0.2714595552784945
 40
0.3567130521393607
 40
0.4662579991314252
 40
0.5575456336446712
 40
0.6345690266699715
 40
0.7368736702848842
 40
0.789147311082002
 40
0.8480211518140512
 40
0.9347901142206003
 40
1.033080520335933
 40
1.096840544178416
 40
1.166105320047315
 40
1.243101009489235
 40
1.359945869735449
 40
1.470960671966381
 40
1.522570899489304
 40
1.581425459868222
 40
1.651148677935716
 40
1.700782649520471
 40
1.742390211897043
 40
1.801796411421822
 40
1.867073648477106
 40
1.932350522079321
 40
1.989467877344612
 40
2.120276773663816
 40
2.171887001186595
 40
2.275107517537616
 40
2.366349862187057
 40
2.541026490534564
 40
2.756559363428497
 40
3.067820196019685
 40
3.067820196019685
 40
3.067820196019685
 40
3.067820196019685
 10
94.85264192434081
 20
101.8928156222883
 30
0.0
 10
94.76215631792261
 20
101.8864234520294
 30
0.0
 10
94.64325316563895
 20
101.878023782471
 30
0.0
 10
94.49227396447922
 20
101.836659982647
 30
0.0
 10
94.40997359578872
 20
101.787382377495
 30
0.0
 10
94.3243236120478
 20
101.7511609756839
 30
0.0
 10
94.25129902385355
 20
101.6975242624674
 30
0.0
 10
94.17743619456041
 20
101.669885780897
 30
0.0
 10
94.12571518042488
 20
101.6200486585032
 30
0.0
 10
94.06585232536702
 20
101.5896059931366
 30
0.0
 10
94.01818247104918
 20
101.5214664577117
 30
0.0
 10
93.9649010944653
 20
101.4577584612541
 30
0.0
 10
93.90308799458869
 20
101.411254465109
 30
0.0
 10
93.85235715393276
 20
101.3624116632833
 30
0.0
 10
93.80581866168695
 20
101.2870325444733
 30
0.0
 10
93.77827509908232
 20
101.1868760164024
 30
0.0
 10
93.70063441934087
 20
101.1236407966074
 30
0.0
 10
93.68894416387613
 20
101.0476131944005
 30
0.0
 10
93.64599873626005
 20
101.0027581884551
 30
0.0
 10
93.62732456234462
 20
100.9448568197617
 30
0.0
 10
93.62021253803803
 20
100.8918089385183
 30
0.0
 10
93.61167641300813
 20
100.8422658896929
 30
0.0
 10
93.58934752655111
 20
100.7901487907951
 30
0.0
 10
93.59663575213025
 20
100.7257704389859
 30
0.0
 10
93.59455955547051
 20
100.6634307441076
 30
0.0
 10
93.59578139964193
 20
100.5792702148092
 30
0.0
 10
93.59137159481182
 20
100.4973295899499
 30
0.0
 10
93.62653806022057
 20
100.4081587552054
 30
0.0
 10
93.64734840739959
 20
100.3286752924129
 30
0.0
 10
93.704340928409
 20
100.2186207997163
 30
0.0
 10
93.80265183279503
 20
100.0916417111767
 30
0.0
 10
93.98959824100293
 20
99.93751315597984
 30
0.0
 10
94.16935267833205
 20
99.92187753150595
 30
0.0
 10
94.27556221584636
 20
99.91263908115781
 30
0.0
 11
94.85264192434081
 21
101.8928156222883
 31
0.0
 11
94.58315166687318
 21
101.8601768220341
 31
0.0
 11
94.5014879719312
 21
101.8356982670231
 31
0.0
 11
94.40349192295574
 21
101.7867404300949
 31
0.0
 11
94.32182822801385
 21
101.7459424749566
 31
0.0
 11
94.25649752869677
 21
101.7051441563654
 31
0.0
 11
94.16666765673815
 21
101.6561866828902
 31
0.0
 11
94.12583548847138
 21
101.6235482460891
 31
0.0
 11
94.07683714318798
 21
101.5909094458349
 31
0.0
 11
94.01967262088774
 21
101.5256325722326
 31
0.0
 11
93.95434192157077
 21
101.4521961802932
 31
0.0
 11
93.90534357628714
 21
101.4113978617021
 31
0.0
 11
93.8563458725952
 21
101.3624403882268
 31
0.0
 11
93.81551370432854
 21
101.2971635146246
 31
0.0
 11
93.76651600063658
 21
101.1910883224312
 31
0.0
 11
93.70118465972806
 21
101.1013325303648
 31
0.0
 11
93.6848523056946
 21
101.0523746934365
 31
0.0
 11
93.6521869560361
 21
101.0034172199612
 31
0.0
 11
93.62768778339434
 21
100.9381399829061
 31
0.0
 11
93.61952096478606
 21
100.8891825094306
 31
0.0
 11
93.61135478776933
 21
100.8483841908397
 31
0.0
 11
93.59502243373587
 21
100.7912671990272
 31
0.0
 11
93.59502243373587
 21
100.7259899619719
 31
0.0
 11
93.59502243373587
 21
100.6607130883697
 31
0.0
 11
93.59502243373587
 21
100.6035957331044
 31
0.0
 11
93.60318861075271
 21
100.4730419858998
 31
0.0
 11
93.61952096478606
 21
100.4240841489716
 31
0.0
 11
93.6521869560361
 21
100.3261688385681
 31
0.0
 11
93.69301848271133
 21
100.2445725648388
 31
0.0
 11
93.79918135029496
 21
100.105859299297
 31
0.0
 11
93.9706749171958
 21
99.97530518863966
 31
0.0
 11
94.27556221584636
 21
99.91263908115781
 31
0.0
  0
HATCH
  5
D6B
330
18
100
AcDbEntity
  8
ROGO
 62
     4
100
AcDbHatch
 10
0.0
 20
0.0
 30
0.0
210
0.0
220
0.0
230
1.0
  2
SOLID
 70
     1
 71
     1
 91
        1
 92
        5
 93
        8
 72
     4
 94
        3
 73
     0
 74
     0
 95
       26
 96
       22
 40
0.0
 40
0.0
 40
0.0
 40
0.0
 40
0.3577345748876927
 40
0.5972101726228049
 40
0.7698915807379933
 40
0.8988272007459613
 40
1.066063466978222
 40
1.188129637910085
 40
1.408552691509896
 40
1.587973888204248
 40
1.710009051100991
 40
1.829670776496017
 40
2.043722339559111
 40
2.195082342754868
 40
2.276601398606439
 40
2.392396809406738
 40
2.476015273749399
 40
2.597150821771409
 40
2.665703063963284
 40
2.81488043248657
 40
2.882996114846246
 40
2.882996114846246
 40
2.882996114846246
 40
2.882996114846246
 10
98.13657441238902
 20
101.8845904753667
 10
98.01515377036736
 20
101.8773463116491
 10
97.81245141037182
 20
101.8652527412537
 10
97.58988545219265
 20
101.7300463118412
 10
97.42682060150514
 20
101.6514432354133
 10
97.31052294775285
 20
101.5445890495508
 10
97.22527629611604
 20
101.4342164811056
 10
97.11780688836007
 20
101.3027083750756
 10
97.03016865727622
 20
101.1495725072235
 10
96.98553983405673
 20
100.9807900841923
 10
96.94600804602186
 20
100.8462695137297
 10
96.91669061021645
 20
100.6963638932416
 10
96.92414979585127
 20
100.534413089075
 10
96.93483169105977
 20
100.3840014731842
 10
96.98252375567236
 20
100.2766300991455
 10
97.03683656954567
 20
100.2001890797036
 10
97.10334186632344
 20
100.1159977714053
 10
97.17611320451281
 20
100.0602381405413
 10
97.23630104120454
 20
99.959225822274
 10
97.34165781893679
 20
99.94633592195764
 10
97.40862677832334
 20
99.92068117320725
 10
97.42961979373266
 20
99.91263908115781
 72
     1
 10
97.42961979373262
 20
99.91263908115781
 11
99.12808748844636
 21
99.91263908115779
 72
     1
 10
99.12808748844636
 20
99.91263908115779
 11
99.4939270243697
 21
100.646325082103
 72
     1
 10
99.4939270243697
 20
100.646325082103
 11
98.23297697897253
 21
100.646325082103
 72
     4
 94
        3
 73
     0
 74
     0
 95
       16
 96
       12
 40
0.0
 40
0.0
 40
0.0
 40
0.0
 40
0.1080348911234275
 40
0.21718408366911
 40
0.2822866714261416
 40
0.344706654150733
 40
0.4132586239738029
 40
0.4611302068884772
 40
0.5065561843420695
 40
0.598673544841221
 40
0.7872732608781819
 40
0.7872732608781819
 40
0.7872732608781819
 40
0.7872732608781819
 10
98.23297697897253
 20
100.646325082103
 10
98.1949422819458
 20
100.657515447657
 10
98.11848058762207
 20
100.6800115992568
 10
98.11208136124953
 20
100.7890646777929
 10
98.12079938137509
 20
100.8667739200328
 10
98.15731046913263
 20
100.923350786311
 10
98.20160475134606
 20
100.9645179005589
 10
98.21809747712036
 20
101.0181316301368
 10
98.26657634188917
 20
101.0586167036304
 10
98.35254235877044
 20
101.1266664567843
 10
98.44760589184151
 20
101.141159533733
 10
98.51147430898201
 20
101.1508967048049
 72
     1
 10
98.51147430898199
 20
101.1508967048049
 11
99.74552273159535
 21
101.1508967048049
 72
     1
 10
99.74552273159535
 20
101.1508967048049
 11
100.1113661417002
 21
101.8845904753667
 72
     1
 10
100.1113661417002
 20
101.8845904753667
 11
98.13657441238897
 21
101.8845904753666
 97
        8
330
D74
330
D72
330
D75
330
D71
330
D70
330
D73
330
D6F
330
D6E
 75
     0
 76
     1
 47
0.0514683685270805
 98
        1
 10
98.47733660201837
 20
101.5235194678975
450
        0
451
        0
460
0.0
461
0.0
452
        0
462
0.0
453
        0
470

  0
LINE
  5
D6C
102
{ACAD_REACTORS
330
D37
102
}
330
18
100
AcDbEntity
  8
ROGO
 62
     4
100
AcDbLine
 10
100.5243747274984
 20
99.60753799772096
 30
0.0
 11
100.1233464739994
 21
98.80328152272495
 31
0.0
  0
LINE
  5
D6D
102
{ACAD_REACTORS
330
D37
102
}
330
18
100
AcDbEntity
  8
ROGO
 62
     4
100
AcDbLine
 10
100.5243747274984
 20
101.8845904753667
 30
0.0
 11
98.98793456669606
 21
98.80328152272495
 31
0.0
  0
LINE
  5
D6E
102
{ACAD_REACTORS
330
D6B
102
}
330
18
100
AcDbEntity
  8
ROGO
 62
     4
100
AcDbLine
 10
100.1113661417002
 20
101.8845904753667
 30
0.0
 11
99.74552273159535
 21
101.1508967048049
 31
0.0
  0
LINE
  5
D6F
102
{ACAD_REACTORS
330
D6B
102
}
330
18
100
AcDbEntity
  8
ROGO
 62
     4
100
AcDbLine
 10
98.51147430898201
 20
101.1508967048049
 30
0.0
 11
99.74552273159535
 21
101.1508967048049
 31
0.0
  0
LINE
  5
D70
102
{ACAD_REACTORS
330
D6B
102
}
330
18
100
AcDbEntity
  8
ROGO
 62
     4
100
AcDbLine
 10
98.23297697897253
 20
100.646325082103
 30
0.0
 11
99.4939270243697
 21
100.646325082103
 31
0.0
  0
LINE
  5
D71
102
{ACAD_REACTORS
330
D6B
102
}
330
18
100
AcDbEntity
  8
ROGO
 62
     4
100
AcDbLine
 10
99.4939270243697
 20
100.646325082103
 30
0.0
 11
99.12808748844637
 21
99.91263908115781
 31
0.0
  0
SPLINE
  5
D72
102
{ACAD_REACTORS
330
D6B
102
}
330
18
100
AcDbEntity
  8
ROGO
 62
     4
100
AcDbSpline
210
0.0
220
0.0
230
1.0
 70
     8
 71
     3
 72
    26
 73
    22
 74
    20
 42
0.0000000001
 43
0.0000000001
 44
0.0000000001
 40
0.0
 40
0.0
 40
0.0
 40
0.0
 40
0.3577345748876927
 40
0.5972101726228049
 40
0.7698915807379933
 40
0.8988272007459613
 40
1.066063466978222
 40
1.188129637910085
 40
1.408552691509896
 40
1.587973888204248
 40
1.710009051100991
 40
1.829670776496017
 40
2.043722339559111
 40
2.195082342754868
 40
2.276601398606439
 40
2.392396809406738
 40
2.476015273749399
 40
2.597150821771409
 40
2.665703063963284
 40
2.81488043248657
 40
2.882996114846246
 40
2.882996114846246
 40
2.882996114846246
 40
2.882996114846246
 10
98.13657441238902
 20
101.8845904753667
 30
0.0
 10
98.01515377036736
 20
101.8773463116491
 30
0.0
 10
97.81245141037182
 20
101.8652527412537
 30
0.0
 10
97.58988545219265
 20
101.7300463118412
 30
0.0
 10
97.42682060150514
 20
101.6514432354133
 30
0.0
 10
97.31052294775285
 20
101.5445890495508
 30
0.0
 10
97.22527629611604
 20
101.4342164811056
 30
0.0
 10
97.11780688836007
 20
101.3027083750756
 30
0.0
 10
97.03016865727622
 20
101.1495725072235
 30
0.0
 10
96.98553983405673
 20
100.9807900841923
 30
0.0
 10
96.94600804602186
 20
100.8462695137297
 30
0.0
 10
96.91669061021645
 20
100.6963638932416
 30
0.0
 10
96.92414979585127
 20
100.534413089075
 30
0.0
 10
96.93483169105977
 20
100.3840014731842
 30
0.0
 10
96.98252375567236
 20
100.2766300991455
 30
0.0
 10
97.03683656954567
 20
100.2001890797036
 30
0.0
 10
97.10334186632344
 20
100.1159977714053
 30
0.0
 10
97.17611320451281
 20
100.0602381405413
 30
0.0
 10
97.23630104120454
 20
99.959225822274
 30
0.0
 10
97.34165781893679
 20
99.94633592195764
 30
0.0
 10
97.40862677832334
 20
99.92068117320725
 30
0.0
 10
97.42961979373266
 20
99.91263908115781
 30
0.0
 11
98.13657441238902
 21
101.8845904753667
 31
0.0
 11
97.78309710306078
 21
101.8295648644192
 31
0.0
 11
97.5688681507734
 21
101.7225390828876
 31
0.0
 11
97.41890819213635
 21
101.6369185274455
 31
0.0
 11
97.32250562555286
 21
101.5512976230882
 31
0.0
 11
97.21539145737317
 21
101.4228666154675
 31
0.0
 11
97.14041147805453
 21
101.3265434469807
 31
0.0
 11
97.03329669394694
 21
101.1338967610921
 31
0.0
 11
96.97973991782092
 21
100.9626553012927
 31
0.0
 11
96.94760572895987
 21
100.8449269067166
 31
0.0
 11
96.92618252576714
 21
100.7271985121404
 31
0.0
 11
96.92618252576714
 21
100.5131469490773
 31
0.0
 11
96.94760572895987
 21
100.3633107153674
 31
0.0
 11
96.97973991782092
 21
100.2883924240549
 31
0.0
 11
97.04400829554314
 21
100.192069255568
 31
0.0
 11
97.09756568759715
 21
100.1278535773002
 31
0.0
 11
97.18325665258399
 21
100.042233021858
 31
0.0
 11
97.22610244304158
 21
99.98871995663472
 31
0.0
 11
97.36535141601033
 21
99.93520724032652
 31
0.0
 11
97.42961979373266
 21
99.91263908115781
 31
0.0
  0
SPLINE
  5
D73
102
{ACAD_REACTORS
330
D6B
102
}
330
18
100
AcDbEntity
  8
ROGO
 62
     4
100
AcDbSpline
210
0.0
220
0.0
230
1.0
 70
     8
 71
     3
 72
    16
 73
    12
 74
    10
 42
0.0000000001
 43
0.0000000001
 44
0.0000000001
 40
0.0
 40
0.0
 40
0.0
 40
0.0
 40
0.1885997160369608
 40
0.2807170765361123
 40
0.3261430539897047
 40
0.374014636904379
 40
0.4425666067274489
 40
0.5049865894520403
 40
0.5700891772090718
 40
0.6792383697547545
 40
0.7872732608781819
 40
0.7872732608781819
 40
0.7872732608781819
 40
0.7872732608781819
 10
98.51147430898201
 20
101.1508967048049
 30
0.0
 10
98.44760589184151
 20
101.141159533733
 30
0.0
 10
98.35254235877044
 20
101.1266664567843
 30
0.0
 10
98.26657634188917
 20
101.0586167036304
 30
0.0
 10
98.21809747712036
 20
101.0181316301368
 30
0.0
 10
98.20160475134606
 20
100.9645179005589
 30
0.0
 10
98.15731046913263
 20
100.923350786311
 30
0.0
 10
98.12079938137509
 20
100.8667739200328
 30
0.0
 10
98.11208136124953
 20
100.7890646777929
 30
0.0
 10
98.11848058762207
 20
100.6800115992568
 30
0.0
 10
98.1949422819458
 20
100.657515447657
 30
0.0
 10
98.23297697897253
 20
100.646325082103
 30
0.0
 11
98.51147430898201
 21
101.1508967048049
 31
0.0
 11
98.32938016148379
 21
101.1017889219582
 31
0.0
 11
98.25440018216514
 21
101.0482762056497
 31
0.0
 11
98.22226599330399
 21
101.0161683665158
 31
0.0
 11
98.20084279011124
 21
100.9733579143374
 31
0.0
 11
98.15799699965388
 21
100.919845198029
 31
0.0
 11
98.12586281079271
 21
100.8663321328059
 31
0.0
 11
98.1151512091964
 21
100.8021168034529
 31
0.0
 11
98.13657441238902
 21
100.6950906730065
 31
0.0
 11
98.23297697897253
 21
100.646325082103
 31
0.0
  0
LINE
  5
D74
102
{ACAD_REACTORS
330
D6B
102
}
330
18
100
AcDbEntity
  8
ROGO
 62
     4
100
AcDbLine
 10
98.13657441238948
 20
101.8845904753667
 30
0.0
 11
100.1113661417002
 21
101.8845904753667
 31
0.0
  0
LINE
  5
D75
102
{ACAD_REACTORS
330
D6B
102
}
330
18
100
AcDbEntity
  8
ROGO
 62
     4
100
AcDbLine
 10
97.42961979373255
 20
99.91263908115781
 30
0.0
 11
99.12808748844637
 21
99.91263908115781
 31
0.0
  0
LINE
  5
D76
102
{ACAD_REACTORS
330
D45
102
}
330
18
100
AcDbEntity
  8
ROGO
 62
     4
100
AcDbLine
 10
91.78277161452641
 20
101.8845904753667
 30
0.0
 11
93.757563343837
 21
101.8845904753667
 31
0.0
  0
LINE
  5
D77
102
{ACAD_REACTORS
330
D45
102
}
330
18
100
AcDbEntity
  8
ROGO
 62
     4
100
AcDbLine
 10
93.14012422650639
 20
100.646325082103
 30
0.0
 11
92.77428469058319
 21
99.91263908115781
 31
0.0
  0
SPLINE
  5
D78
102
{ACAD_REACTORS
330
D45
102
}
330
18
100
AcDbEntity
  8
ROGO
 62
     4
100
AcDbSpline
210
0.0
220
0.0
230
1.0
 70
     8
 71
     3
 72
    16
 73
    12
 74
    10
 42
0.0000000001
 43
0.0000000001
 44
0.0000000001
 40
0.0
 40
0.0
 40
0.0
 40
0.0
 40
0.1885997160370706
 40
0.2807170765361561
 40
0.3261430539897483
 40
0.3740146369044227
 40
0.4425666067275637
 40
0.5049865894521549
 40
0.5700891772091865
 40
0.67923836975478
 40
0.7872732608781572
 40
0.7872732608781572
 40
0.7872732608781572
 40
0.7872732608781572
 10
92.15767151111881
 20
101.1508967048049
 30
0.0
 10
92.09380309397833
 20
101.141159533733
 30
0.0
 10
91.99873956090732
 20
101.1266664567843
 30
0.0
 10
91.91277354402576
 20
101.0586167036306
 30
0.0
 10
91.86429467925723
 20
101.0181316301368
 30
0.0
 10
91.84780195348286
 20
100.9645179005589
 30
0.0
 10
91.80350767126938
 20
100.9233507863111
 30
0.0
 10
91.76699658351173
 20
100.8667739200328
 30
0.0
 10
91.75827856338623
 20
100.7890646777929
 30
0.0
 10
91.76467778975895
 20
100.680011599257
 30
0.0
 10
91.84113948408258
 20
100.6575154476571
 30
0.0
 10
91.87917418110922
 20
100.646325082103
 30
0.0
 11
92.15767151111881
 21
101.1508967048049
 31
0.0
 11
91.97557736362048
 21
101.1017889219582
 31
0.0
 11
91.90059738430184
 21
101.0482762056498
 31
0.0
 11
91.86846319544079
 21
101.0161683665158
 31
0.0
 11
91.84703999224806
 21
100.9733579143374
 31
0.0
 11
91.80419420179058
 21
100.919845198029
 31
0.0
 11
91.77206001292942
 21
100.8663321328059
 31
0.0
 11
91.76134841133309
 21
100.8021168034529
 31
0.0
 11
91.78277161452584
 21
100.6950906730066
 31
0.0
 11
91.87917418110922
 21
100.646325082103
 31
0.0
  0
LINE
  5
D79
102
{ACAD_REACTORS
330
D45
102
}
330
18
100
AcDbEntity
  8
ROGO
 62
     4
100
AcDbLine
 10
91.87917418110922
 20
100.646325082103
 30
0.0
 11
93.14012422650639
 21
100.646325082103
 31
0.0
  0
LINE
  5
D7A
102
{ACAD_REACTORS
330
D45
102
}
330
18
100
AcDbEntity
  8
ROGO
 62
     4
100
AcDbLine
 10
92.15767151111881
 20
101.1508967048049
 30
0.0
 11
93.39171993373193
 21
101.1508967048049
 31
0.0
  0
LINE
  5
D7B
102
{ACAD_REACTORS
330
D45
102
}
330
18
100
AcDbEntity
  8
ROGO
 62
     4
100
AcDbLine
 10
93.757563343837
 20
101.8845904753667
 30
0.0
 11
93.39171993373193
 21
101.1508967048049
 31
0.0
  0
LINE
  5
D7C
102
{ACAD_REACTORS
330
D37
102
}
330
18
100
AcDbEntity
  8
ROGO
 62
     4
100
AcDbLine
 10
100.9254029809977
 20
98.80328152272495
 30
0.0
 11
102.0607900464014
 21
98.80328152272495
 31
0.0
  0
LINE
  5
D7D
102
{ACAD_REACTORS
330
D37
102
}
330
18
100
AcDbEntity
  8
ROGO
 62
     4
100
AcDbLine
 10
102.023660527091
 20
101.8845904753667
 30
0.0
 11
103.1590475924949
 21
101.8845904753667
 31
0.0
  0
LINE
  5
D7E
102
{ACAD_REACTORS
330
D37
102
}
330
18
100
AcDbEntity
  8
ROGO
 62
     4
100
AcDbLine
 10
101.2925699660003
 20
100.3439359990457
 30
0.0
 11
103.1590475924949
 21
101.8845904753667
 31
0.0
  0
LINE
  5
D7F
102
{ACAD_REACTORS
330
D37
102
}
330
18
100
AcDbEntity
  8
ROGO
 62
     4
100
AcDbLine
 10
101.2925699660003
 20
100.3439359990457
 30
0.0
 11
102.0607900464014
 21
98.80328152272495
 31
0.0
  0
LINE
  5
D80
102
{ACAD_REACTORS
330
D37
102
}
330
18
100
AcDbEntity
  8
ROGO
 62
     4
100
AcDbLine
 10
101.4920386348684
 20
101.5481742405084
 30
0.0
 11
102.023660527091
 21
101.8845904753667
 31
0.0
  0
LINE
  5
D81
102
{ACAD_REACTORS
330
D37
102
}
330
18
100
AcDbEntity
  8
ROGO
 62
     4
100
AcDbLine
 10
101.6597866348017
 20
101.8845904753667
 30
0.0
 11
101.4920386348684
 21
101.5481742405084
 31
0.0
  0
TEXT
  5
D82
330
18
100
AcDbEntity
  8
文字
100
AcDbText
 10
72.72426489857153
 20
110.325375771229
 30
0.0
 40
2.0
  1
0.001mm
  7
STYLE3
100
AcDbText
  0
HATCH
  5
D83
330
18
100
AcDbEntity
  8
外形線
100
AcDbHatch
 10
0.0
 20
0.0
 30
0.0
210
0.0
220
0.0
230
1.0
  2
SOLID
 70
     1
 71
     0
 91
        2
 92
        1
 93
        7
 72
     1
 10
77.30306625354788
 20
115.2979562400541
 11
74.9697329202144
 21
114.4486923600996
 72
     1
 10
74.9697329202144
 20
114.4486923600997
 11
74.96973292021451
 21
115.1187895733874
 72
     1
 10
74.96973292021462
 20
115.1187895733874
 11
72.96973292021451
 21
115.1187895733874
 72
     1
 10
72.9697329202144
 20
115.1187895733874
 11
72.9697329202144
 21
115.4771229067208
 72
     1
 10
72.9697329202144
 20
115.4771229067207
 11
74.9697329202144
 21
115.4771229067207
 72
     1
 10
74.9697329202144
 20
115.4771229067207
 11
74.9697329202144
 21
116.1472201200086
 72
     1
 10
74.9697329202144
 20
116.1472201200086
 11
77.30306625354788
 21
115.2979562400542
 97
        0
 92
        1
 93
        4
 72
     1
 10
77.30306625354788
 20
116.797956240054
 11
77.30306625354788
 21
113.797956240054
 72
     1
 10
77.30306625354788
 20
113.7979562400541
 11
77.63639958688114
 21
113.7979562400541
 72
     1
 10
77.63639958688114
 20
113.7979562400541
 11
77.63639958688114
 21
116.797956240054
 72
     1
 10
77.63639958688114
 20
116.797956240054
 11
77.30306625354788
 21
116.797956240054
 97
        0
 75
     0
 76
     1
 98
        1
 10
261.9621796665084
 20
-22.02634537430794
450
        0
451
        0
460
0.0
461
0.0
452
        0
462
0.0
453
        0
470

  0
LINE
  5
D84
330
18
100
AcDbEntity
  8
外形線
100
AcDbLine
 10
77.63639958688114
 20
116.797956240054
 30
0.0
 11
77.63639958688114
 21
113.7979562400541
 31
0.0
  0
LINE
  5
D85
330
18
100
AcDbEntity
  8
外形線
100
AcDbLine
 10
77.30306625354788
 20
116.797956240054
 30
0.0
 11
77.30306625354788
 21
113.7979562400541
 31
0.0
  0
LINE
  5
D86
330
18
100
AcDbEntity
  8
外形線
100
AcDbLine
 10
77.30306625354788
 20
115.2979562400541
 30
0.0
 11
74.9697329202144
 21
116.1472201200086
 31
0.0
  0
LINE
  5
D87
330
18
100
AcDbEntity
  8
外形線
100
AcDbLine
 10
72.9697329202144
 20
115.4771229067207
 30
0.0
 11
72.9697329202144
 21
115.1187895733874
 31
0.0
  0
LINE
  5
D88
330
18
100
AcDbEntity
  8
外形線
100
AcDbLine
 10
77.30306625354788
 20
115.2979562400541
 30
0.0
 11
74.9697329202144
 21
114.4486923600996
 31
0.0
  0
POINT
  5
D89
330
18
100
AcDbEntity
  8
DEFPOINTS
  6
ByBlock
 62
     0
100
AcDbPoint
 10
74.9697329202144
 20
114.4486923600996
 30
0.0
  0
POINT
  5
D8A
330
18
100
AcDbEntity
  8
DEFPOINTS
  6
ByBlock
 62
     0
100
AcDbPoint
 10
74.9697329202144
 20
114.4486923600996
 30
0.0
  0
LINE
  5
D8B
330
18
100
AcDbEntity
  8
外形線
100
AcDbLine
 10
74.96973292021462
 20
115.1187895733874
 30
0.0
 11
74.9697329202144
 21
114.4486923600997
 31
0.0
  0
LINE
  5
D8C
330
18
100
AcDbEntity
  8
外形線
100
AcDbLine
 10
72.9697329202144
 20
115.1187895733874
 30
0.0
 11
74.96973292021462
 21
115.1187895733874
 31
0.0
  0
LINE
  5
D8D
330
18
100
AcDbEntity
  8
外形線
100
AcDbLine
 10
77.63639958688114
 20
113.7979562400541
 30
0.0
 11
77.30306625354788
 21
113.7979562400541
 31
0.0
  0
POINT
  5
D8E
330
18
100
AcDbEntity
  8
DEFPOINTS
  6
ByBlock
 62
     0
100
AcDbPoint
 10
77.30306625354788
 20
113.7979562400541
 30
0.0
  0
POINT
  5
D8F
330
18
100
AcDbEntity
  8
DEFPOINTS
  6
ByBlock
 62
     0
100
AcDbPoint
 10
77.63639958688114
 20
113.7979562400541
 30
0.0
  0
POINT
  5
D90
330
18
100
AcDbEntity
  8
DEFPOINTS
  6
ByBlock
 62
     0
100
AcDbPoint
 10
77.30306625354788
 20
113.7979562400541
 30
0.0
  0
POINT
  5
D91
330
18
100
AcDbEntity
  8
DEFPOINTS
  6
ByBlock
 62
     0
100
AcDbPoint
 10
77.63639958688114
 20
113.7979562400541
 30
0.0
  0
LINE
  5
D92
330
18
100
AcDbEntity
  8
外形線
100
AcDbLine
 10
74.9697329202144
 20
116.1472201200086
 30
0.0
 11
74.9697329202144
 21
115.4771229067207
 31
0.0
  0
LINE
  5
D93
330
18
100
AcDbEntity
  8
外形線
100
AcDbLine
 10
72.9697329202144
 20
115.4771229067207
 30
0.0
 11
74.9697329202144
 21
115.4771229067207
 31
0.0
  0
HATCH
  5
D94
330
18
100
AcDbEntity
  8
外形線
100
AcDbHatch
 10
0.0
 20
0.0
 30
0.0
210
0.0
220
0.0
230
1.0
  2
SOLID
 70
     1
 71
     0
 91
        2
 92
        1
 93
        7
 72
     1
 10
79.63639958688114
 20
115.2979562400541
 11
81.96973292021452
 21
114.4486923600996
 72
     1
 10
81.96973292021439
 20
114.4486923600997
 11
81.96973292021439
 21
115.1187895733874
 72
     1
 10
81.96973292021439
 20
115.1187895733874
 11
83.9697329202144
 21
115.1187895733874
 72
     1
 10
83.9697329202144
 20
115.1187895733874
 11
83.9697329202144
 21
115.4771229067208
 72
     1
 10
83.9697329202144
 20
115.4771229067207
 11
81.96973292021429
 21
115.4771229067207
 72
     1
 10
81.96973292021439
 20
115.4771229067207
 11
81.96973292021439
 21
116.1472201200086
 72
     1
 10
81.96973292021439
 20
116.1472201200086
 11
79.63639958688102
 21
115.2979562400542
 97
        0
 92
        1
 93
        4
 72
     1
 10
79.63639958688114
 20
116.797956240054
 11
79.63639958688114
 21
113.797956240054
 72
     1
 10
79.63639958688114
 20
113.7979562400541
 11
79.30306625354777
 21
113.7979562400541
 72
     1
 10
79.30306625354766
 20
113.7979562400541
 11
79.30306625354766
 21
116.797956240054
 72
     1
 10
79.30306625354766
 20
116.797956240054
 11
79.63639958688102
 21
116.797956240054
 97
        0
 75
     0
 76
     1
 98
        1
 10
-105.0227138260796
 20
-22.02634537430794
450
        0
451
        0
460
0.0
461
0.0
452
        0
462
0.0
453
        0
470

  0
LINE
  5
D95
330
18
100
AcDbEntity
  8
外形線
100
AcDbLine
 10
83.9697329202144
 20
115.4771229067207
 30
0.0
 11
83.9697329202144
 21
115.1187895733874
 31
0.0
  0
LINE
  5
D96
330
18
100
AcDbEntity
  8
外形線
100
AcDbLine
 10
79.63639958688114
 20
115.2979562400541
 30
0.0
 11
81.96973292021439
 21
116.1472201200086
 31
0.0
  0
LINE
  5
D97
330
18
100
AcDbEntity
  8
外形線
100
AcDbLine
 10
79.63639958688114
 20
116.797956240054
 30
0.0
 11
79.63639958688114
 21
113.7979562400541
 31
0.0
  0
LINE
  5
D98
330
18
100
AcDbEntity
  8
外形線
100
AcDbLine
 10
79.30306625354766
 20
116.797956240054
 30
0.0
 11
79.30306625354766
 21
113.7979562400541
 31
0.0
  0
LINE
  5
D99
330
18
100
AcDbEntity
  8
外形線
100
AcDbLine
 10
83.9697329202144
 20
115.1187895733874
 30
0.0
 11
81.96973292021439
 21
115.1187895733874
 31
0.0
  0
LINE
  5
D9A
330
18
100
AcDbEntity
  8
外形線
100
AcDbLine
 10
81.96973292021439
 20
115.1187895733874
 30
0.0
 11
81.96973292021439
 21
114.4486923600997
 31
0.0
  0
POINT
  5
D9B
330
18
100
AcDbEntity
  8
DEFPOINTS
  6
ByBlock
 62
     0
100
AcDbPoint
 10
79.30306625354766
 20
113.7979562400541
 30
0.0
  0
POINT
  5
D9C
330
18
100
AcDbEntity
  8
DEFPOINTS
  6
ByBlock
 62
     0
100
AcDbPoint
 10
79.63639958688114
 20
113.7979562400541
 30
0.0
  0
POINT
  5
D9D
330
18
100
AcDbEntity
  8
DEFPOINTS
  6
ByBlock
 62
     0
100
AcDbPoint
 10
79.30306625354766
 20
113.7979562400541
 30
0.0
  0
POINT
  5
D9E
330
18
100
AcDbEntity
  8
DEFPOINTS
  6
ByBlock
 62
     0
100
AcDbPoint
 10
81.96973292021439
 20
114.4486923600996
 30
0.0
  0
POINT
  5
D9F
330
18
100
AcDbEntity
  8
DEFPOINTS
  6
ByBlock
 62
     0
100
AcDbPoint
 10
79.63639958688114
 20
113.7979562400541
 30
0.0
  0
POINT
  5
DA0
330
18
100
AcDbEntity
  8
DEFPOINTS
  6
ByBlock
 62
     0
100
AcDbPoint
 10
81.96973292021439
 20
114.4486923600996
 30
0.0
  0
LINE
  5
DA1
330
18
100
AcDbEntity
  8
外形線
100
AcDbLine
 10
79.63639958688114
 20
115.2979562400541
 30
0.0
 11
81.96973292021439
 21
114.4486923600996
 31
0.0
  0
LINE
  5
DA2
330
18
100
AcDbEntity
  8
外形線
100
AcDbLine
 10
79.30306625354766
 20
113.7979562400541
 30
0.0
 11
79.63639958688114
 21
113.7979562400541
 31
0.0
  0
LINE
  5
DA3
330
18
100
AcDbEntity
  8
外形線
100
AcDbLine
 10
83.9697329202144
 20
115.4771229067207
 30
0.0
 11
81.96973292021439
 21
115.4771229067207
 31
0.0
  0
LINE
  5
DA4
330
18
100
AcDbEntity
  8
外形線
100
AcDbLine
 10
81.96973292021439
 20
116.1472201200086
 30
0.0
 11
81.96973292021439
 21
115.4771229067207
 31
0.0
  0
LINE
  5
DA8
330
18
100
AcDbEntity
  8
目盛
100
AcDbLine
 10
96.94468375183877
 20
115.9179562400541
 30
0.0
 11
96.94468375183877
 21
114.7179562400541
 31
0.0
  0
ARC
  5
DA9
330
18
100
AcDbEntity
  8
外形線
100
AcDbCircle
 10
96.94468375183877
 20
125.7179562400541
 30
0.0
 40
11.0
100
AcDbArc
 50
270.0
 51
321.4300000000001
  0
TEXT
  5
DAA
330
18
100
AcDbEntity
  8
文字
100
AcDbText
 10
105.5619388118519
 20
117.1697941109178
 30
0.0
 40
1.6
  1
0
  7
STYLE3
100
AcDbText
  0
TEXT
  5
DAB
330
18
100
AcDbEntity
  8
文字
100
AcDbText
 10
107.4639112819084
 20
115.6073683619488
 30
0.0
 40
1.6
  1
1
  7
STYLE3
100
AcDbText
  0
TEXT
  5
DAC
330
18
100
AcDbEntity
  8
文字
100
AcDbText
 10
96.10508799685195
 20
112.6724134440198
 30
0.0
 40
1.6
  1
1
  7
STYLE3
100
AcDbText
  0
TEXT
  5
DAD
330
18
100
AcDbEntity
  8
文字
100
AcDbText
 10
96.10508799685195
 20
110.3414047174463
 30
0.0
 40
1.6
  1
0
  7
STYLE3
100
AcDbText
  0
POINT
  5
DAE
330
18
100
AcDbEntity
  8
目盛
  6
ByBlock
100
AcDbPoint
 10
96.94468375183877
 20
115.9179562400541
 30
0.0
  0
POINT
  5
DAF
330
18
100
AcDbEntity
  8
DEFPOINTS
  6
ByBlock
 62
     0
100
AcDbPoint
 10
105.5450010583836
 20
118.8597828515531
 30
0.0
  0
POINT
  5
DB0
330
18
100
AcDbEntity
  8
目盛
  6
ByBlock
100
AcDbPoint
 10
96.94468375183877
 20
114.7179562400541
 30
0.0
  0
LINE
  5
DB2
330
18
100
AcDbEntity
  8
目盛
100
AcDbLine
 10
104.6372939874862
 20
119.6464039045791
 30
0.0
 11
105.5792462612388
 21
118.9029485165618
 31
0.0
  0
LINE
  5
DB3
330
18
100
AcDbEntity
  8
目盛
100
AcDbLine
 10
103.4221522057502
 20
118.3638823739184
 30
0.0
 11
104.2153116082701
 21
117.463383533167
 31
0.0
  0
LINE
  5
DB4
330
18
100
AcDbEntity
  8
目盛
100
AcDbLine
 10
101.9964838621225
 20
117.3203782769902
 30
0.0
 11
102.6150716307287
 21
116.2921034243701
 31
0.0
  0
LINE
  5
DB5
330
18
100
AcDbEntity
  8
目盛
100
AcDbLine
 10
100.4066251227945
 20
116.549806920586
 30
0.0
 11
100.8305363110748
 21
115.4271763916715
 31
0.0
  0
LINE
  5
DB6
330
18
100
AcDbEntity
  8
目盛
100
AcDbLine
 10
98.70424856582147
 20
116.0772129250709
 30
0.0
 11
98.9197054818193
 21
114.8967137436444
 31
0.0
  0
LINE
  5
DB7
330
18
100
AcDbEntity
  8
目盛
100
AcDbLine
 10
96.94468375183877
 20
115.9179562400541
 30
0.0
 11
96.94468375183877
 21
114.7179562400541
 31
0.0
  0
POINT
  5
DB8
330
18
100
AcDbEntity
  8
DEFPOINTS
  6
ByBlock
 62
     0
100
AcDbPoint
 10
104.6372939874862
 20
119.6464039045791
 30
0.0
  0
POINT
  5
DB9
330
18
100
AcDbEntity
  8
DEFPOINTS
  6
ByBlock
 62
     0
100
AcDbPoint
 10
105.5792462612388
 20
118.9029485165618
 30
0.0
  0
LINE
  5
DBA
330
18
100
AcDbEntity
  8
外形線
100
AcDbLine
 10
77.30306625354788
 20
116.797956240054
 30
0.0
 11
77.63639958688114
 21
116.7979562400541
 31
0.0
  0
LINE
  5
DBB
330
18
100
AcDbEntity
  8
外形線
100
AcDbLine
 10
79.30306625354766
 20
116.7979562400541
 30
0.0
 11
79.63639958688114
 21
116.797956240054
 31
0.0
  0
ARC
  5
DC8
330
18
100
AcDbEntity
  8
外形線
100
AcDbCircle
 10
91.26595149894994
 20
157.3979562400541
 30
0.0
 40
16.0
100
AcDbArc
 50
59.99999999999988
 51
120.0000000000001
  0
LINE
  5
DC9
330
18
100
AcDbEntity
  8
外形線
100
AcDbLine
 10
191.6647048106736
 20
171.2543627006051
 30
0.0
 11
191.6647048106735
 21
149.3979562400541
 31
0.0
  0
LINE
  5
DCA
330
18
100
AcDbEntity
  8
外形線
100
AcDbLine
 10
175.6647048106736
 20
171.2543627006051
 30
0.0
 11
175.6647048106736
 21
149.3979562400541
 31
0.0
  0
LINE
  5
DCB
330
18
100
AcDbEntity
  8
外形線
100
AcDbLine
 10
175.6647048106736
 20
171.2543627006051
 30
0.0
 11
191.6647048106736
 21
171.2543627006051
 31
0.0
  0
ARC
  5
DCC
330
18
100
AcDbEntity
  8
外形線
100
AcDbCircle
 10
183.6647048106736
 20
157.3979562400541
 30
0.0
 40
16.0
100
AcDbArc
 50
59.99999999999988
 51
120.0000000000001
  0
LINE
  5
DD7
330
18
100
AcDbEntity
  8
針
100
AcDbLine
 10
71.98659522375677
 20
138.9337136555524
 30
0.0
 11
72.09176743302555
 21
139.0101257383504
 31
0.0
  0
LINE
  5
DD9
330
18
100
AcDbEntity
  8
針
100
AcDbLine
 10
89.13435044889428
 20
116.1737286514446
 30
0.0
 11
72.09176743302553
 21
139.0101257383504
 31
0.0
  0
CIRCLE
  5
DDC
330
18
100
AcDbEntity
  8
針
100
AcDbCircle
 10
91.26595149894994
 20
112.3979562400541
 30
0.0
 40
0.75
  0
CIRCLE
  5
DDD
330
18
100
AcDbEntity
  8
針
100
AcDbCircle
 10
91.26595149894994
 20
112.3979562400541
 30
0.0
 40
3.0
  0
ARC
  5
DDE
330
18
100
AcDbEntity
  8
針
100
AcDbCircle
 10
90.73720000054663
 20
117.36991982127
 30
0.0
 40
2.0
100
AcDbArc
 50
216.7336253748568
 51
276.0703962457774
  0
CIRCLE
  5
DDF
330
18
100
AcDbEntity
  8
針
100
AcDbCircle
 10
91.26595149894994
 20
112.3979562400541
 30
0.0
 40
2.599999999999999
  0
ARC
  5
DE0
330
18
100
AcDbEntity
  8
針
100
AcDbCircle
 10
86.70072633506027
 20
114.4372500401205
 30
0.0
 40
2.0
100
AcDbArc
 50
335.9296037542226
 51
35.26637462514325
  0
LINE
  5
DE1
330
18
100
AcDbEntity
  8
針
100
AcDbLine
 10
88.33367949274421
 20
115.5920071508628
 30
0.0
 11
71.88142301448803
 21
138.8573015727544
 31
0.0
  0
LINE
  5
DE2
330
18
100
AcDbEntity
  8
針
100
AcDbLine
 10
71.98659522375677
 20
138.9337136555524
 30
0.0
 11
71.88142301448806
 21
138.8573015727544
 31
0.0
  0
HATCH
  5
DEC
330
18
100
AcDbEntity
  8
針
100
AcDbHatch
 10
0.0
 20
0.0
 30
0.0
210
0.0
220
0.0
230
1.0
  2
SOLID
 70
     1
 71
     0
 91
        1
 92
        7
 72
     1
 73
     1
 93
        7
 10
72.09176743302553
 20
139.0101257383504
 42
0.0
 10
71.98659522375677
 20
138.9337136555524
 42
0.0
 10
71.88142301448805
 20
138.8573015727544
 42
0.0
 10
88.33367949274421
 20
115.5920071508628
 42
-0.264849932537075
 10
88.52681640061616
 20
113.6215325200939
 42
-0.267290871161273
 10
90.94870059990796
 20
115.3811343887836
 42
-0.264849932537075
 10
89.13435044889434
 20
116.1737286514446
 42
0.0
 97
        0
 75
     0
 76
     1
 47
0.0335067966205447
 98
        1
 10
84.23883943559392
 20
122.4476609615452
450
        0
451
        0
460
0.0
461
0.0
452
        0
462
0.0
453
        0
470

  0
LINE
  5
F0D
330
18
100
AcDbEntity
  8
外形線
100
AcDbLine
 10
193.8647048106737
 20
148.1979562400541
 30
0.0
 11
196.7647048106736
 21
148.1979562400541
 31
0.0
  0
LINE
  5
F0E
330
18
100
AcDbEntity
  8
外形線
100
AcDbLine
 10
193.8647048106737
 20
76.59795624005417
 30
0.0
 11
196.7647048106736
 21
76.59795624005417
 31
0.0
  0
LINE
  5
F83
330
18
100
AcDbEntity
  8
0
  6
ByBlock
 62
     2
100
AcDbLine
 10
91.26595149894994
 20
173.3979562400541
 30
0.0
 11
44.72482262837357
 21
173.3979562400541
 31
0.0
  0
LINE
  5
F84
330
18
100
AcDbEntity
  8
0
  6
ByBlock
 62
     2
100
AcDbLine
 10
50.46595149894992
 20
112.3979562400541
 30
0.0
 11
44.72482262837357
 21
112.3979562400541
 31
0.0
  0
LINE
  5
F85
330
18
100
AcDbEntity
  8
0
  6
ByBlock
 62
     2
100
AcDbLine
 10
45.97482262837357
 20
170.8979562400541
 30
0.0
 11
45.97482262837357
 21
114.8979562400541
 31
0.0
  0
INSERT
  5
F86
330
18
100
AcDbEntity
  8
0
  6
ByBlock
 62
     2
100
AcDbBlockReference
  2
_OPEN
 10
45.97482262837357
 20
173.3979562400541
 30
0.0
 41
2.5
 42
2.5
 43
2.5
 50
90.0
  0
INSERT
  5
F87
330
18
100
AcDbEntity
  8
0
  6
ByBlock
 62
     2
100
AcDbBlockReference
  2
_OPEN
 10
45.97482262837357
 20
112.3979562400541
 30
0.0
 41
2.5
 42
2.5
 43
2.5
 50
270.0
  0
MTEXT
  5
F88
330
18
100
AcDbEntity
  8
0
  6
ByBlock
 62
     6
100
AcDbMText
 10
44.09982262837357
 20
142.8979562400541
 30
0.0
 40
2.5
 41
0.0
 71
     5
 72
     1
  1
\A1;30.5
  7
STYLE3
 11
0.0000000000000001
 21
1.0
 31
0.0
 73
     1
 44
1.0
  0
POINT
  5
F89
330
18
100
AcDbEntity
  8
DEFPOINTS
  6
ByBlock
 62
     0
100
AcDbPoint
 10
91.26595149894994
 20
173.3979562400541
 30
0.0
  0
POINT
  5
F8A
330
18
100
AcDbEntity
  8
DEFPOINTS
  6
ByBlock
 62
     0
100
AcDbPoint
 10
50.46595149894992
 20
112.3979562400541
 30
0.0
  0
POINT
  5
F8B
330
18
100
AcDbEntity
  8
DEFPOINTS
  6
ByBlock
 62
     0
100
AcDbPoint
 10
45.97482262837357
 20
112.3979562400541
 30
0.0
  0
LINE
  5
F8C
330
18
100
AcDbEntity
  8
0
  6
ByBlock
 62
     2
100
AcDbLine
 10
56.96595149894992
 20
112.3979562400541
 30
0.0
 11
56.96595149894992
 21
180.0563498765957
 31
0.0
  0
LINE
  5
F8D
330
18
100
AcDbEntity
  8
0
  6
ByBlock
 62
     2
100
AcDbLine
 10
125.5659514989499
 20
112.3979562400541
 30
0.0
 11
125.5659514989499
 21
180.0563498765957
 31
0.0
  0
LINE
  5
F8E
330
18
100
AcDbEntity
  8
0
  6
ByBlock
 62
     2
100
AcDbLine
 10
59.46595149894992
 20
178.8063498765956
 30
0.0
 11
123.0659514989499
 21
178.8063498765956
 31
0.0
  0
INSERT
  5
F8F
330
18
100
AcDbEntity
  8
0
  6
ByBlock
 62
     2
100
AcDbBlockReference
  2
_OPEN
 10
56.96595149894992
 20
178.8063498765956
 30
0.0
 41
2.5
 42
2.5
 43
2.5
 50
180.0
  0
INSERT
  5
F90
330
18
100
AcDbEntity
  8
0
  6
ByBlock
 62
     2
100
AcDbBlockReference
  2
_OPEN
 10
125.5659514989499
 20
178.8063498765956
 30
0.0
 41
2.5
 42
2.5
 43
2.5
  0
MTEXT
  5
F91
330
18
100
AcDbEntity
  8
0
  6
ByBlock
 62
     6
100
AcDbMText
 10
91.26595149894994
 20
180.6813498765956
 30
0.0
 40
2.5
 41
0.0
 71
     5
 72
     1
  1
\A1;φ34.3
  7
STYLE3
 73
     1
 44
1.0
  0
POINT
  5
F92
330
18
100
AcDbEntity
  8
DEFPOINTS
  6
ByBlock
 62
     0
100
AcDbPoint
 10
56.96595149894992
 20
112.3979562400541
 30
0.0
  0
POINT
  5
F93
330
18
100
AcDbEntity
  8
DEFPOINTS
  6
ByBlock
 62
     0
100
AcDbPoint
 10
125.5659514989499
 20
112.3979562400541
 30
0.0
  0
POINT
  5
F94
330
18
100
AcDbEntity
  8
DEFPOINTS
  6
ByBlock
 62
     0
100
AcDbPoint
 10
125.5659514989499
 20
178.8063498765956
 30
0.0
  0
LINE
  5
F95
330
18
100
AcDbEntity
  8
0
  6
ByBlock
 62
     2
100
AcDbLine
 10
91.26595149894994
 20
25.99795624005415
 30
0.0
 11
44.72482262837357
 21
25.99795624005415
 31
0.0
  0
LINE
  5
F96
330
18
100
AcDbEntity
  8
0
  6
ByBlock
 62
     2
100
AcDbLine
 10
45.97482262837357
 20
109.8979562400541
 30
0.0
 11
45.97482262837357
 21
28.49795624005415
 31
0.0
  0
INSERT
  5
F97
330
18
100
AcDbEntity
  8
0
  6
ByBlock
 62
     2
100
AcDbBlockReference
  2
_OPEN
 10
45.97482262837357
 20
112.3979562400541
 30
0.0
 41
2.5
 42
2.5
 43
2.5
 50
90.0
  0
INSERT
  5
F98
330
18
100
AcDbEntity
  8
0
  6
ByBlock
 62
     2
100
AcDbBlockReference
  2
_OPEN
 10
45.97482262837357
 20
25.99795624005415
 30
0.0
 41
2.5
 42
2.5
 43
2.5
 50
270.0
  0
MTEXT
  5
F99
330
18
100
AcDbEntity
  8
0
  6
ByBlock
 62
     6
100
AcDbMText
 10
44.09982262837357
 20
69.19795624005416
 30
0.0
 40
2.5
 41
0.0
 71
     5
 72
     1
  1
\A1;43.2
  7
STYLE3
 11
0.0000000000000001
 21
1.0
 31
0.0
 73
     1
 44
1.0
  0
POINT
  5
F9A
330
18
100
AcDbEntity
  8
DEFPOINTS
  6
ByBlock
 62
     0
100
AcDbPoint
 10
50.46595149894992
 20
112.3979562400541
 30
0.0
  0
POINT
  5
F9B
330
18
100
AcDbEntity
  8
DEFPOINTS
  6
ByBlock
 62
     0
100
AcDbPoint
 10
91.26595149894994
 20
25.99795624005415
 30
0.0
  0
POINT
  5
F9C
330
18
100
AcDbEntity
  8
DEFPOINTS
  6
ByBlock
 62
     0
100
AcDbPoint
 10
45.97482262837357
 20
25.99795624005415
 30
0.0
  0
LINE
  5
F9D
330
18
100
AcDbEntity
  8
0
  6
ByBlock
 62
     2
100
AcDbLine
 10
83.26595149894993
 20
60.95623387529309
 30
0.0
 11
83.26595149894993
 21
58.00844471224576
 31
0.0
  0
LINE
  5
F9E
330
18
100
AcDbEntity
  8
0
  6
ByBlock
 62
     2
100
AcDbLine
 10
99.26595149894993
 20
62.0173526708864
 30
0.0
 11
99.26595149894993
 21
58.00844471224576
 31
0.0
  0
LINE
  5
F9F
330
18
100
AcDbEntity
  8
0
  6
ByBlock
 62
     2
100
AcDbLine
 10
85.76595149894993
 20
59.25844471224576
 30
0.0
 11
96.76595149894993
 21
59.25844471224576
 31
0.0
  0
INSERT
  5
FA0
330
18
100
AcDbEntity
  8
0
  6
ByBlock
 62
     2
100
AcDbBlockReference
  2
_OPEN
 10
83.26595149894993
 20
59.25844471224576
 30
0.0
 41
2.5
 42
2.5
 43
2.5
 50
180.0
  0
INSERT
  5
FA1
330
18
100
AcDbEntity
  8
0
  6
ByBlock
 62
     2
100
AcDbBlockReference
  2
_OPEN
 10
99.26595149894993
 20
59.25844471224576
 30
0.0
 41
2.5
 42
2.5
 43
2.5
  0
MTEXT
  5
FA2
330
18
100
AcDbEntity
  8
0
  6
ByBlock
 62
     6
100
AcDbMText
 10
90.35191852916947
 20
61.37103645726682
 30
0.0
 40
2.5
 41
0.0
 71
     5
 72
     1
  1
\A1;φ8.0
  7
STYLE3
 73
     1
 44
1.0
  0
POINT
  5
FA3
330
18
100
AcDbEntity
  8
DEFPOINTS
  6
ByBlock
 62
     0
100
AcDbPoint
 10
83.26595149894993
 20
60.95623387529309
 30
0.0
  0
POINT
  5
FA4
330
18
100
AcDbEntity
  8
DEFPOINTS
  6
ByBlock
 62
     0
100
AcDbPoint
 10
99.26595149894993
 20
62.0173526708864
 30
0.0
  0
POINT
  5
FA5
330
18
100
AcDbEntity
  8
DEFPOINTS
  6
ByBlock
 62
     0
100
AcDbPoint
 10
99.26595149894993
 20
59.25844471224576
 30
0.0
  0
LINE
  5
FA6
330
18
100
AcDbEntity
  8
0
  6
ByBlock
 62
     2
100
AcDbLine
 10
193.8647048106736
 20
149.3979562400541
 30
0.0
 11
211.5217774657811
 21
149.3979562400541
 31
0.0
  0
LINE
  5
FA7
330
18
100
AcDbEntity
  8
0
  6
ByBlock
 62
     2
100
AcDbLine
 10
193.8647048106736
 20
75.39795624005416
 30
0.0
 11
211.5217774657811
 21
75.39795624005416
 31
0.0
  0
LINE
  5
FA8
330
18
100
AcDbEntity
  8
0
  6
ByBlock
 62
     2
100
AcDbLine
 10
210.2717774657811
 20
146.8979562400541
 30
0.0
 11
210.2717774657811
 21
77.89795624005416
 31
0.0
  0
INSERT
  5
FA9
330
18
100
AcDbEntity
  8
0
  6
ByBlock
 62
     2
100
AcDbBlockReference
  2
_OPEN
 10
210.2717774657811
 20
149.3979562400541
 30
0.0
 41
2.5
 42
2.5
 43
2.5
 50
90.0
  0
INSERT
  5
FAA
330
18
100
AcDbEntity
  8
0
  6
ByBlock
 62
     2
100
AcDbBlockReference
  2
_OPEN
 10
210.2717774657811
 20
75.39795624005416
 30
0.0
 41
2.5
 42
2.5
 43
2.5
 50
270.0
  0
MTEXT
  5
FAB
330
18
100
AcDbEntity
  8
0
  6
ByBlock
 62
     6
100
AcDbMText
 10
208.3967774657811
 20
112.3979562400541
 30
0.0
 40
2.5
 41
0.0
 71
     5
 72
     1
  1
\A1;φ37
  7
STYLE3
 11
0.0000000000000001
 21
1.0
 31
0.0
 73
     1
 44
1.0
  0
POINT
  5
FAC
330
18
100
AcDbEntity
  8
DEFPOINTS
  6
ByBlock
 62
     0
100
AcDbPoint
 10
193.8647048106736
 20
149.3979562400541
 30
0.0
  0
POINT
  5
FAD
330
18
100
AcDbEntity
  8
DEFPOINTS
  6
ByBlock
 62
     0
100
AcDbPoint
 10
193.8647048106736
 20
75.39795624005416
 30
0.0
  0
POINT
  5
FAE
330
18
100
AcDbEntity
  8
DEFPOINTS
  6
ByBlock
 62
     0
100
AcDbPoint
 10
210.2717774657811
 20
75.39795624005416
 30
0.0
  0
POINT
  5
FB5
330
18
100
AcDbEntity
  8
DEFPOINTS
  6
ByBlock
 62
     0
100
AcDbPoint
 10
193.8647048106736
 20
149.3979562400541
 30
0.0
  0
LINE
  5
FB7
330
18
100
AcDbEntity
  8
0
  6
ByBlock
 62
     2
100
AcDbLine
 10
158.6647048106736
 20
112.3979562400541
 30
0.0
 11
158.6647048106736
 21
180.0563498765957
 31
0.0
  0
LINE
  5
FB9
330
18
100
AcDbEntity
  8
0
  6
ByBlock
 62
     2
100
AcDbLine
 10
161.1647048106736
 20
178.8063498765956
 30
0.0
 11
181.1647048106736
 21
178.8063498765956
 31
0.0
  0
INSERT
  5
FBA
330
18
100
AcDbEntity
  8
0
  6
ByBlock
 62
     2
100
AcDbBlockReference
  2
_OPEN
 10
158.6647048106736
 20
178.8063498765956
 30
0.0
 41
2.5
 42
2.5
 43
2.5
 50
180.0
  0
INSERT
  5
FBB
330
18
100
AcDbEntity
  8
0
  6
ByBlock
 62
     2
100
AcDbBlockReference
  2
_OPEN
 10
183.6647048106736
 20
178.8063498765956
 30
0.0
 41
2.5
 42
2.5
 43
2.5
  0
MTEXT
  5
FBC
330
18
100
AcDbEntity
  8
0
  6
ByBlock
 62
     6
100
AcDbMText
 10
171.1647048106736
 20
180.6813498765956
 30
0.0
 40
2.5
 41
0.0
 71
     5
 72
     1
  1
\A1;12.5
  7
STYLE3
 73
     1
 44
1.0
  0
POINT
  5
FBD
330
18
100
AcDbEntity
  8
DEFPOINTS
  6
ByBlock
 62
     0
100
AcDbPoint
 10
158.6647048106736
 20
112.3979562400541
 30
0.0
  0
LINE
  5
FC9
330
18
100
AcDbEntity
  8
0
  6
ByBlock
 62
     2
100
AcDbLine
 10
166.0647048106736
 20
153.1979562400542
 30
0.0
 11
150.4155409742589
 21
153.1979562400542
 31
0.0
  0
LINE
  5
FCA
330
18
100
AcDbEntity
  8
0
  6
ByBlock
 62
     2
100
AcDbLine
 10
166.0647048106736
 20
71.59795624005409
 30
0.0
 11
150.4155409742589
 21
71.59795624005409
 31
0.0
  0
LINE
  5
FCB
330
18
100
AcDbEntity
  8
0
  6
ByBlock
 62
     2
100
AcDbLine
 10
151.6655409742589
 20
150.6979562400542
 30
0.0
 11
151.6655409742589
 21
74.09795624005409
 31
0.0
  0
INSERT
  5
FCC
330
18
100
AcDbEntity
  8
0
  6
ByBlock
 62
     2
100
AcDbBlockReference
  2
_OPEN
 10
151.6655409742589
 20
153.1979562400542
 30
0.0
 41
2.5
 42
2.5
 43
2.5
 50
90.0
  0
INSERT
  5
FCD
330
18
100
AcDbEntity
  8
0
  6
ByBlock
 62
     2
100
AcDbBlockReference
  2
_OPEN
 10
151.6655409742589
 20
71.59795624005409
 30
0.0
 41
2.5
 42
2.5
 43
2.5
 50
270.0
  0
MTEXT
  5
FCE
330
18
100
AcDbEntity
  8
0
  6
ByBlock
 62
     6
100
AcDbMText
 10
149.7905409742589
 20
112.3979562400541
 30
0.0
 40
2.5
 41
0.0
 71
     5
 72
     1
  1
\A1;φ40.8
  7
STYLE3
 11
0.0000000000000001
 21
1.0
 31
0.0
 73
     1
 44
1.0
  0
POINT
  5
FCF
330
18
100
AcDbEntity
  8
DEFPOINTS
  6
ByBlock
 62
     0
100
AcDbPoint
 10
166.0647048106736
 20
153.1979562400542
 30
0.0
  0
POINT
  5
FD0
330
18
100
AcDbEntity
  8
DEFPOINTS
  6
ByBlock
 62
     0
100
AcDbPoint
 10
166.0647048106736
 20
71.59795624005409
 30
0.0
  0
POINT
  5
FD1
330
18
100
AcDbEntity
  8
DEFPOINTS
  6
ByBlock
 62
     0
100
AcDbPoint
 10
151.6655409742589
 20
71.59795624005409
 30
0.0
  0
LINE
  5
FD2
330
18
100
AcDbEntity
  8
0
  6
ByBlock
 62
     2
100
AcDbLine
 10
179.1647048106736
 20
40.99795624005415
 30
0.0
 11
150.4155409742589
 21
40.99795624005415
 31
0.0
  0
LINE
  5
FD3
330
18
100
AcDbEntity
  8
0
  6
ByBlock
 62
     2
100
AcDbLine
 10
151.6655409742589
 20
48.29795624005413
 30
0.0
 11
151.6655409742589
 21
50.79795624005413
 31
0.0
  0
LINE
  5
FD4
330
18
100
AcDbEntity
  8
0
  6
ByBlock
 62
     2
100
AcDbLine
 10
151.6655409742589
 20
38.49795624005415
 30
0.0
 11
151.6655409742589
 21
35.99795624005415
 31
0.0
  0
MTEXT
  5
FD5
330
18
100
AcDbEntity
  8
0
  6
ByBlock
 62
     6
100
AcDbMText
 10
148.8562320262367
 20
43.72016052503482
 30
0.0
 40
2.5
 41
0.0
 71
     5
 72
     1
  1
\A1;2.4
  7
STYLE3
 11
0.0000000000000001
 21
1.0
 31
0.0
 73
     1
 44
1.0
  0
LINE
  5
FD6
330
18
100
AcDbEntity
  8
0
  6
ByBlock
 62
     2
100
AcDbLine
 10
151.6655409742589
 20
45.79795624005413
 30
0.0
 11
151.6655409742589
 21
40.99795624005415
 31
0.0
  0
LINE
  5
FD7
330
18
100
AcDbEntity
  8
0
  6
ByBlock
 62
     2
100
AcDbLine
 10
151.6655409742589
 20
45.79795624005413
 30
0.0
 11
151.6655409742589
 21
40.99795624005415
 31
0.0
  0
INSERT
  5
FD8
330
18
100
AcDbEntity
  8
0
  6
ByBlock
 62
     2
100
AcDbBlockReference
  2
_OPEN
 10
151.6655409742589
 20
45.79795624005413
 30
0.0
 41
2.5
 42
2.5
 43
2.5
 50
270.0
  0
INSERT
  5
FD9
330
18
100
AcDbEntity
  8
0
  6
ByBlock
 62
     2
100
AcDbBlockReference
  2
_OPEN
 10
151.6655409742589
 20
40.99795624005415
 30
0.0
 41
2.5
 42
2.5
 43
2.5
 50
90.0
  0
POINT
  5
FDA
330
18
100
AcDbEntity
  8
DEFPOINTS
  6
ByBlock
 62
     0
100
AcDbPoint
 10
176.8647048106736
 20
45.79795624005413
 30
0.0
  0
POINT
  5
FDB
330
18
100
AcDbEntity
  8
DEFPOINTS
  6
ByBlock
 62
     0
100
AcDbPoint
 10
179.1647048106736
 20
40.99795624005415
 30
0.0
  0
POINT
  5
FDC
330
18
100
AcDbEntity
  8
DEFPOINTS
  6
ByBlock
 62
     0
100
AcDbPoint
 10
151.6655409742589
 20
40.99795624005415
 30
0.0
  0
LINE
  5
FDD
330
18
100
AcDbEntity
  8
0
  6
ByBlock
 62
     2
100
AcDbLine
 10
183.5647048106736
 20
25.99795624005415
 30
0.0
 11
150.4155409742589
 21
25.99795624005415
 31
0.0
  0
LINE
  5
FDE
330
18
100
AcDbEntity
  8
0
  6
ByBlock
 62
     2
100
AcDbLine
 10
151.6655409742589
 20
38.49795624005415
 30
0.0
 11
151.6655409742589
 21
28.49795624005415
 31
0.0
  0
INSERT
  5
FDF
330
18
100
AcDbEntity
  8
0
  6
ByBlock
 62
     2
100
AcDbBlockReference
  2
_OPEN
 10
151.6655409742589
 20
40.99795624005415
 30
0.0
 41
2.5
 42
2.5
 43
2.5
 50
90.0
  0
INSERT
  5
FE0
330
18
100
AcDbEntity
  8
0
  6
ByBlock
 62
     2
100
AcDbBlockReference
  2
_OPEN
 10
151.6655409742589
 20
25.99795624005415
 30
0.0
 41
2.5
 42
2.5
 43
2.5
 50
270.0
  0
MTEXT
  5
FE1
330
18
100
AcDbEntity
  8
0
  6
ByBlock
 62
     6
100
AcDbMText
 10
149.7905409742589
 20
33.49795624005415
 30
0.0
 40
2.5
 41
0.0
 71
     5
 72
     1
  1
\A1;7.5
  7
STYLE3
 11
0.0000000000000001
 21
1.0
 31
0.0
 73
     1
 44
1.0
  0
POINT
  5
FE2
330
18
100
AcDbEntity
  8
DEFPOINTS
  6
ByBlock
 62
     0
100
AcDbPoint
 10
179.1647048106736
 20
40.99795624005415
 30
0.0
  0
POINT
  5
FE3
330
18
100
AcDbEntity
  8
DEFPOINTS
  6
ByBlock
 62
     0
100
AcDbPoint
 10
183.6647048106736
 20
25.99795624005415
 30
0.0
  0
POINT
  5
FE4
330
18
100
AcDbEntity
  8
DEFPOINTS
  6
ByBlock
 62
     0
100
AcDbPoint
 10
151.6655409742589
 20
25.99795624005415
 30
0.0
  0
LINE
  5
FE5
330
18
100
AcDbEntity
  8
0
  6
ByBlock
 62
     2
100
AcDbLine
 10
176.8647048106736
 20
45.79795624005413
 30
0.0
 11
150.4155409742589
 21
45.79795624005413
 31
0.0
  0
LINE
  5
FE6
330
18
100
AcDbEntity
  8
0
  6
ByBlock
 62
     2
100
AcDbLine
 10
151.6655409742589
 20
69.09795624005409
 30
0.0
 11
151.6655409742589
 21
48.29795624005413
 31
0.0
  0
INSERT
  5
FE7
330
18
100
AcDbEntity
  8
0
  6
ByBlock
 62
     2
100
AcDbBlockReference
  2
_OPEN
 10
151.6655409742589
 20
71.59795624005409
 30
0.0
 41
2.5
 42
2.5
 43
2.5
 50
90.0
  0
INSERT
  5
FE8
330
18
100
AcDbEntity
  8
0
  6
ByBlock
 62
     2
100
AcDbBlockReference
  2
_OPEN
 10
151.6655409742589
 20
45.79795624005413
 30
0.0
 41
2.5
 42
2.5
 43
2.5
 50
270.0
  0
MTEXT
  5
FE9
330
18
100
AcDbEntity
  8
0
  6
ByBlock
 62
     6
100
AcDbMText
 10
149.7905409742589
 20
58.69795624005411
 30
0.0
 40
2.5
 41
0.0
 71
     5
 72
     1
  1
\A1;12.9
  7
STYLE3
 11
0.0000000000000001
 21
1.0
 31
0.0
 73
     1
 44
1.0
  0
POINT
  5
FEA
330
18
100
AcDbEntity
  8
DEFPOINTS
  6
ByBlock
 62
     0
100
AcDbPoint
 10
166.0647048106736
 20
71.59795624005409
 30
0.0
  0
POINT
  5
FEB
330
18
100
AcDbEntity
  8
DEFPOINTS
  6
ByBlock
 62
     0
100
AcDbPoint
 10
176.8647048106736
 20
45.79795624005413
 30
0.0
  0
POINT
  5
FEC
330
18
100
AcDbEntity
  8
DEFPOINTS
  6
ByBlock
 62
     0
100
AcDbPoint
 10
151.6655409742589
 20
45.79795624005413
 30
0.0
  0
LINE
  5
FED
330
18
100
AcDbEntity
  8
0
  6
ByBlock
 62
     2
100
AcDbLine
 10
179.6647048106736
 20
43.20791171088757
 30
0.0
 11
179.6647048106736
 21
41.64118568912402
 31
0.0
  0
LINE
  5
FEE
330
18
100
AcDbEntity
  8
0
  6
ByBlock
 62
     2
100
AcDbLine
 10
187.6647048106736
 20
43.20791171088757
 30
0.0
 11
187.6647048106736
 21
41.64118568912402
 31
0.0
  0
LINE
  5
FEF
330
18
100
AcDbEntity
  8
0
  6
ByBlock
 62
     2
100
AcDbLine
 10
182.1647048106736
 20
42.89118568912402
 30
0.0
 11
185.1647048106736
 21
42.89118568912402
 31
0.0
  0
LINE
  5
FF0
330
18
100
AcDbEntity
  8
0
  6
ByBlock
 62
     2
100
AcDbLine
 10
187.6647048106736
 20
42.89118568912402
 30
0.0
 11
200.1530631263463
 21
42.89118568912402
 31
0.0
  0
INSERT
  5
FF1
330
18
100
AcDbEntity
  8
0
  6
ByBlock
 62
     2
100
AcDbBlockReference
  2
_OPEN
 10
179.6647048106736
 20
42.89118568912402
 30
0.0
 41
2.5
 42
2.5
 43
2.5
 50
180.0
  0
INSERT
  5
FF2
330
18
100
AcDbEntity
  8
0
  6
ByBlock
 62
     2
100
AcDbBlockReference
  2
_OPEN
 10
187.6647048106736
 20
42.89118568912402
 30
0.0
 41
2.5
 42
2.5
 43
2.5
  0
MTEXT
  5
FF3
330
18
100
AcDbEntity
  8
0
  6
ByBlock
 62
     6
100
AcDbMText
 10
197.2066345549176
 20
44.76618568912402
 30
0.0
 40
2.5
 41
0.0
 71
     5
 72
     1
  1
\A1;φ4
  7
STYLE3
 73
     1
 44
1.0
  0
POINT
  5
FF4
330
18
100
AcDbEntity
  8
DEFPOINTS
  6
ByBlock
 62
     0
100
AcDbPoint
 10
179.6647048106736
 20
43.20791171088757
 30
0.0
  0
POINT
  5
FF5
330
18
100
AcDbEntity
  8
DEFPOINTS
  6
ByBlock
 62
     0
100
AcDbPoint
 10
187.6647048106736
 20
43.20791171088757
 30
0.0
  0
POINT
  5
FF6
330
18
100
AcDbEntity
  8
DEFPOINTS
  6
ByBlock
 62
     0
100
AcDbPoint
 10
187.6647048106736
 20
42.89118568912402
 30
0.0
  0
ARC
  5
108E
330
18
100
AcDbEntity
  8
針
100
AcDbCircle
 10
101.2377692474169
 20
125.4742003629049
 30
0.0
 40
2.0
100
AcDbArc
 50
176.7503084191503
 51
234.072012001345
  0
ARC
  5
108F
330
18
100
AcDbEntity
  8
針
100
AcDbCircle
 10
98.5890431984928
 20
121.7447859680685
 30
0.0
 40
2.0
100
AcDbArc
 50
55.16128889560617
 51
112.4829924778009
  0
CIRCLE
  5
1090
330
18
100
AcDbEntity
  8
針
100
AcDbCircle
 10
96.94468375183877
 20
125.7179562400541
 30
0.0
 40
1.5
  0
LINE
  5
1092
330
18
100
AcDbEntity
  8
針
100
AcDbLine
 10
100.0642332911944
 20
123.8546901408153
 30
0.0
 11
105.876699335347
 21
119.6428378140455
 31
0.0
  0
LINE
  5
1093
330
18
100
AcDbEntity
  8
針
100
AcDbLine
 10
99.73157966956538
 20
123.3863128220277
 30
0.0
 11
105.6230640017182
 21
119.2857184869415
 31
0.0
  0
LINE
  5
1098
330
18
100
AcDbEntity
  8
針
100
AcDbLine
 10
105.876699335347
 20
119.6428378140455
 30
0.0
 11
105.6230640017182
 21
119.2857184869415
 31
0.0
  0
HATCH
  5
10BA
330
18
100
AcDbEntity
  8
針
100
AcDbHatch
 10
0.0
 20
0.0
 30
0.0
210
0.0
220
0.0
230
1.0
  2
SOLID
 70
     1
 71
     0
 91
        3
 92
        7
 72
     1
 73
     1
 93
        6
 10
105.6230640017182
 20
119.2857184869415
 42
0.0
 10
105.876699335347
 20
119.6428378140455
 42
0.0
 10
100.0642332911944
 20
123.8546901408153
 42
-0.2554624148390909
 10
99.24098529598536
 20
125.587575189486
 42
-0.2880080981270571
 10
97.82422485121188
 20
123.592772141085
 42
-0.2554624148391797
 10
99.73157966956591
 20
123.3863128220274
 42
0.0
 97
        0
 92
        7
 72
     1
 73
     1
 93
        2
 10
95.6128819364693
 20
123.8427752022397
 42
1.000000048482644
 10
98.27648556720824
 20
127.5931372778684
 42
1.000000048482644
 97
        0
 92
       22
 72
     1
 73
     1
 93
        2
 10
97.81325015316667
 20
126.9409003951504
 42
-1.0
 10
96.07611735051087
 20
124.4950120849578
 42
-1.0
 97
        0
 75
     0
 76
     1
 47
0.0823034349084208
 98
        3
 10
99.968580317352
 20
123.4089874570508
 10
95.62079382354955
 20
124.6783989525016
 10
95.62079382354955
 20
124.6783989525016
450
        0
451
        0
460
0.0
461
0.0
452
        0
462
0.0
453
        0
470

  0
HATCH
  5
10C1
330
18
100
AcDbEntity
  8
針
100
AcDbHatch
 10
0.0
 20
0.0
 30
0.0
210
0.0
220
0.0
230
1.0
  2
SOLID
 70
     1
 71
     0
 91
        1
 92
        7
 72
     1
 73
     1
 93
        6
 10
105.6230640017182
 20
119.2857184869415
 42
0.0
 10
105.876699335347
 20
119.6428378140455
 42
0.0
 10
100.0642332911944
 20
123.8546901408153
 42
-0.2554624148390909
 10
99.24098529598536
 20
125.587575189486
 42
-0.2880080981270571
 10
97.82422485121188
 20
123.592772141085
 42
-0.2554624148391797
 10
99.73157966956591
 20
123.3863128220274
 42
0.0
 97
        0
 75
     0
 76
     1
 47
0.0823034349084208
 98
        1
 10
101.5313258259661
 20
122.1980573340925
450
        0
451
        0
460
0.0
461
0.0
452
        0
462
0.0
453
        0
470

  0
CIRCLE
  5
10CA
330
18
100
AcDbEntity
  8
外形線
100
AcDbCircle
 10
96.94468375183877
 20
125.7179562400541
 30
0.0
 40
0.5
  0
LINE
  5
1113
330
18
100
AcDbEntity
  8
外形線
100
AcDbLine
 10
196.7647048106736
 20
148.1979562400541
 30
0.0
 11
196.7647048106736
 21
76.59795624005417
 31
0.0
  0
LINE
  5
113F
330
18
100
AcDbEntity
  8
中心線
100
AcDbLine
 10
93.05502839884937
 20
125.7179562400541
 30
0.0
 11
102.7679989442112
 21
125.7179562400541
 31
0.0
  0
LINE
  5
1140
330
18
100
AcDbEntity
  8
中心線
100
AcDbLine
 10
96.94468375183877
 20
130.1381180493843
 30
0.0
 11
96.94468375183877
 21
109.6072144049113
 31
0.0
  0
TEXT
  5
116F
330
18
100
AcDbEntity
  8
文字
100
AcDbText
 10
95.0359209330293
 20
64.27149075239578
 30
0.0
 40
1.0
  1
0
  7
STYLE3
100
AcDbText
  0
TEXT
  5
1170
330
18
100
AcDbEntity
  8
文字
100
AcDbText
 10
93.84537872941193
 20
62.85971255058456
 30
0.0
 40
1.0
  1
-0.03
  7
STYLE3
100
AcDbText
  0
LINE
  5
117D
330
18
100
AcDbEntity
  8
0
  6
ByBlock
 62
     2
100
AcDbLine
 10
44.72482262837357
 20
173.3979562400541
 30
0.0
 11
39.45211066788843
 21
173.3979562400541
 31
0.0
  0
LINE
  5
117E
330
18
100
AcDbEntity
  8
0
  6
ByBlock
 62
     2
100
AcDbLine
 10
44.72482262837357
 20
25.99795624005415
 30
0.0
 11
39.45211066788843
 21
25.99795624005415
 31
0.0
  0
LINE
  5
117F
330
18
100
AcDbEntity
  8
0
  6
ByBlock
 62
     2
100
AcDbLine
 10
40.70211066788845
 20
170.8979562400541
 30
0.0
 11
40.70211066788843
 21
28.49795624005415
 31
0.0
  0
INSERT
  5
1180
330
18
100
AcDbEntity
  8
0
  6
ByBlock
 62
     2
100
AcDbBlockReference
  2
_OPEN
 10
40.70211066788845
 20
173.3979562400541
 30
0.0
 41
2.5
 42
2.5
 43
2.5
 50
90.0
  0
INSERT
  5
1181
330
18
100
AcDbEntity
  8
0
  6
ByBlock
 62
     2
100
AcDbBlockReference
  2
_OPEN
 10
40.70211066788843
 20
25.99795624005415
 30
0.0
 41
2.5
 42
2.5
 43
2.5
 50
270.0
  0
MTEXT
  5
1182
330
18
100
AcDbEntity
  8
0
  6
ByBlock
 62
     6
100
AcDbMText
 10
38.82711066788843
 20
99.69795624005415
 30
0.0
 40
2.5
 41
0.0
 71
     5
 72
     1
  1
\A1;73.7
  7
STYLE3
 11
0.0000000000000001
 21
1.0
 31
0.0
 73
     1
 44
1.0
  0
POINT
  5
1183
330
18
100
AcDbEntity
  8
DEFPOINTS
  6
ByBlock
 62
     0
100
AcDbPoint
 10
44.72482262837357
 20
173.3979562400541
 30
0.0
  0
POINT
  5
1184
330
18
100
AcDbEntity
  8
DEFPOINTS
  6
ByBlock
 62
     0
100
AcDbPoint
 10
44.72482262837357
 20
25.99795624005415
 30
0.0
  0
POINT
  5
1185
330
18
100
AcDbEntity
  8
DEFPOINTS
  6
ByBlock
 62
     0
100
AcDbPoint
 10
40.70211066788843
 20
25.99795624005415
 30
0.0
  0
LINE
  5
1186
330
18
100
AcDbEntity
  8
0
  6
ByBlock
 62
     2
100
AcDbLine
 10
183.5647048106736
 20
60.74822793824506
 30
0.0
 11
183.5647048106736
 21
58.72290898667069
 31
0.0
  0
LINE
  5
1187
330
18
100
AcDbEntity
  8
0
  6
ByBlock
 62
     2
100
AcDbLine
 10
196.7647048106736
 20
76.59795624005417
 30
0.0
 11
196.7647048106736
 21
58.72290898667069
 31
0.0
  0
LINE
  5
1188
330
18
100
AcDbEntity
  8
0
  6
ByBlock
 62
     2
100
AcDbLine
 10
186.0647048106736
 20
59.97290898667069
 30
0.0
 11
194.2647048106736
 21
59.97290898667069
 31
0.0
  0
INSERT
  5
1189
330
18
100
AcDbEntity
  8
0
  6
ByBlock
 62
     2
100
AcDbBlockReference
  2
_OPEN
 10
183.5647048106736
 20
59.97290898667069
 30
0.0
 41
2.5
 42
2.5
 43
2.5
 50
180.0
  0
INSERT
  5
118A
330
18
100
AcDbEntity
  8
0
  6
ByBlock
 62
     2
100
AcDbBlockReference
  2
_OPEN
 10
196.7647048106736
 20
59.97290898667069
 30
0.0
 41
2.5
 42
2.5
 43
2.5
  0
MTEXT
  5
118B
330
18
100
AcDbEntity
  8
0
  6
ByBlock
 62
     6
100
AcDbMText
 10
188.8424867930529
 20
61.84790898667069
 30
0.0
 40
2.5
 41
0.0
 71
     5
 72
     1
  1
\A1;6.6
  7
STYLE3
 73
     1
 44
1.0
  0
POINT
  5
118C
330
18
100
AcDbEntity
  8
DEFPOINTS
  6
ByBlock
 62
     0
100
AcDbPoint
 10
183.5647048106736
 20
60.74822793824506
 30
0.0
  0
POINT
  5
118D
330
18
100
AcDbEntity
  8
DEFPOINTS
  6
ByBlock
 62
     0
100
AcDbPoint
 10
196.7647048106736
 20
76.59795624005417
 30
0.0
  0
POINT
  5
118E
330
18
100
AcDbEntity
  8
DEFPOINTS
  6
ByBlock
 62
     0
100
AcDbPoint
 10
196.7647048106736
 20
59.97290898667069
 30
0.0
  0
LINE
  5
128E
330
18
100
AcDbEntity
  8
外形線
 62
     2
100
AcDbLine
 10
183.5647048106736
 20
176.2842073082462
 30
0.0
 11
183.5647048106736
 21
180.0563498765957
 31
0.0
  0
LINE
  5
128F
330
18
100
AcDbEntity
  8
外形線
 62
     2
100
AcDbLine
 10
193.8647048106736
 20
149.3979562400541
 30
0.0
 11
193.8647048106736
 21
180.0563498765957
 31
0.0
  0
LINE
  5
1290
330
18
100
AcDbEntity
  8
外形線
 62
     2
100
AcDbLine
 10
186.0647048106736
 20
178.8063498765956
 30
0.0
 11
191.3647048106737
 21
178.8063498765956
 31
0.0
  0
INSERT
  5
1291
330
18
100
AcDbEntity
  8
外形線
 62
     2
100
AcDbBlockReference
  2
_OPEN
 10
183.5647048106736
 20
178.8063498765956
 30
0.0
 41
2.5
 42
2.5
 43
2.5
 50
180.0
  0
INSERT
  5
1292
330
18
100
AcDbEntity
  8
外形線
 62
     2
100
AcDbBlockReference
  2
_OPEN
 10
193.8647048106736
 20
178.8063498765956
 30
0.0
 41
2.5
 42
2.5
 43
2.5
  0
MTEXT
  5
1293
330
18
100
AcDbEntity
  8
外形線
 62
     6
100
AcDbMText
 10
188.7147048106736
 20
180.6813498765956
 30
0.0
 40
2.5
 41
0.0
 71
     5
 72
     1
  1
5.1
  7
STYLE3
 73
     1
 44
1.0
  0
ARC
  5
12E4
330
18
100
AcDbEntity
  8
外形線
100
AcDbCircle
 10
91.26595149894994
 20
28.39795624005416
 30
0.0
 40
2.399999999999999
100
AcDbArc
 50
189.59406822686
 51
350.40593177314
  0
ARC
  5
12E5
330
18
100
AcDbEntity
  8
外形線
100
AcDbCircle
 10
183.5647048106736
 20
28.39795624005416
 30
0.0
 40
2.399999999999999
100
AcDbArc
 50
189.59406822686
 51
350.40593177314
  0
TEXT
  5
1336
330
18
100
AcDbEntity
  8
文字
100
AcDbText
 10
94.94791025543971
 20
188.8858014620858
 30
0.0
 40
3.0
  1
Model No.5S Miniature Dial Gauge
  7
STYLE3
100
AcDbText
  0
LINE
  5
1337
330
18
100
AcDbEntity
  8
外形線
100
AcDbLine
 10
93.30174525543972
 20
186.3412094620858
 30
0.0
 11
171.3017452554397
 21
186.3412094620858
 31
0.0
  0
LINE
  5
1338
330
18
100
AcDbEntity
  8
外形線
100
AcDbLine
 10
93.30174525543972
 20
187.3412094620858
 30
0.0
 11
171.3017452554397
 21
187.3412094620858
 31
0.0
  0
TEXT
  5
1339
330
18
100
AcDbEntity
  8
0
  6
Continuous
100
AcDbText
 10
196.6579570184946
 20
3.921315462085853
 30
0.0
 40
2.1
  1
2010.06.08
  7
STYLE3
100
AcDbText
  0
TEXT
  5
133A
330
18
100
AcDbEntity
  8
0
  6
Continuous
100
AcDbText
 10
115.4397430184946
 20
15.86694846208585
 30
0.0
 40
3.5
  1
仕様及び外観は予告なく変更される場合がございますのでご了承下さい。
  7
STYLE3
100
AcDbText
  0
TEXT
  5
133B
330
18
100
AcDbEntity
  8
0
  6
Continuous
100
AcDbText
 10
115.1482490184946
 20
11.93780046208585
 30
0.0
 40
2.1
  1
Design and specifications are subject to change without notice for future improvement.
  7
STYLE3
100
AcDbText
  0
LINE
  5
133C
330
18
100
AcDbEntity
  8
外形線
100
AcDbLine
 10
113.6907820184946
 20
10.03981046208585
 30
0.0
 11
254.4821990184946
 21
10.03981046208585
 31
0.0
  0
LINE
  5
133D
330
18
100
AcDbEntity
  8
外形線
100
AcDbLine
 10
113.6907820184946
 20
20.82001646208585
 30
0.0
 11
254.4821990184946
 21
20.82001646208585
 31
0.0
  0
TEXT
  5
133E
330
18
100
AcDbEntity
  8
0
  6
Continuous
100
AcDbText
 10
114.8567570184946
 20
2.173173462085853
 30
0.0
 40
2.1
  1
3RD Angle Projection
  7
STYLE3
100
AcDbText
  0
LINE
  5
133F
330
18
100
AcDbEntity
  8
外形線
100
AcDbLine
 10
113.6907820184946
 20
0.4250324620858536
 30
0.0
 11
113.6907820184946
 21
20.82001646208585
 31
0.0
  0
TEXT
  5
1340
330
18
100
AcDbEntity
  8
0
  6
Continuous
100
AcDbText
 10
117.4802000184946
 20
5.669456462085854
 30
0.0
 40
3.0
  1
三　　角　　法
  7
STYLE3
100
AcDbText
  0
TEXT
  5
1341
330
18
100
AcDbEntity
  8
0
  6
Continuous
100
AcDbText
 10
150.4189780184946
 20
5.675410462085853
 30
0.0
 40
3.0
  1
単位
  7
STYLE3
100
AcDbText
  0
LINE
  5
1342
330
18
100
AcDbEntity
  8
外形線
100
AcDbLine
 10
148.9615090184946
 20
10.03981046208585
 30
0.0
 11
148.9615090184946
 21
0.4250324620858536
 31
0.0
  0
LINE
  5
1343
330
18
100
AcDbEntity
  8
外形線
100
AcDbLine
 10
166.4511270184946
 20
10.03981046208585
 30
0.0
 11
166.4511270184946
 21
0.4250324620858536
 31
0.0
  0
LINE
  5
1344
330
18
100
AcDbEntity
  8
外形線
100
AcDbLine
 10
185.9811990184946
 20
10.03981046208585
 30
0.0
 11
185.9811990184946
 21
0.4250324620858536
 31
0.0
  0
TEXT
  5
1345
330
18
100
AcDbEntity
  8
0
  6
Continuous
100
AcDbText
 10
158.4610260184946
 20
3.921316462085854
 30
0.0
 40
2.399999999999999
  1
mm
  7
STYLE3
100
AcDbText
  0
TEXT
  5
1346
330
18
100
AcDbEntity
  8
0
  6
Continuous
100
AcDbText
 10
150.5906990184946
 20
2.173174462085853
 30
0.0
 40
2.1
  1
Unit
  7
STYLE3
100
AcDbText
  0
TEXT
  5
1347
330
18
100
AcDbEntity
  8
0
  6
Continuous
100
AcDbText
 10
168.2000890184946
 20
2.464531462085853
 30
0.0
 40
2.1
  1
Scale
  7
STYLE3
100
AcDbText
  0
TEXT
  5
1348
330
18
100
AcDbEntity
  8
0
  6
Continuous
100
AcDbText
 10
167.7368740184946
 20
5.384053462085852
 30
0.0
 40
3.0
  1
尺 度
  7
STYLE3
100
AcDbText
  0
TEXT
  5
1349
330
18
100
AcDbEntity
  8
0
  6
Continuous
100
AcDbText
 10
187.5297890184946
 20
5.506258462085853
 30
0.0
 40
3.0
  1
日 付
  7
STYLE3
100
AcDbText
  0
TEXT
  5
134A
330
18
100
AcDbEntity
  8
0
  6
Continuous
100
AcDbText
 10
187.9131500184946
 20
2.173175462085853
 30
0.0
 40
2.1
  1
Date
  7
STYLE3
100
AcDbText
  0
TEXT
  5
134B
330
18
100
AcDbEntity
  8
0
  6
Continuous
100
AcDbText
 10
177.8193780184946
 20
4.212673462085853
 30
0.0
 40
2.399999999999999
  1
2/1
  7
STYLE3
100
AcDbText
  0
TEXT
  5
134C
330
18
100
AcDbEntity
  8
0
  6
Continuous
100
AcDbText
 10
217.0625120184946
 20
5.960813462085853
 30
0.0
 40
3.0
  1
株式会社　尾崎製作所
  7
STYLE3
100
AcDbText
  0
LINE
  5
134D
330
18
100
AcDbEntity
  8
外形線
100
AcDbLine
 10
215.7135480184946
 20
10.03981046208585
 30
0.0
 11
215.7135480184946
 21
0.4250324620858536
 31
0.0
  0
TEXT
  5
134E
330
18
100
AcDbEntity
  8
0
  6
Continuous
100
AcDbText
 10
217.9369900184946
 20
2.173173462085853
 30
0.0
 40
2.1
  1
OZAKI MFG. CO., LTD.
  7
STYLE3
100
AcDbText
  0
VIEWPORT
  5
177
330
15
100
AcDbEntity
 67
     1
  8
0
100
AcDbViewport
 10
127.5041203589828
 20
97.49391214526822
 30
0.0
 40
418.3086347473814
 41
243.0346063651093
 68
     1
 69
     1
 12
127.5041203589828
 22
97.49391214526822
 13
0.0
 23
0.0
 14
10.0
 24
10.0
 15
10.0
 25
10.0
 16
0.0
 26
0.0
 36
1.0
 17
0.0
 27
0.0
 37
0.0
 42
50.0
 43
0.0
 44
0.0
 45
243.0346063651093
 50
0.0
 51
0.0
 72
   100
 90
    32800
  1

281
     0
 71
     1
 74
     0
110
0.0
120
0.0
130
0.0
111
1.0
121
0.0
131
0.0
112
0.0
122
1.0
132
0.0
 79
     0
146
0.0
170
     0
  0
ENDSEC
  0
SECTION
  2
OBJECTS
  0
DICTIONARY
  5
C
330
0
100
AcDbDictionary
281
     1
  3
ACAD_COLOR
350
1246
  3
ACAD_GROUP
350
D
  3
ACAD_LAYOUT
350
1249
  3
ACAD_MATERIAL
350
1245
  3
ACAD_MLINESTYLE
350
1B
  3
ACAD_PLOTSETTINGS
350
124A
  3
ACAD_PLOTSTYLENAME
350
1243
  3
ACAD_TABLESTYLE
350
1247
  3
ACDBVARIABLEDICTIONARY
350
DE3
  0
DICTIONARY
  5
1294
330
18
100
AcDbDictionary
280
     1
281
     1
  3
ACAD_SORTENTS
360
1295
  0
DICTIONARY
  5
1246
102
{ACAD_REACTORS
330
C
102
}
330
C
100
AcDbDictionary
281
     1
  0
DICTIONARY
  5
D
102
{ACAD_REACTORS
330
C
102
}
330
C
100
AcDbDictionary
281
     1
  0
DICTIONARY
  5
1249
102
{ACAD_REACTORS
330
C
102
}
330
C
100
AcDbDictionary
281
     1
  3
Model
350
124B
  3
レイアウト1
350
124C
  0
DICTIONARY
  5
1245
102
{ACAD_REACTORS
330
C
102
}
330
C
100
AcDbDictionary
281
     1
  0
DICTIONARY
  5
1B
102
{ACAD_REACTORS
330
C
102
}
330
C
100
AcDbDictionary
281
     1
  3
STANDARD
350
1C
  0
DICTIONARY
  5
124A
102
{ACAD_REACTORS
330
C
102
}
330
C
100
AcDbDictionary
281
     1
  0
ACDBDICTIONARYWDFLT
  5
1243
102
{ACAD_REACTORS
330
C
102
}
330
C
100
AcDbDictionary
281
     1
  3
Normal
350
1244
100
AcDbDictionaryWithDefault
340
1244
  0
DICTIONARY
  5
1247
102
{ACAD_REACTORS
330
C
102
}
330
C
100
AcDbDictionary
281
     1
  3
Standard
350
1248
  0
DICTIONARY
  5
DE3
102
{ACAD_REACTORS
330
C
102
}
330
C
100
AcDbDictionary
281
     1
  3
CTABLESTYLE
350
1252
  3
SORTENTS
350
DE4
  0
SORTENTSTABLE
  5
1295
102
{ACAD_REACTORS
330
1294
102
}
330
1294
100
AcDbSortentsTable
330
18
331
128E
  5
128E
331
290
  5
290
331
451
  5
451
331
3C3
  5
3C3
331
384
  5
384
331
30E
  5
30E
331
2D7
  5
2D7
331
298
  5
298
331
34D
  5
34D
331
3FA
  5
3FA
331
402
  5
402
331
38C
  5
38C
331
2DF
  5
2DF
331
2A0
  5
2A0
331
355
  5
355
331
3CB
  5
3CB
331
40A
  5
40A
331
394
  5
394
331
2E7
  5
2E7
331
2A8
  5
2A8
331
35D
  5
35D
331
3D3
  5
3D3
331
326
  5
326
331
39C
  5
39C
331
F84
  5
F84
331
DB5
  5
DB5
331
D3F
  5
D3F
331
D7E
  5
D7E
331
FBB
  5
FBB
331
1170
  5
1170
331
FCB
  5
FCB
331
D86
  5
D86
331
D47
  5
D47
331
F8C
  5
F8C
331
10D9
  5
10D9
331
10E1
  5
10E1
331
FD3
  5
FD3
331
D8E
  5
D8E
331
D4F
  5
D4F
331
F94
  5
F94
331
1092
  5
1092
331
10E9
  5
10E9
331
D96
  5
D96
331
D57
  5
D57
331
F9C
  5
F9C
331
FDB
  5
FDB
331
1180
  5
1180
331
2B0
  5
2B0
331
3DB
  5
3DB
331
3A4
  5
3A4
331
32E
  5
32E
331
279
  5
279
331
2EF
  5
2EF
331
365
  5
365
331
432
  5
432
331
43A
  5
43A
331
3AC
  5
3AC
331
336
  5
336
331
281
  5
281
331
2F7
  5
2F7
331
36D
  5
36D
331
3E3
  5
3E3
331
442
  5
442
331
3B4
  5
3B4
331
375
  5
375
331
2FF
  5
2FF
331
2C8
  5
2C8
331
289
  5
289
331
33E
  5
33E
331
3EB
  5
3EB
331
44A
  5
44A
331
3F3
  5
3F3
331
37D
  5
37D
331
307
  5
307
331
3BC
  5
3BC
331
10F1
  5
10F1
331
10BA
  5
10BA
331
FA4
  5
FA4
331
DDD
  5
DDD
331
D5F
  5
D5F
331
D9E
  5
D9E
331
FE3
  5
FE3
331
1188
  5
1188
331
1190
  5
1190
331
FEB
  5
FEB
331
FAC
  5
FAC
331
D67
  5
D67
331
FF3
  5
FF3
331
DAE
  5
DAE
331
D6F
  5
D6F
331
10CA
  5
10CA
331
D77
  5
D77
331
F0D
  5
F0D
331
128F
  5
128F
331
26A
  5
26A
331
291
  5
291
331
3FB
  5
3FB
331
3C4
  5
3C4
331
34E
  5
34E
331
2D8
  5
2D8
331
299
  5
299
331
30F
  5
30F
331
385
  5
385
331
452
  5
452
331
403
  5
403
331
3CC
  5
3CC
331
356
  5
356
331
317
  5
317
331
2A1
  5
2A1
331
2E0
  5
2E0
331
38D
  5
38D
331
3D4
  5
3D4
331
395
  5
395
331
35E
  5
35E
331
2A9
  5
2A9
331
40B
  5
40B
331
39D
  5
39D
331
D38
  5
D38
331
FBC
  5
FBC
331
F85
  5
F85
331
D7F
  5
D7F
331
D40
  5
D40
331
DB6
  5
DB6
331
10D2
  5
10D2
331
10DA
  5
10DA
331
F8D
  5
F8D
331
D48
  5
D48
331
D87
  5
D87
331
FCC
  5
FCC
331
1179
  5
1179
331
1093
  5
1093
331
F95
  5
F95
331
D50
  5
D50
331
D8F
  5
D8F
331
FD4
  5
FD4
331
10E2
  5
10E2
331
1181
  5
1181
331
FDC
  5
FDC
331
D97
  5
D97
331
F9D
  5
F9D
331
10EA
  5
10EA
331
433
  5
433
331
3A5
  5
3A5
331
366
  5
366
331
2F0
  5
2F0
331
27A
  5
27A
331
32F
  5
32F
331
3DC
  5
3DC
331
43B
  5
43B
331
3E4
  5
3E4
331
36E
  5
36E
331
337
  5
337
331
2C1
  5
2C1
331
282
  5
282
331
2F8
  5
2F8
331
3AD
  5
3AD
331
3EC
  5
3EC
331
3B5
  5
3B5
331
33F
  5
33F
331
300
  5
300
331
2C9
  5
2C9
331
376
  5
376
331
443
  5
443
331
44B
  5
44B
331
3BD
  5
3BD
331
347
  5
347
331
37E
  5
37E
331
3F4
  5
3F4
331
D58
  5
D58
331
1189
  5
1189
331
FE4
  5
FE4
331
FA5
  5
FA5
331
D9F
  5
D9F
331
D60
  5
D60
331
DDE
  5
DDE
331
10F2
  5
10F2
331
FAD
  5
FAD
331
D68
  5
D68
331
FEC
  5
FEC
331
10CB
  5
10CB
331
FB5
  5
FB5
331
D70
  5
D70
331
DAF
  5
DAF
331
FF4
  5
FF4
331
F0E
  5
F0E
331
1290
  5
1290
331
26B
  5
26B
331
292
  5
292
331
308
  5
308
331
453
  5
453
331
3C5
  5
3C5
331
386
  5
386
331
310
  5
310
331
29A
  5
29A
331
34F
  5
34F
331
3FC
  5
3FC
331
404
  5
404
331
38E
  5
38E
331
357
  5
357
331
2E1
  5
2E1
331
2A2
  5
2A2
331
318
  5
318
331
3CD
  5
3CD
331
40C
  5
40C
331
3D5
  5
3D5
331
35F
  5
35F
331
2AA
  5
2AA
331
396
  5
396
331
42C
  5
42C
331
39E
  5
39E
331
D39
  5
D39
331
D78
  5
D78
331
FBD
  5
FBD
331
DB7
  5
DB7
331
D41
  5
D41
331
D80
  5
D80
331
F86
  5
F86
331
10D3
  5
10D3
331
FCD
  5
FCD
331
D88
  5
D88
331
D49
  5
D49
331
F8E
  5
F8E
331
10DB
  5
10DB
331
117A
  5
117A
331
FD5
  5
FD5
331
D90
  5
D90
331
D51
  5
D51
331
F96
  5
F96
331
10E3
  5
10E3
331
10EB
  5
10EB
331
F9E
  5
F9E
331
DD7
  5
DD7
331
FDD
  5
FDD
331
1182
  5
1182
331
328
  5
328
331
273
  5
273
331
3DD
  5
3DD
331
3A6
  5
3A6
331
2F1
  5
2F1
331
27B
  5
27B
331
2BA
  5
2BA
331
367
  5
367
331
434
  5
434
331
43C
  5
43C
331
3AE
  5
3AE
331
36F
  5
36F
331
2F9
  5
2F9
331
283
  5
283
331
2C2
  5
2C2
331
338
  5
338
331
3E5
  5
3E5
331
444
  5
444
331
3B6
  5
3B6
331
377
  5
377
331
301
  5
301
331
28B
  5
28B
331
340
  5
340
331
3ED
  5
3ED
331
44C
  5
44C
331
3F5
  5
3F5
331
37F
  5
37F
331
3BE
  5
3BE
331
D59
  5
D59
331
D98
  5
D98
331
118A
  5
118A
331
FA6
  5
FA6
331
DDF
  5
DDF
331
D61
  5
D61
331
DA0
  5
DA0
331
FE5
  5
FE5
331
10F3
  5
10F3
331
FED
  5
FED
331
DA8
  5
DA8
331
D69
  5
D69
331
FAE
  5
FAE
331
1113
  5
1113
331
FF5
  5
FF5
331
D71
  5
D71
331
10CC
  5
10CC
331
1291
  5
1291
331
26C
  5
26C
331
348
  5
348
331
293
  5
293
331
309
  5
309
331
3FD
  5
3FD
331
3C6
  5
3C6
331
350
  5
350
331
311
  5
311
331
29B
  5
29B
331
2DA
  5
2DA
331
387
  5
387
331
454
  5
454
331
3CE
  5
3CE
331
358
  5
358
331
319
  5
319
331
2A3
  5
2A3
331
2E2
  5
2E2
331
38F
  5
38F
331
405
  5
405
331
3D6
  5
3D6
331
321
  5
321
331
2AB
  5
2AB
331
397
  5
397
331
40D
  5
40D
331
39F
  5
39F
331
DB0
  5
DB0
331
D79
  5
D79
331
D3A
  5
D3A
331
10D4
  5
10D4
331
F87
  5
F87
331
D81
  5
D81
331
D42
  5
D42
331
DB8
  5
DB8
331
10DC
  5
10DC
331
F8F
  5
F8F
331
DC8
  5
DC8
331
D4A
  5
D4A
331
D89
  5
D89
331
FCE
  5
FCE
331
117B
  5
117B
331
FD6
  5
FD6
331
D52
  5
D52
331
D91
  5
D91
331
F97
  5
F97
331
10E4
  5
10E4
331
1183
  5
1183
331
FDE
  5
FDE
331
F9F
  5
F9F
331
10EC
  5
10EC
331
360
  5
360
331
2EA
  5
2EA
331
274
  5
274
331
329
  5
329
331
435
  5
435
331
3DE
  5
3DE
331
2BB
  5
2BB
331
27C
  5
27C
331
368
  5
368
331
3A7
  5
3A7
331
43D
  5
43D
331
3E6
  5
3E6
331
370
  5
370
331
339
  5
339
331
2C3
  5
2C3
331
284
  5
284
331
2FA
  5
2FA
331
3AF
  5
3AF
331
3EE
  5
3EE
331
3B7
  5
3B7
331
341
  5
341
331
28C
  5
28C
331
302
  5
302
331
378
  5
378
331
445
  5
445
331
44D
  5
44D
331
3BF
  5
3BF
331
3F6
  5
3F6
331
D99
  5
D99
331
D5A
  5
D5A
331
118B
  5
118B
331
FE6
  5
FE6
331
FA7
  5
FA7
331
DA1
  5
DA1
331
D62
  5
D62
331
DE0
  5
DE0
331
10F4
  5
10F4
331
FEE
  5
FEE
331
D6A
  5
D6A
331
DA9
  5
DA9
331
10CD
  5
10CD
331
FB7
  5
FB7
331
D72
  5
D72
331
FF6
  5
FF6
331
1292
  5
1292
331
380
  5
380
331
294
  5
294
331
30A
  5
30A
331
349
  5
349
331
455
  5
455
331
3C7
  5
3C7
331
312
  5
312
331
29C
  5
29C
331
388
  5
388
331
3FE
  5
3FE
331
406
  5
406
331
390
  5
390
331
2E3
  5
2E3
331
2A4
  5
2A4
331
359
  5
359
331
3CF
  5
3CF
331
40E
  5
40E
331
3D7
  5
3D7
331
2AC
  5
2AC
331
322
  5
322
331
398
  5
398
331
42E
  5
42E
331
D3B
  5
D3B
331
D7A
  5
D7A
331
10D5
  5
10D5
331
DB9
  5
DB9
331
D82
  5
D82
331
D43
  5
D43
331
F88
  5
F88
331
10DD
  5
10DD
331
FCF
  5
FCF
331
DC9
  5
DC9
331
D8A
  5
D8A
331
D4B
  5
D4B
331
F90
  5
F90
331
108E
  5
108E
331
117C
  5
117C
331
FD7
  5
FD7
331
D92
  5
D92
331
D53
  5
D53
331
F98
  5
F98
331
10E5
  5
10E5
331
10ED
  5
10ED
331
FDF
  5
FDF
331
1184
  5
1184
331
361
  5
361
331
32A
  5
32A
331
275
  5
275
331
2EB
  5
2EB
331
3A0
  5
3A0
331
3DF
  5
3DF
331
3A8
  5
3A8
331
332
  5
332
331
2F3
  5
2F3
331
27D
  5
27D
331
2BC
  5
2BC
331
369
  5
369
331
436
  5
436
331
43E
  5
43E
331
3B0
  5
3B0
331
371
  5
371
331
2FB
  5
2FB
331
2C4
  5
2C4
331
285
  5
285
331
33A
  5
33A
331
3E7
  5
3E7
331
446
  5
446
331
3EF
  5
3EF
331
303
  5
303
331
28D
  5
28D
331
379
  5
379
331
3B8
  5
3B8
331
44E
  5
44E
331
3F7
  5
3F7
331
FA0
  5
FA0
331
DD9
  5
DD9
331
D5B
  5
D5B
331
D9A
  5
D9A
331
118C
  5
118C
331
FE7
  5
FE7
331
DE1
  5
DE1
331
D63
  5
D63
331
DA2
  5
DA2
331
FA8
  5
FA8
331
10F5
  5
10F5
331
FEF
  5
FEF
331
DAA
  5
DAA
331
D6B
  5
D6B
331
D73
  5
D73
331
10CE
  5
10CE
331
103F
  5
103F
331
1293
  5
1293
331
381
  5
381
331
34A
  5
34A
331
2D4
  5
2D4
331
295
  5
295
331
30B
  5
30B
331
3C0
  5
3C0
331
3FF
  5
3FF
331
3C8
  5
3C8
331
352
  5
352
331
313
  5
313
331
2DC
  5
2DC
331
389
  5
389
331
3D0
  5
3D0
331
391
  5
391
331
2A5
  5
2A5
331
2E4
  5
2E4
331
35A
  5
35A
331
407
  5
407
331
323
  5
323
331
2AD
  5
2AD
331
399
  5
399
331
40F
  5
40F
331
42F
  5
42F
331
D7B
  5
D7B
331
D3C
  5
D3C
331
DB2
  5
DB2
331
10D6
  5
10D6
331
F89
  5
F89
331
D83
  5
D83
331
D44
  5
D44
331
DBA
  5
DBA
331
10DE
  5
10DE
331
108F
  5
108F
331
F91
  5
F91
331
DCA
  5
DCA
331
D4C
  5
D4C
331
D8B
  5
D8B
331
FD0
  5
FD0
331
117D
  5
117D
331
FD8
  5
FD8
331
D93
  5
D93
331
D54
  5
D54
331
F99
  5
F99
331
10E6
  5
10E6
331
1185
  5
1185
331
10EE
  5
10EE
331
3A1
  5
3A1
331
362
  5
362
331
2EC
  5
2EC
331
276
  5
276
331
32B
  5
32B
331
3D8
  5
3D8
331
437
  5
437
331
3E0
  5
3E0
331
36A
  5
36A
331
333
  5
333
331
27E
  5
27E
331
2F4
  5
2F4
331
3A9
  5
3A9
331
3E8
  5
3E8
331
372
  5
372
331
33B
  5
33B
331
286
  5
286
331
2FC
  5
2FC
331
3B1
  5
3B1
331
43F
  5
43F
331
3F0
  5
3F0
331
3B9
  5
3B9
331
28E
  5
28E
331
304
  5
304
331
37A
  5
37A
331
447
  5
447
331
44F
  5
44F
331
FE0
  5
FE0
331
D9B
  5
D9B
331
D5C
  5
D5C
331
FA1
  5
FA1
331
118D
  5
118D
331
FE8
  5
FE8
331
FA9
  5
FA9
331
DA3
  5
DA3
331
D64
  5
D64
331
DE2
  5
DE2
331
FF0
  5
FF0
331
D6C
  5
D6C
331
DAB
  5
DAB
331
D74
  5
D74
331
10CF
  5
10CF
331
3C1
  5
3C1
331
382
  5
382
331
30C
  5
30C
331
2D5
  5
2D5
331
34B
  5
34B
331
3F8
  5
3F8
331
400
  5
400
331
38A
  5
38A
331
2DD
  5
2DD
331
353
  5
353
331
3C9
  5
3C9
331
408
  5
408
331
392
  5
392
331
2E5
  5
2E5
331
2A6
  5
2A6
331
35B
  5
35B
331
3D1
  5
3D1
331
D37
  5
D37
331
2AE
  5
2AE
331
324
  5
324
331
39A
  5
39A
331
1040
  5
1040
331
DB3
  5
DB3
331
D3D
  5
D3D
331
D7C
  5
D7C
331
FB9
  5
FB9
331
FC9
  5
FC9
331
DBB
  5
DBB
331
D84
  5
D84
331
D45
  5
D45
331
F8A
  5
F8A
331
10D7
  5
10D7
331
10DF
  5
10DF
331
FD1
  5
FD1
331
F92
  5
F92
331
D8C
  5
D8C
331
D4D
  5
D4D
331
DCB
  5
DCB
331
1090
  5
1090
331
10E7
  5
10E7
331
FD9
  5
FD9
331
D94
  5
D94
331
D55
  5
D55
331
F9A
  5
F9A
331
1098
  5
1098
331
117E
  5
117E
331
10EF
  5
10EF
331
1186
  5
1186
331
3D9
  5
3D9
331
3A2
  5
3A2
331
32C
  5
32C
331
277
  5
277
331
2ED
  5
2ED
331
363
  5
363
331
430
  5
430
331
3E1
  5
3E1
331
3AA
  5
3AA
331
334
  5
334
331
2F5
  5
2F5
331
27F
  5
27F
331
2BE
  5
2BE
331
36B
  5
36B
331
438
  5
438
331
440
  5
440
331
3B2
  5
3B2
331
373
  5
373
331
2FD
  5
2FD
331
2C6
  5
2C6
331
287
  5
287
331
33C
  5
33C
331
3E9
  5
3E9
331
448
  5
448
331
3F1
  5
3F1
331
37B
  5
37B
331
28F
  5
28F
331
305
  5
305
331
3BA
  5
3BA
331
FA2
  5
FA2
331
D5D
  5
D5D
331
D9C
  5
D9C
331
FE1
  5
FE1
331
118E
  5
118E
331
FE9
  5
FE9
331
DA4
  5
DA4
331
D65
  5
D65
331
FAA
  5
FAA
331
FF1
  5
FF1
331
DAC
  5
DAC
331
D6D
  5
D6D
331
113F
  5
113F
331
D75
  5
D75
331
3F9
  5
3F9
331
383
  5
383
331
34C
  5
34C
331
2D6
  5
2D6
331
297
  5
297
331
30D
  5
30D
331
3C2
  5
3C2
331
450
  5
450
331
401
  5
401
331
3CA
  5
3CA
331
354
  5
354
331
315
  5
315
331
29F
  5
29F
331
2DE
  5
2DE
331
38B
  5
38B
331
3D2
  5
3D2
331
393
  5
393
331
2E6
  5
2E6
331
2A7
  5
2A7
331
35C
  5
35C
331
409
  5
409
331
325
  5
325
331
2AF
  5
2AF
331
39B
  5
39B
331
FBA
  5
FBA
331
F83
  5
F83
331
D7D
  5
D7D
331
D3E
  5
D3E
331
DB4
  5
DB4
331
1041
  5
1041
331
10D8
  5
10D8
331
D85
  5
D85
331
D46
  5
D46
331
F8B
  5
F8B
331
FCA
  5
FCA
331
116F
  5
116F
331
10E0
  5
10E0
331
F93
  5
F93
331
DCC
  5
DCC
331
D4E
  5
D4E
331
D8D
  5
D8D
331
FD2
  5
FD2
331
117F
  5
117F
331
FDA
  5
FDA
331
D95
  5
D95
331
D56
  5
D56
331
F9B
  5
F9B
331
10E8
  5
10E8
331
1187
  5
1187
331
431
  5
431
331
3A3
  5
3A3
331
364
  5
364
331
2EE
  5
2EE
331
278
  5
278
331
32D
  5
32D
331
3DA
  5
3DA
331
439
  5
439
331
3E2
  5
3E2
331
36C
  5
36C
331
335
  5
335
331
2BF
  5
2BF
331
280
  5
280
331
2F6
  5
2F6
331
3AB
  5
3AB
331
3EA
  5
3EA
331
3B3
  5
3B3
331
33D
  5
33D
331
2C7
  5
2C7
331
288
  5
288
331
2FE
  5
2FE
331
374
  5
374
331
441
  5
441
331
3F2
  5
3F2
331
3BB
  5
3BB
331
306
  5
306
331
37C
  5
37C
331
449
  5
449
331
FE2
  5
FE2
331
FA3
  5
FA3
331
D9D
  5
D9D
331
D5E
  5
D5E
331
DDC
  5
DDC
331
10F0
  5
10F0
331
FEA
  5
FEA
331
FAB
  5
FAB
331
D66
  5
D66
331
10C1
  5
10C1
331
118F
  5
118F
331
DEC
  5
DEC
331
D6E
  5
D6E
331
DAD
  5
DAD
331
FF2
  5
FF2
331
1140
  5
1140
331
D76
  5
D76
  0
LAYOUT
  5
124B
102
{ACAD_REACTORS
330
1249
102
}
330
1249
100
AcDbPlotSettings
  1

  2
\\SATO-MATE2\EPSON LP-6100
  4
A4
  6

 40
5.873749732971191
 41
5.873747825622558
 42
5.873748779296875
 43
5.873748779296875
 44
209.9733276367187
 45
297.0106506347656
 46
0.0
 47
0.0
 48
0.0
 49
0.0
140
0.0
141
0.0
142
1.0
143
1.051592969039297
 70
 11952
 72
     1
 73
     1
 74
     0
  7
AutoCAD LT 98.ctb
 75
     0
147
0.9509382712149253
 76
     0
 77
     2
 78
   300
148
22.4812623276446
149
0.9674495824809952
100
AcDbLayout
  1
Model
 70
     1
 71
     0
 10
0.0
 20
0.0
 11
12.0
 21
9.0
 12
0.0
 22
0.0
 32
0.0
 14
0.0
 24
0.0
 34
0.0
 15
0.0
 25
0.0
 35
0.0
146
0.0
 13
0.0
 23
0.0
 33
0.0
 16
1.0
 26
0.0
 36
0.0
 17
0.0
 27
1.0
 37
0.0
 76
     0
330
18
1001
ACAD_PSEXT
1000
\\SATO-MATE2\EPSON LP-6100
1000
EPSON LP-6100
1000
\\SATO-MATE2
1000

1070
     0
  0
LAYOUT
  5
124C
102
{ACAD_REACTORS
330
1249
102
}
330
1249
100
AcDbPlotSettings
  1

  2
\\SATO-MATE2\EPSON LP-6100
  4

  6

 40
0.0
 41
0.0
 42
0.0
 43
0.0
 44
0.0
 45
0.0
 46
0.0
 47
0.0
 48
0.0
 49
0.0
140
0.0
141
0.0
142
1.0
143
1.0
 70
   688
 72
     0
 73
     0
 74
     5
  7
AutoCAD LT 98.ctb
 75
    16
147
1.0
 76
     0
 77
     2
 78
   300
148
0.0
149
0.0
100
AcDbLayout
  1
レイアウト1
 70
     1
 71
     1
 10
0.0
 20
0.0
 11
420.0
 21
297.0
 12
0.0
 22
0.0
 32
0.0
 14
-0.2
 24
-0.2
 34
0.0
 15
255.2
 25
195.2
 35
0.0
146
0.0
 13
0.0
 23
0.0
 33
0.0
 16
1.0
 26
0.0
 36
0.0
 17
0.0
 27
1.0
 37
0.0
 76
     0
330
15
331
177
  0
MLINESTYLE
  5
1C
102
{ACAD_REACTORS
330
1B
102
}
330
1B
100
AcDbMlineStyle
  2
STANDARD
 70
     0
  3

 62
   256
 51
90.0
 52
90.0
 71
     2
 49
0.5
 62
   256
  6
BYLAYER
 49
-0.5
 62
   256
  6
BYLAYER
  0
ACDBPLACEHOLDER
  5
1244
102
{ACAD_REACTORS
330
1243
102
}
330
1243
  0
ACAD_PROXY_OBJECT
  5
1248
102
{ACAD_REACTORS
330
1247
102
}
330
1247
100
AcDbProxyObject
 90
      499
 91
      504
 95
  2555929
 70
     0
 93
     1849
310
4214DD185B99185C992420000000000000F83F0000000000003E0FC00000000000004901028000000C1008070000C3001FDFF8000000C1003FBFF000000182007F7FE00000030400FEFFC00000060801FDFF8000000C1003FBFF000000182000000000000000C2020B0000001820100E000186003FBFF000000182007F7FE0
310
0000030400FEFFC00000060801FDFF8000000C1003FBFF000000182007F7FE0000003040000000000000012404160000003040201C00030C007F7FE00000030400FEFFC00000060801FDFF8000000C1003FBFF000000182007F7FE00000030400FEFFC000000608059
340
F
340
F
340
F
 94
        0
  0
DICTIONARYVAR
  5
1252
102
{ACAD_REACTORS
330
DE3
102
}
330
DE3
100
DictionaryVariables
280
     0
  1
STANDARD
  0
DICTIONARYVAR
  5
DE4
102
{ACAD_REACTORS
330
DE3
102
}
330
DE3
100
DictionaryVariables
280
     0
  1
96
  0
ENDSEC
  0
EOF
