  0
SECTION
  2
HEADER
  9
$ACADVER
  1
AC1018
  9
$ACADMAINTVER
 70
     0
  9
$DWGCODEPAGE
  3
ANSI_932
  9
$INSBASE
 10
0.0
 20
0.0
 30
0.0
  9
$EXTMIN
 10
-0.2192307289082009
 20
-0.2136015531451676
 30
-0.0000305122223523
  9
$EXTMAX
 10
255.2285122392458
 20
195.2214160090129
 30
0.0000457828865983
  9
$LIMMIN
 10
0.0
 20
0.0
  9
$LIMMAX
 10
420.0
 20
297.0
  9
$ORTHOMODE
 70
     0
  9
$REGENMODE
 70
     1
  9
$FILLMODE
 70
     1
  9
$QTEXTMODE
 70
     0
  9
$MIRRTEXT
 70
     1
  9
$LTSCALE
 40
1.0
  9
$ATTMODE
 70
     1
  9
$TEXTSIZE
 40
2.5
  9
$TRACEWID
 40
1.0
  9
$TEXTSTYLE
  7
STYLE3
  9
$CLAYER
  8
文字
  9
$CELTYPE
  6
BYLAYER
  9
$CECOLOR
 62
   256
  9
$CELTSCALE
 40
1.0
  9
$DISPSILH
 70
     0
  9
$DIMSCALE
 40
1.0
  9
$DIMASZ
 40
2.5
  9
$DIMEXO
 40
0.0
  9
$DIMDLI
 40
3.75
  9
$DIMRND
 40
0.0
  9
$DIMDLE
 40
0.0
  9
$DIMEXE
 40
1.25
  9
$DIMTP
 40
0.0
  9
$DIMTM
 40
0.0
  9
$DIMTXT
 40
2.5
  9
$DIMCEN
 40
2.5
  9
$DIMTSZ
 40
0.0
  9
$DIMTOL
 70
     0
  9
$DIMLIM
 70
     0
  9
$DIMTIH
 70
     0
  9
$DIMTOH
 70
     0
  9
$DIMSE1
 70
     0
  9
$DIMSE2
 70
     0
  9
$DIMTAD
 70
     1
  9
$DIMZIN
 70
     8
  9
$DIMBLK
  1

  9
$DIMASO
 70
     1
  9
$DIMSHO
 70
     1
  9
$DIMPOST
  1

  9
$DIMAPOST
  1

  9
$DIMALT
 70
     0
  9
$DIMALTD
 70
     4
  9
$DIMALTF
 40
0.0394
  9
$DIMLFAC
 40
1.0
  9
$DIMTOFL
 70
     1
  9
$DIMTVP
 40
0.0
  9
$DIMTIX
 70
     0
  9
$DIMSOXD
 70
     0
  9
$DIMSAH
 70
     1
  9
$DIMBLK1
  1
OPEN
  9
$DIMBLK2
  1
OPEN
  9
$DIMSTYLE
  2
STYLE3
  9
$DIMCLRD
 70
     2
  9
$DIMCLRE
 70
     2
  9
$DIMCLRT
 70
     6
  9
$DIMTFAC
 40
1.0
  9
$DIMGAP
 40
0.625
  9
$DIMJUST
 70
     0
  9
$DIMSD1
 70
     0
  9
$DIMSD2
 70
     0
  9
$DIMTOLJ
 70
     1
  9
$DIMTZIN
 70
     0
  9
$DIMALTZ
 70
     0
  9
$DIMALTTZ
 70
     0
  9
$DIMUPT
 70
     0
  9
$DIMDEC
 70
     2
  9
$DIMTDEC
 70
     4
  9
$DIMALTU
 70
     8
  9
$DIMALTTD
 70
     4
  9
$DIMTXSTY
  7
STYLE3
  9
$DIMAUNIT
 70
     0
  9
$DIMADEC
 70
     0
  9
$DIMALTRND
 40
0.0
  9
$DIMAZIN
 70
     0
  9
$DIMDSEP
 70
    46
  9
$DIMATFIT
 70
     3
  9
$DIMFRAC
 70
     0
  9
$DIMLDRBLK
  1

  9
$DIMLUNIT
 70
     2
  9
$DIMLWD
 70
    -2
  9
$DIMLWE
 70
    -2
  9
$DIMTMOVE
 70
     0
  9
$LUNITS
 70
     2
  9
$LUPREC
 70
     4
  9
$SKETCHINC
 40
1.0
  9
$FILLETRAD
 40
0.0
  9
$AUNITS
 70
     0
  9
$AUPREC
 70
     0
  9
$MENU
  1
.
  9
$ELEVATION
 40
0.0
  9
$PELEVATION
 40
0.0
  9
$THICKNESS
 40
0.0
  9
$LIMCHECK
 70
     0
  9
$CHAMFERA
 40
0.3
  9
$CHAMFERB
 40
0.3
  9
$CHAMFERC
 40
20.0
  9
$CHAMFERD
 40
0.0
  9
$SKPOLY
 70
     0
  9
$TDCREATE
 40
2451235.420719097
  9
$TDUCREATE
 40
2451235.045719098
  9
$TDUPDATE
 40
2455358.418048496
  9
$TDUUPDATE
 40
2455358.043048496
  9
$TDINDWG
 40
0.7678123380
  9
$TDUSRTIMER
 40
0.7678123380
  9
$USRTIMER
 70
     1
  9
$ANGBASE
 50
0.0
  9
$ANGDIR
 70
     0
  9
$PDMODE
 70
     0
  9
$PDSIZE
 40
0.0
  9
$PLINEWID
 40
0.0
  9
$SPLFRAME
 70
     0
  9
$SPLINETYPE
 70
     6
  9
$SPLINESEGS
 70
     8
  9
$HANDSEED
  5
23A8
  9
$SURFTAB1
 70
     6
  9
$SURFTAB2
 70
     6
  9
$SURFTYPE
 70
     6
  9
$SURFU
 70
     6
  9
$SURFV
 70
     6
  9
$UCSBASE
  2

  9
$UCSNAME
  2

  9
$UCSORG
 10
0.0
 20
0.0
 30
0.0
  9
$UCSXDIR
 10
1.0
 20
0.0
 30
0.0
  9
$UCSYDIR
 10
0.0
 20
1.0
 30
0.0
  9
$UCSORTHOREF
  2

  9
$UCSORTHOVIEW
 70
     0
  9
$UCSORGTOP
 10
0.0
 20
0.0
 30
0.0
  9
$UCSORGBOTTOM
 10
0.0
 20
0.0
 30
0.0
  9
$UCSORGLEFT
 10
0.0
 20
0.0
 30
0.0
  9
$UCSORGRIGHT
 10
0.0
 20
0.0
 30
0.0
  9
$UCSORGFRONT
 10
0.0
 20
0.0
 30
0.0
  9
$UCSORGBACK
 10
0.0
 20
0.0
 30
0.0
  9
$PUCSBASE
  2

  9
$PUCSNAME
  2

  9
$PUCSORG
 10
0.0
 20
0.0
 30
0.0
  9
$PUCSXDIR
 10
1.0
 20
0.0
 30
0.0
  9
$PUCSYDIR
 10
0.0
 20
1.0
 30
0.0
  9
$PUCSORTHOREF
  2

  9
$PUCSORTHOVIEW
 70
     0
  9
$PUCSORGTOP
 10
0.0
 20
0.0
 30
0.0
  9
$PUCSORGBOTTOM
 10
0.0
 20
0.0
 30
0.0
  9
$PUCSORGLEFT
 10
0.0
 20
0.0
 30
0.0
  9
$PUCSORGRIGHT
 10
0.0
 20
0.0
 30
0.0
  9
$PUCSORGFRONT
 10
0.0
 20
0.0
 30
0.0
  9
$PUCSORGBACK
 10
0.0
 20
0.0
 30
0.0
  9
$USERI1
 70
     0
  9
$USERI2
 70
     0
  9
$USERI3
 70
     0
  9
$USERI4
 70
     0
  9
$USERI5
 70
     0
  9
$USERR1
 40
0.0
  9
$USERR2
 40
0.0
  9
$USERR3
 40
0.0
  9
$USERR4
 40
0.0
  9
$USERR5
 40
0.0
  9
$WORLDVIEW
 70
     1
  9
$SHADEDGE
 70
     3
  9
$SHADEDIF
 70
    70
  9
$TILEMODE
 70
     1
  9
$MAXACTVP
 70
    48
  9
$PINSBASE
 10
0.0
 20
0.0
 30
0.0
  9
$PLIMCHECK
 70
     0
  9
$PEXTMIN
 10
-0.2
 20
-0.2
 30
0.0
  9
$PEXTMAX
 10
255.2
 20
195.2
 30
0.0
  9
$PLIMMIN
 10
0.0
 20
0.0
  9
$PLIMMAX
 10
420.0
 20
297.0
  9
$UNITMODE
 70
     0
  9
$VISRETAIN
 70
     1
  9
$PLINEGEN
 70
     0
  9
$PSLTSCALE
 70
     1
  9
$TREEDEPTH
 70
  3020
  9
$CMLSTYLE
  2
STANDARD
  9
$CMLJUST
 70
     0
  9
$CMLSCALE
 40
20.0
  9
$PROXYGRAPHICS
 70
     1
  9
$MEASUREMENT
 70
     1
  9
$CELWEIGHT
370
    -1
  9
$ENDCAPS
280
     0
  9
$JOINSTYLE
280
     0
  9
$LWDISPLAY
290
     0
  9
$INSUNITS
 70
     0
  9
$HYPERLINKBASE
  1

  9
$STYLESHEET
  1

  9
$XEDIT
290
     1
  9
$CEPSNTYPE
380
     0
  9
$PSTYLEMODE
290
     1
  9
$FINGERPRINTGUID
  2
{E41D6175-B4ED-43A0-8543-B136370ACCC7}
  9
$VERSIONGUID
  2
{B9576FFD-BBA2-4459-A4D8-5DF055199148}
  9
$EXTNAMES
290
     1
  9
$PSVPSCALE
 40
0.0
  9
$OLESTARTUP
290
     0
  9
$SORTENTS
280
   127
  9
$INDEXCTL
280
     0
  9
$HIDETEXT
280
     0
  9
$XCLIPFRAME
290
     0
  9
$HALOGAP
280
     0
  9
$OBSCOLOR
 70
   257
  9
$OBSLTYPE
280
     0
  9
$INTERSECTIONDISPLAY
280
     0
  9
$INTERSECTIONCOLOR
 70
   257
  9
$DIMASSOC
280
     1
  9
$PROJECTNAME
  1

  0
ENDSEC
  0
SECTION
  2
CLASSES
  0
CLASS
  1
HATCH
  2
AcDbHatch
  3
ObjectDBX Classes
 90
        0
 91
       14
280
     0
281
     1
  0
CLASS
  1
LWPOLYLINE
  2
AcDbPolyline
  3
ObjectDBX Classes
 90
        0
 91
        1
280
     0
281
     1
  0
CLASS
  1
ACDBDICTIONARYWDFLT
  2
AcDbDictionaryWithDefault
  3
ObjectDBX Classes
 90
        0
 91
        1
280
     0
281
     0
  0
CLASS
  1
TABLESTYLE
  2
AcDbTableStyle
  3
ObjectDBX Classes
 90
     2047
 91
        1
280
     0
281
     0
  0
CLASS
  1
DICTIONARYVAR
  2
AcDbDictionaryVar
  3
ObjectDBX Classes
 90
        0
 91
        1
280
     0
281
     0
  0
ENDSEC
  0
SECTION
  2
TABLES
  0
TABLE
  2
VPORT
  5
8
330
0
100
AcDbSymbolTable
 70
     2
  0
VPORT
  5
23A7
330
8
100
AcDbSymbolTableRecord
100
AcDbViewportTableRecord
  2
*Active
 70
     0
 10
0.0
 20
0.0
 11
1.0
 21
1.0
 12
127.5046407551688
 22
97.50390722793389
 13
0.0
 23
0.0
 14
10.0
 24
10.0
 15
10.0
 25
10.0
 16
0.0
 26
0.0
 36
1.0
 17
0.0
 27
0.0
 37
0.0
 40
196.9212154143418
 41
1.530456852791878
 42
50.0
 43
0.0
 44
0.0
 50
0.0
 51
0.0
 71
     0
 72
   100
 73
     1
 74
     1
 75
     0
 76
     0
 77
     0
 78
     0
281
     0
 65
     1
110
0.0
120
0.0
130
0.0
111
1.0
121
0.0
131
0.0
112
0.0
122
1.0
132
0.0
 79
     0
146
0.0
  0
ENDTAB
  0
TABLE
  2
LTYPE
  5
5
330
0
100
AcDbSymbolTable
 70
     3
  0
LTYPE
  5
12
330
5
100
AcDbSymbolTableRecord
100
AcDbLinetypeTableRecord
  2
BYBLOCK
 70
     0
  3

 72
    65
 73
     0
 40
0.0
  0
LTYPE
  5
13
330
5
100
AcDbSymbolTableRecord
100
AcDbLinetypeTableRecord
  2
BYLAYER
 70
     0
  3

 72
    65
 73
     0
 40
0.0
  0
LTYPE
  5
14
330
5
100
AcDbSymbolTableRecord
100
AcDbLinetypeTableRecord
  2
CONTINUOUS
 70
     0
  3
Solid line
 72
    65
 73
     0
 40
0.0
  0
LTYPE
  5
22
330
5
100
AcDbSymbolTableRecord
100
AcDbLinetypeTableRecord
  2
CENTER2
 70
     0
  3
Center (.5x) ___ _ ___ _ ___ _ ___ _ ___ _ ___
 72
    65
 73
     4
 40
28.575
 49
19.05
 74
     0
 49
-3.174999999999999
 74
     0
 49
3.174999999999999
 74
     0
 49
-3.174999999999999
 74
     0
  0
LTYPE
  5
23
330
5
100
AcDbSymbolTableRecord
100
AcDbLinetypeTableRecord
  2
HIDDEN2
 70
     0
  3
Hidden (.5x) _ _ _ _ _ _ _ _ _ _ _ _ _ _ _ _ _
 72
    65
 73
     2
 40
4.762499999999999
 49
3.174999999999999
 74
     0
 49
-1.587499999999999
 74
     0
  0
ENDTAB
  0
TABLE
  2
LAYER
  5
2
330
0
100
AcDbSymbolTable
 70
    12
  0
LAYER
  5
E
330
2
100
AcDbSymbolTableRecord
100
AcDbLayerTableRecord
  2
0
 70
     0
 62
     7
  6
CONTINUOUS
370
    -3
390
232E
  0
LAYER
  5
25
330
2
100
AcDbSymbolTableRecord
100
AcDbLayerTableRecord
  2
外形線
 70
     0
 62
     7
  6
CONTINUOUS
370
    -3
390
232E
  0
LAYER
  5
26
330
2
100
AcDbSymbolTableRecord
100
AcDbLayerTableRecord
  2
寸法線
 70
     0
 62
     2
  6
CONTINUOUS
370
    -3
390
232E
  0
LAYER
  5
27
330
2
100
AcDbSymbolTableRecord
100
AcDbLayerTableRecord
  2
中心線
 70
     0
 62
     4
  6
CENTER2
370
    -3
390
232E
  0
LAYER
  5
2A
330
2
100
AcDbSymbolTableRecord
100
AcDbLayerTableRecord
  2
ﾊｯﾁﾝｸ
 70
     0
 62
     4
  6
CONTINUOUS
370
    -3
390
232E
  0
LAYER
  5
2B
330
2
100
AcDbSymbolTableRecord
100
AcDbLayerTableRecord
  2
文字
 70
     0
 62
     6
  6
CONTINUOUS
370
    -3
390
232E
  0
LAYER
  5
2C
330
2
100
AcDbSymbolTableRecord
100
AcDbLayerTableRecord
  2
目盛
 70
     0
 62
    70
  6
CONTINUOUS
370
    -3
390
232E
  0
LAYER
  5
2D
330
2
100
AcDbSymbolTableRecord
100
AcDbLayerTableRecord
  2
針
 70
     0
 62
     5
  6
CONTINUOUS
370
    -3
390
232E
  0
LAYER
  5
53
330
2
100
AcDbSymbolTableRecord
100
AcDbLayerTableRecord
  2
DEFPOINTS
 70
     0
 62
     7
  6
CONTINUOUS
290
     0
370
    -3
390
232E
  0
LAYER
  5
A5
330
2
100
AcDbSymbolTableRecord
100
AcDbLayerTableRecord
  2
C
 70
     0
 62
     7
  6
CONTINUOUS
370
    -3
390
232E
  0
LAYER
  5
16A
330
2
100
AcDbSymbolTableRecord
100
AcDbLayerTableRecord
  2
隠れ線2
 70
     0
 62
     1
  6
HIDDEN2
370
    -3
390
232E
  0
LAYER
  5
B7C
330
2
100
AcDbSymbolTableRecord
100
AcDbLayerTableRecord
  2
ROGO
 70
     0
 62
     6
  6
CONTINUOUS
370
    -3
390
232E
  0
ENDTAB
  0
TABLE
  2
STYLE
  5
3
330
0
100
AcDbSymbolTable
 70
     3
  0
STYLE
  5
F
330
3
100
AcDbSymbolTableRecord
100
AcDbTextStyleTableRecord
  2
STANDARD
 70
     0
 40
0.0
 41
1.0
 50
0.0
 71
     0
 42
2.5
  3
txt
  4

  0
STYLE
  5
3F
330
3
100
AcDbSymbolTableRecord
100
AcDbTextStyleTableRecord
  2
STYLE3
 70
     0
 40
0.0
 41
1.0
 50
0.0
 71
     0
 42
2.5
  3
romans.shx
  4
bigfont.shx
  0
ENDTAB
  0
TABLE
  2
VIEW
  5
6
330
0
100
AcDbSymbolTable
 70
     0
  0
ENDTAB
  0
TABLE
  2
UCS
  5
7
330
0
100
AcDbSymbolTable
 70
     0
  0
ENDTAB
  0
TABLE
  2
APPID
  5
9
330
0
100
AcDbSymbolTable
 70
     1
  0
APPID
  5
10
330
9
100
AcDbSymbolTableRecord
100
AcDbRegAppTableRecord
  2
ACAD
 70
     0
  0
ENDTAB
  0
TABLE
  2
DIMSTYLE
  5
A
330
0
100
AcDbSymbolTable
 70
     2
100
AcDbDimStyleTable
 71
     0
  0
DIMSTYLE
105
1D
330
A
100
AcDbSymbolTableRecord
100
AcDbDimStyleTableRecord
  2
STANDARD
 70
     0
 41
2.5
 42
0.625
 43
3.75
 44
1.25
 73
     0
 74
     0
 77
     1
 78
     8
140
2.5
141
2.5
143
0.0394
147
0.625
171
     4
172
     1
273
     8
274
     4
277
     6
340
F
  0
DIMSTYLE
105
8F
330
A
100
AcDbSymbolTableRecord
100
AcDbDimStyleTableRecord
  2
STYLE3
 70
     0
 41
2.5
 42
0.0
 43
3.75
 44
1.25
 73
     0
 74
     0
 77
     1
 78
     8
140
2.5
141
2.5
143
0.0394
147
0.625
171
     4
172
     1
173
     1
176
     2
177
     2
178
     6
271
     1
273
     8
274
     4
340
3F
341
45
343
45
344
45
  0
ENDTAB
  0
TABLE
  2
BLOCK_RECORD
  5
1
330
0
100
AcDbSymbolTable
 70
     4
  0
BLOCK_RECORD
  5
18
330
1
100
AcDbSymbolTableRecord
100
AcDbBlockTableRecord
  2
*MODEL_SPACE
340
2335
  0
BLOCK_RECORD
  5
15
330
1
100
AcDbSymbolTableRecord
100
AcDbBlockTableRecord
  2
*PAPER_SPACE
340
2336
  0
BLOCK_RECORD
  5
45
330
1
100
AcDbSymbolTableRecord
100
AcDbBlockTableRecord
  2
_OPEN
340
0
102
{BLKREFS
331
2146
331
2147
331
214F
331
2150
331
2158
331
2159
331
2161
331
2162
331
2169
331
216A
331
2172
331
2173
331
217D
331
217E
331
2195
331
2196
331
21A7
331
21A8
331
21BC
331
21BD
331
21C4
331
21C5
331
21CC
331
21CD
331
21D5
331
21D6
331
21DF
331
21E0
331
21E7
331
21E8
331
2200
331
2201
331
2209
331
220A
331
221C
331
221D
331
223F
331
2240
331
2248
331
2249
102
}
  0
ENDTAB
  0
ENDSEC
  0
SECTION
  2
BLOCKS
  0
BLOCK
  5
19
330
18
100
AcDbEntity
  8
0
100
AcDbBlockBegin
  2
*MODEL_SPACE
 70
     0
 10
0.0
 20
0.0
 30
0.0
  3
*MODEL_SPACE
  1

  0
ENDBLK
  5
1A
330
18
100
AcDbEntity
  8
0
100
AcDbBlockEnd
  0
BLOCK
  5
16
330
15
100
AcDbEntity
 67
     1
  8
0
100
AcDbBlockBegin
  2
*PAPER_SPACE
 70
     0
 10
0.0
 20
0.0
 30
0.0
  3
*PAPER_SPACE
  1

  0
ENDBLK
  5
17
330
15
100
AcDbEntity
 67
     1
  8
0
100
AcDbBlockEnd
  0
BLOCK
  5
46
330
45
100
AcDbEntity
  8
0
100
AcDbBlockBegin
  2
_OPEN
 70
     0
 10
0.0
 20
0.0
 30
0.0
  3
_OPEN
  1

  0
LINE
  5
47
330
45
100
AcDbEntity
  8
0
  6
ByBlock
 62
     0
100
AcDbLine
 10
-1.0
 20
0.1666666666666666
 30
0.0
 11
0.0
 21
0.0
 31
0.0
  0
LINE
  5
48
330
45
100
AcDbEntity
  8
0
  6
ByBlock
 62
     0
100
AcDbLine
 10
0.0
 20
0.0
 30
0.0
 11
-1.0
 21
-0.1666666666666666
 31
0.0
  0
LINE
  5
49
330
45
100
AcDbEntity
  8
0
  6
ByBlock
 62
     0
100
AcDbLine
 10
0.0
 20
0.0
 30
0.0
 11
-1.0
 21
0.0
 31
0.0
  0
ENDBLK
  5
4A
330
45
100
AcDbEntity
  8
0
100
AcDbBlockEnd
  0
ENDSEC
  0
SECTION
  2
ENTITIES
  0
LWPOLYLINE
  5
26C
330
18
100
AcDbEntity
  8
C
100
AcDbPolyline
 90
        5
 70
     0
 43
0.4
 10
0.0
 20
195.0
 10
255.0
 20
195.0
 10
255.0
 20
0.0
 10
0.0
 20
0.0
 10
0.0
 20
195.0
  0
LINE
  5
2CE
330
18
100
AcDbEntity
  8
中心線
 48
0.5
100
AcDbLine
 10
118.5985106994215
 20
116.9881649515785
 30
0.0
 11
180.3465038301318
 21
116.9881649515785
 31
0.0
  0
LINE
  5
2CF
330
18
100
AcDbEntity
  8
中心線
 48
0.5
100
AcDbLine
 10
148.7373917518181
 20
161.7941544775441
 30
0.0
 11
148.7373917518181
 21
41.69858055946486
 31
0.0
  0
CIRCLE
  5
DEF
330
18
100
AcDbEntity
  8
外形線
100
AcDbCircle
 10
148.7373917518181
 20
116.9881649515785
 30
0.0
 40
15.5
  0
CIRCLE
  5
DF0
330
18
100
AcDbEntity
  8
外形線
100
AcDbCircle
 10
148.7373917518181
 20
116.9881649515785
 30
0.0
 40
23.0
  0
CIRCLE
  5
DF1
330
18
100
AcDbEntity
  8
外形線
100
AcDbCircle
 10
148.7373917518181
 20
116.9881649515785
 30
0.0
 40
26.4
  0
LINE
  5
DF6
330
18
100
AcDbEntity
  8
目盛
100
AcDbLine
 10
148.7373917518181
 20
139.9881649515785
 30
0.0
 11
148.7373917518181
 21
137.7381649515785
 31
0.0
  0
LINE
  5
E01
330
18
100
AcDbEntity
  8
中心線
 48
0.2
100
AcDbLine
 10
145.537391751818
 20
112.9828385977844
 30
0.0
 11
145.537391751818
 21
103.4460298134699
 31
0.0
  0
LINE
  5
E03
330
18
100
AcDbEntity
  8
中心線
 48
0.2
100
AcDbLine
 10
139.3478151821418
 20
106.9141935400646
 30
0.0
 11
152.4646887833179
 21
106.9141935400646
 31
0.0
  0
LINE
  5
E2C
330
18
100
AcDbEntity
  8
外形線
  6
Continuous
100
AcDbLine
 10
152.4373917518181
 20
157.4881649515784
 30
0.0
 11
152.4373917518181
 21
150.9881649515784
 31
0.0
  0
LINE
  5
E2D
330
18
100
AcDbEntity
  8
外形線
  6
Continuous
100
AcDbLine
 10
145.0373917518182
 20
157.4881649515784
 30
0.0
 11
145.0373917518182
 21
150.9881649515784
 31
0.0
  0
LINE
  5
E2E
330
18
100
AcDbEntity
  8
外形線
  6
Continuous
100
AcDbLine
 10
145.0373917518182
 20
157.4881649515784
 30
0.0
 11
152.4373917518181
 21
157.4881649515784
 31
0.0
  0
LINE
  5
E2F
330
18
100
AcDbEntity
  8
外形線
  6
Continuous
100
AcDbLine
 10
144.7373917518182
 20
150.9881649515784
 30
0.0
 11
152.7373917518181
 21
150.9881649515784
 31
0.0
  0
LINE
  5
E30
330
18
100
AcDbEntity
  8
外形線
  6
Continuous
100
AcDbLine
 10
144.7373917518181
 20
144.9881649515784
 30
0.0
 11
152.7373917518181
 21
144.9881649515784
 31
0.0
  0
LINE
  5
E31
330
18
100
AcDbEntity
  8
外形線
  6
Continuous
100
AcDbLine
 10
152.7373917518181
 20
150.9881649515784
 30
0.0
 11
152.7373917518181
 21
144.9881649515784
 31
0.0
  0
LINE
  5
E32
330
18
100
AcDbEntity
  8
外形線
  6
Continuous
100
AcDbLine
 10
144.7373917518182
 20
150.9881649515784
 30
0.0
 11
144.7373917518182
 21
144.9881649515784
 31
0.0
  0
LINE
  5
E33
330
18
100
AcDbEntity
  8
外形線
  6
Continuous
100
AcDbLine
 10
152.4373917518181
 20
144.9881649515784
 30
0.0
 11
152.4373917518181
 21
143.1275987633503
 31
0.0
  0
LINE
  5
E34
330
18
100
AcDbEntity
  8
外形線
  6
Continuous
100
AcDbLine
 10
145.0373917518182
 20
144.9881649515784
 30
0.0
 11
145.0373917518182
 21
143.1275987633503
 31
0.0
  0
ARC
  5
E35
330
18
100
AcDbEntity
  8
外形線
  6
Continuous
100
AcDbCircle
 10
148.7373917518181
 20
151.1431649515786
 30
0.0
 40
7.344999999999885
100
AcDbArc
 50
59.75198538337817
 51
120.2480146166212
  0
MTEXT
  5
E68
330
18
100
AcDbEntity
  8
DEFPOINTS
  6
Continuous
100
AcDbMText
 10
764.663097508542
 20
89.43881470936148
 30
0.0
 40
1.0
 41
0.0
 71
     4
 72
     1
  1
\A1;
 73
     1
 44
1.0
  0
POINT
  5
E9F
330
18
100
AcDbEntity
  8
DEFPOINTS
  6
ByBlock
 62
     0
100
AcDbPoint
 10
148.7373917518181
 20
158.4881649515786
 30
0.0
  0
POINT
  5
EA0
330
18
100
AcDbEntity
  8
DEFPOINTS
  6
ByBlock
 62
     0
100
AcDbPoint
 10
148.737391751818
 20
116.9881649515785
 30
0.0
  0
POINT
  5
EA6
330
18
100
AcDbEntity
  8
DEFPOINTS
  6
ByBlock
 62
     0
100
AcDbPoint
 10
148.737391751818
 20
116.9881649515785
 30
0.0
  0
MTEXT
  5
EC2
330
18
100
AcDbEntity
  8
文字
100
AcDbMText
 10
331.8023070665415
 20
115.5167969475956
 30
0.0
 40
1.0
 41
6.927999999999999
 71
     1
 72
     5
  1

  7
STYLE3
 73
     1
 44
1.0
  0
MTEXT
  5
F23
330
18
100
AcDbEntity
  8
DEFPOINTS
  6
Continuous
100
AcDbMText
 10
653.5381167216829
 20
38.76434823504644
 30
0.0
 40
0.35
 41
0.0
 71
     4
 72
     1
  1
\A1;
 73
     1
 44
1.0
  0
CIRCLE
  5
FB9
330
18
100
AcDbEntity
  8
針
100
AcDbCircle
 10
148.737391751818
 20
116.9881649515785
 30
0.0
 40
1.9
  0
LINE
  5
FBA
330
18
100
AcDbEntity
  8
針
100
AcDbLine
 10
148.827391751818
 20
138.9881649515786
 30
0.0
 11
149.3373917518181
 21
120.0869550380476
 31
0.0
  0
ARC
  5
FBB
330
18
100
AcDbEntity
  8
針
100
AcDbCircle
 10
152.3373917518181
 20
120.0869550380476
 30
0.0
 40
3.0
100
AcDbArc
 50
180.0
 51
209.4722791770395
  0
LINE
  5
FBC
330
18
100
AcDbEntity
  8
針
100
AcDbLine
 10
148.7373917518181
 20
138.9881649515786
 30
0.0
 11
148.827391751818
 21
138.9881649515786
 31
0.0
  0
ARC
  5
FBD
330
18
100
AcDbEntity
  8
針
100
AcDbCircle
 10
145.137391751818
 20
120.0869550380477
 30
0.0
 40
3.0
100
AcDbArc
 50
330.5277208229603
 51
0.0
  0
LINE
  5
FBE
330
18
100
AcDbEntity
  8
針
100
AcDbLine
 10
148.6473917518181
 20
138.9881649515786
 30
0.0
 11
148.1373917518179
 21
120.0869550380476
 31
0.0
  0
LINE
  5
FBF
330
18
100
AcDbEntity
  8
針
100
AcDbLine
 10
148.737391751818
 20
138.9881649515786
 30
0.0
 11
148.6473917518181
 21
138.9881649515786
 31
0.0
  0
CIRCLE
  5
FC0
330
18
100
AcDbEntity
  8
針
100
AcDbCircle
 10
148.737391751818
 20
116.9881649515785
 30
0.0
 40
0.475
  0
CIRCLE
  5
FC1
330
18
100
AcDbEntity
  8
針
100
AcDbCircle
 10
148.737391751818
 20
116.9881649515785
 30
0.0
 40
1.5
  0
HATCH
  5
FC2
330
18
100
AcDbEntity
  8
針
100
AcDbHatch
 10
0.0
 20
0.0
 30
0.0
210
0.0
220
0.0
230
1.0
  2
SOLID
 70
     1
 71
     0
 91
        2
 92
        7
 72
     1
 73
     1
 93
        5
 10
148.827391751818
 20
138.9881649515786
 42
0.0
 10
148.7373917518181
 20
138.9881649515786
 42
0.0
 10
148.6473917518181
 20
138.9881649515786
 42
0.0
 10
148.4719448193231
 20
132.4858918147682
 42
-0.0085634322047721
 10
149.002838684313
 20
132.4858918147681
 42
0.0
 97
        0
 92
        7
 72
     1
 73
     1
 93
        6
 10
149.002838684313
 20
132.4858918147681
 42
0.0085634322047721
 10
148.4719448193231
 20
132.4858918147682
 42
0.0
 10
148.1373917518179
 20
120.0869550380472
 42
-0.1293106770632391
 10
147.7491732665655
 20
118.6109478161064
 42
-0.2805221108582334
 10
149.7256102370706
 20
118.6109478161064
 42
-0.1293106770632486
 10
149.3373917518181
 20
120.0869550380472
 42
0.0
 97
        0
 75
     0
 76
     1
 47
0.0423559757596284
 98
        2
 10
148.6968289893537
 20
133.1141458269275
 10
148.8239951067452
 20
128.7091243234482
450
        0
451
        0
460
0.0
461
0.0
452
        0
462
0.0
453
        0
470

  0
CIRCLE
  5
FE9
330
18
100
AcDbEntity
  8
針
100
AcDbCircle
 10
148.7373917518181
 20
116.9881649515785
 30
0.0
 40
0.0000000000000568
  0
MTEXT
  5
1461
330
18
100
AcDbEntity
  8
DEFPOINTS
  6
Continuous
100
AcDbMText
 10
859.462339754299
 20
192.7492810579137
 30
0.0
 40
1.0
 41
0.0
 71
     4
 72
     1
  1
\A1;
 73
     1
 44
1.0
  0
MTEXT
  5
14BC
330
18
100
AcDbEntity
  8
文字
100
AcDbMText
 10
426.6015493122985
 20
218.8272632961478
 30
0.0
 40
1.0
 41
6.927999999999999
 71
     1
 72
     5
  1

  7
STYLE3
 73
     1
 44
1.0
  0
MTEXT
  5
151D
330
18
100
AcDbEntity
  8
DEFPOINTS
  6
Continuous
100
AcDbMText
 10
748.3373589674401
 20
142.0748145835986
 30
0.0
 40
0.35
 41
0.0
 71
     4
 72
     1
  1
\A1;
 73
     1
 44
1.0
  0
MTEXT
  5
1579
330
18
100
AcDbEntity
  8
DEFPOINTS
  6
Continuous
100
AcDbMText
 10
1359.9009871264
 20
367.9624695669154
 30
0.0
 40
1.0
 41
0.0
 71
     4
 72
     1
  1
\A1;
 73
     1
 44
1.0
  0
MTEXT
  5
157A
330
18
100
AcDbEntity
  8
文字
100
AcDbMText
 10
927.0401966843992
 20
394.0404518051495
 30
0.0
 40
1.0
 41
6.927999999999999
 71
     1
 72
     5
  1

  7
STYLE3
 73
     1
 44
1.0
  0
MTEXT
  5
157B
330
18
100
AcDbEntity
  8
DEFPOINTS
  6
Continuous
100
AcDbMText
 10
1248.776006339541
 20
317.2880030926003
 30
0.0
 40
0.35
 41
0.0
 71
     4
 72
     1
  1
\A1;
 73
     1
 44
1.0
  0
LINE
  5
1820
330
18
100
AcDbEntity
  8
寸法線
100
AcDbLine
 10
53.10997875262382
 20
60.48816495157854
 30
0.0
 11
70.91273797705136
 21
60.48816495157854
 31
0.0
  0
ARC
  5
1943
330
18
100
AcDbEntity
  8
外形線
100
AcDbCircle
 10
148.7373917518181
 20
118.9881649515786
 30
0.0
 40
27.5
100
AcDbArc
 50
324.8748981500672
 51
18.06096510426785
  0
ARC
  5
1947
330
18
100
AcDbEntity
  8
外形線
100
AcDbCircle
 10
185.2373917518181
 20
110.9881649515785
 30
0.0
 40
17.0
100
AcDbArc
 50
0.0000000000043106
 51
102.2804014166684
  0
ARC
  5
1948
330
18
100
AcDbEntity
  8
外形線
100
AcDbCircle
 10
185.2373917518181
 20
110.9881649515785
 30
0.0
 40
22.0
100
AcDbArc
 50
359.8960409502883
 51
113.2588226306386
  0
ARC
  5
1949
330
18
100
AcDbEntity
  8
外形線
100
AcDbCircle
 10
177.734570466492
 20
128.4440428372782
 30
0.0
 40
3.0
100
AcDbArc
 50
113.2588226306383
 51
198.0609651042675
  0
ARC
  5
194A
330
18
100
AcDbEntity
  8
外形線
100
AcDbCircle
 10
148.7373917518181
 20
118.9881649515786
 30
0.0
 40
31.0
100
AcDbArc
 50
282.6356250930212
 51
9.616271099638414
  0
ARC
  5
194B
330
18
100
AcDbEntity
  8
外形線
100
AcDbCircle
 10
182.2596454306568
 20
124.6678223612804
 30
0.0
 40
3.0
100
AcDbArc
 50
102.280401416668
 51
189.6162710996384
  0
ARC
  5
194F
330
18
100
AcDbEntity
  8
外形線
100
AcDbCircle
 10
165.9373917518181
 20
60.98816495157857
 30
0.0
 40
18.0
100
AcDbArc
 50
231.0575587310185
 51
309.4716390250991
  0
LINE
  5
1974
330
18
100
AcDbEntity
  8
外形線
100
AcDbLine
 10
135.2373917518181
 20
91.98816495157855
 30
0.0
 11
140.2544677276387
 21
91.98816495157855
 31
0.0
  0
LINE
  5
1975
330
18
100
AcDbEntity
  8
外形線
100
AcDbLine
 10
135.2373917518181
 20
73.98816495157856
 30
0.0
 11
166.9373917518181
 21
73.98816495157856
 31
0.0
  0
LINE
  5
1976
330
18
100
AcDbEntity
  8
外形線
100
AcDbLine
 10
134.2373917518181
 20
90.98816495157853
 30
0.0
 11
134.2373917518181
 21
74.98816495157857
 31
0.0
  0
LINE
  5
1977
330
18
100
AcDbEntity
  8
外形線
100
AcDbLine
 10
154.7373917518181
 20
87.76317495958659
 30
0.0
 11
154.7373917518181
 21
76.98816495157856
 31
0.0
  0
LINE
  5
1978
330
18
100
AcDbEntity
  8
外形線
100
AcDbLine
 10
168.9373917518181
 20
71.98816495157856
 30
0.0
 11
168.9373917518181
 21
58.98816495157858
 31
0.0
  0
ARC
  5
1979
330
18
100
AcDbEntity
  8
外形線
100
AcDbCircle
 10
166.9373917518181
 20
71.98816495157856
 30
0.0
 40
2.0
100
AcDbArc
 50
0.0
 51
90.0
  0
LINE
  5
197A
330
18
100
AcDbEntity
  8
外形線
100
AcDbLine
 10
145.4873917518181
 20
56.98816495157856
 30
0.0
 11
166.9373917518181
 21
56.98816495157858
 31
0.0
  0
ARC
  5
197B
330
18
100
AcDbEntity
  8
外形線
100
AcDbCircle
 10
166.9373917518181
 20
58.98816495157858
 30
0.0
 40
2.0
100
AcDbArc
 50
270.0
 51
0.0
  0
LINE
  5
197C
330
18
100
AcDbEntity
  8
外形線
100
AcDbLine
 10
155.7373917518181
 20
75.98816495157857
 30
0.0
 11
166.9373917518181
 21
75.98816495157857
 31
0.0
  0
ARC
  5
197D
330
18
100
AcDbEntity
  8
外形線
100
AcDbCircle
 10
166.9373917518181
 20
71.98816495157856
 30
0.0
 40
4.0
100
AcDbArc
 50
0.0
 51
90.0
  0
LINE
  5
197E
330
18
100
AcDbEntity
  8
外形線
100
AcDbLine
 10
170.9373917518181
 20
71.98816495157856
 30
0.0
 11
170.9373917518181
 21
58.98816495157858
 31
0.0
  0
ARC
  5
197F
330
18
100
AcDbEntity
  8
外形線
100
AcDbCircle
 10
166.9373917518181
 20
58.98816495157858
 30
0.0
 40
4.0
100
AcDbArc
 50
270.0
 51
0.0
  0
LINE
  5
1980
330
18
100
AcDbEntity
  8
外形線
100
AcDbLine
 10
153.9873917518181
 20
54.98816495157857
 30
0.0
 11
166.9373917518181
 21
54.98816495157858
 31
0.0
  0
LINE
  5
1981
330
18
100
AcDbEntity
  8
外形線
100
AcDbLine
 10
145.4873917518181
 20
46.98816495157856
 30
0.0
 11
154.6236832528333
 21
46.98816495157858
 31
0.0
  0
ARC
  5
1985
330
18
100
AcDbEntity
  8
外形線
100
AcDbCircle
 10
165.9373917518181
 20
71.48816495157856
 30
0.0
 40
16.5
100
AcDbArc
 50
354.4599027282282
 51
84.27465976477021
  0
ARC
  5
1986
330
18
100
AcDbEntity
  8
外形線
100
AcDbCircle
 10
167.8827083154875
 20
90.89089010726516
 30
0.0
 40
3.0
100
AcDbArc
 50
124.2702855343256
 51
264.2746597647699
  0
ARC
  5
1988
330
18
100
AcDbEntity
  8
外形線
100
AcDbCircle
 10
127.2460912760344
 20
112.1304665539296
 30
0.0
 40
75.0
100
AcDbArc
 50
323.7987484853825
 51
359.1273121143772
  0
ARC
  5
198A
330
18
100
AcDbEntity
  8
外形線
100
AcDbCircle
 10
185.3463048912002
 20
69.60558938923802
 30
0.0
 40
3.0
100
AcDbArc
 50
174.4599027282285
 51
323.7987484853812
  0
ARC
  5
198B
330
18
100
AcDbEntity
  8
外形線
100
AcDbCircle
 10
116.5863928798477
 20
114.4270974039404
 30
0.0
 40
90.7176908165943
100
AcDbArc
 50
312.0778514523193
 51
357.8022776228672
  0
ARC
  5
1991
330
18
100
AcDbEntity
  8
外形線
100
AcDbCircle
 10
135.2373917518181
 20
90.98816495157853
 30
0.0
 40
1.0
100
AcDbArc
 50
89.99999999999992
 51
180.0
  0
ARC
  5
1992
330
18
100
AcDbEntity
  8
外形線
100
AcDbCircle
 10
135.2373917518181
 20
74.98816495157857
 30
0.0
 40
1.0
100
AcDbArc
 50
180.0
 51
270.0
  0
LINE
  5
1993
330
18
100
AcDbEntity
  8
外形線
100
AcDbLine
 10
152.9873917518181
 20
53.98816495157856
 30
0.0
 11
152.9873917518181
 21
46.98816495157858
 31
0.0
  0
ARC
  5
1994
330
18
100
AcDbEntity
  8
外形線
100
AcDbCircle
 10
153.9873917518181
 20
53.98816495157856
 30
0.0
 40
1.0
100
AcDbArc
 50
90.00000000000005
 51
180.0
  0
LINE
  5
1995
330
18
100
AcDbEntity
  8
外形線
100
AcDbLine
 10
144.4873917518181
 20
55.98816495157857
 30
0.0
 11
144.4873917518181
 21
47.98816495157857
 31
0.0
  0
ARC
  5
1996
330
18
100
AcDbEntity
  8
外形線
100
AcDbCircle
 10
145.4873917518181
 20
55.98816495157857
 30
0.0
 40
1.0
100
AcDbArc
 50
90.00000000000003
 51
180.0
  0
ARC
  5
1997
330
18
100
AcDbEntity
  8
外形線
100
AcDbCircle
 10
145.4873917518181
 20
47.98816495157857
 30
0.0
 40
1.0
100
AcDbArc
 50
180.0
 51
270.0000000000001
  0
ARC
  5
1998
330
18
100
AcDbEntity
  8
外形線
100
AcDbCircle
 10
155.7373917518181
 20
87.76317495958659
 30
0.0
 40
1.0
100
AcDbArc
 50
102.6356250930213
 51
180.0
  0
ARC
  5
1999
330
18
100
AcDbEntity
  8
外形線
100
AcDbCircle
 10
155.7373917518181
 20
76.98816495157856
 30
0.0
 40
1.0
100
AcDbArc
 50
180.0000000000002
 51
270.0
  0
LINE
  5
199A
330
18
100
AcDbEntity
  8
中心線
 48
0.4
100
AcDbLine
 10
142.2373917518181
 20
88.94619327320574
 30
0.0
 11
142.2373917518181
 21
76.61144906182457
 31
0.0
  0
LINE
  5
199B
330
18
100
AcDbEntity
  8
中心線
 48
0.4
100
AcDbLine
 10
136.0477648415534
 20
82.98816495157854
 30
0.0
 11
148.3021906641144
 21
82.98816495157854
 31
0.0
  0
TEXT
  5
1A5B
330
18
100
AcDbEntity
  8
文字
100
AcDbText
 10
145.8388317660665
 20
109.5882760602096
 30
0.0
 40
1.0
  1
.4
  7
STYLE3
100
AcDbText
  0
ARC
  5
1A5C
330
18
100
AcDbEntity
  8
外形線
100
AcDbCircle
 10
145.537391751818
 20
106.9141935400646
 30
0.0
 40
4.75
100
AcDbArc
 50
0.0
 51
180.0
  0
LINE
  5
1A5D
102
{ACAD_REACTORS
330
1A5F
102
}
330
18
100
AcDbEntity
  8
ROGO
 62
     4
100
AcDbLine
 10
146.8114085129261
 20
128.0759276840755
 30
0.0
 11
145.9123670300448
 21
126.8291973374391
 31
0.0
  0
LINE
  5
1A5E
102
{ACAD_REACTORS
330
1A5F
102
}
330
18
100
AcDbEntity
  8
ROGO
 62
     4
100
AcDbLine
 10
146.7740044255849
 20
127.0665670816715
 30
0.0
 11
146.6028324897919
 21
126.8291973374392
 31
0.0
  0
HATCH
  5
1A5F
330
18
100
AcDbEntity
  8
ROGO
 62
     4
100
AcDbHatch
 10
0.0
 20
0.0
 30
0.0
210
0.0
220
0.0
230
1.0
  2
SOLID
 70
     1
 71
     1
 91
        2
 92
        7
 72
     0
 73
     1
 93
        8
 10
147.808686016505
 20
128.0759276840757
 10
146.8114085129261
 20
128.0759276840755
 10
145.9123670300448
 20
126.8291973374391
 10
146.6028324897919
 20
126.8291973374391
 10
146.7740044255849
 20
127.0665670816716
 10
147.5619089453499
 20
127.0665670816715
 10
147.6673579913083
 20
126.8291973374391
 10
148.3625330370902
 20
126.8291973374392
 97
        8
330
1AE4
330
1A5D
330
1A7A
330
1A5E
330
1AE2
330
1A93
330
1AAD
330
1A92
 92
       22
 72
     0
 73
     1
 93
        3
 10
147.4506886567789
 20
127.3169281087591
 10
146.9545446279276
 20
127.3169281087591
 10
147.2615565303254
 20
127.7426715953347
 97
        3
330
1AE3
330
1AE1
330
1AE5
 75
     0
 76
     1
 47
0.0128389261915577
 98
        2
 10
147.7305913079566
 20
127.7768195589872
 10
147.7305913079566
 20
127.7768195589872
450
        0
451
        0
460
0.0
461
0.0
452
        0
462
0.0
453
        0
470

  0
LINE
  5
1A60
102
{ACAD_REACTORS
330
1A6B
330
1A96
102
}
330
18
100
AcDbEntity
  8
ROGO
 62
     4
100
AcDbLine
 10
141.2373917518181
 20
126.1278262299004
 30
0.0
 11
154.4240997728893
 21
126.1278262299004
 31
0.0
  0
LINE
  5
1A61
330
18
100
AcDbEntity
  8
ROGO
 62
     4
100
AcDbLine
 10
142.2177553384925
 20
126.3230943085529
 30
0.0
 11
153.8036232484884
 21
126.3230943085529
 31
0.0
  0
HATCH
  5
1A62
330
18
100
AcDbEntity
  8
ROGO
 62
     4
100
AcDbHatch
 10
0.0
 20
0.0
 30
0.0
210
0.0
220
0.0
230
1.0
  2
SOLID
 70
     1
 71
     0
 91
        1
 92
        7
 72
     0
 73
     1
 93
        4
 10
142.2312973868262
 20
126.3230943085529
 10
142.1429525690175
 20
126.1278262299004
 10
153.7062562779004
 20
126.1278262299005
 10
153.8036232484883
 20
126.3230943085529
 97
        0
 75
     0
 76
     1
 47
0.0514683685270805
 98
        1
 10
149.5382821920214
 20
126.2714490399343
450
        0
451
        0
460
0.0
461
0.0
452
        0
462
0.0
453
        0
470

  0
TEXT
  5
1A63
330
18
100
AcDbEntity
  8
文字
100
AcDbText
 10
142.4592352504341
 20
123.7969400212349
 30
0.0
 40
1.0
  1
MADE  IN  JAPAN
  7
STYLE3
100
AcDbText
  0
TEXT
  5
1A64
330
18
100
AcDbEntity
  8
文字
100
AcDbText
 10
142.1195554550094
 20
121.4873135207122
 30
0.0
 40
1.3
  1
MODEL  G-6C
  7
STYLE3
100
AcDbText
  0
SPLINE
  5
1A66
102
{ACAD_REACTORS
330
1A6B
102
}
330
18
100
AcDbEntity
  8
ROGO
 62
     4
100
AcDbSpline
210
0.0
220
0.0
230
1.0
 70
     8
 71
     3
 72
    18
 73
    14
 74
     0
 42
0.0000000001
 43
0.0000000001
 40
0.1087402787915014
 40
0.1087402787915014
 40
0.1087402787915014
 40
0.1087402787915014
 40
0.5992371417938475
 40
1.083176791562496
 40
1.448211145705696
 40
1.714037220764907
 40
2.164002567013297
 40
2.740236056362883
 40
3.395137510199602
 40
4.071816045172726
 40
4.784906178399433
 40
5.506895915094292
 40
6.060470601257719
 40
6.060470601257719
 40
6.060470601257719
 40
6.060470601257719
 10
143.7322376460031
 20
128.0759276840756
 30
0.0
 10
143.7812844128643
 20
128.0579528659328
 30
0.0
 10
143.877734373939
 20
128.0199513535386
 30
0.0
 10
143.995448841013
 20
127.9332193453635
 30
0.0
 10
144.0596452285772
 20
127.8330943288776
 30
0.0
 10
144.121394966268
 20
127.7344390527114
 30
0.0
 10
144.1300367293378
 20
127.5929013735797
 30
0.0
 10
144.1158809376041
 20
127.413963442218
 30
0.0
 10
144.0244924250333
 20
127.2272601761263
 30
0.0
 10
143.8778084873634
 20
127.0639621936706
 30
0.0
 10
143.695690142327
 20
126.9332606181758
 30
0.0
 10
143.5036400656454
 20
126.830663247187
 30
0.0
 10
143.3663626168469
 20
126.8296409835919
 30
0.0
 10
143.3067863859062
 20
126.8291973374391
 30
0.0
  0
LINE
  5
1A67
102
{ACAD_REACTORS
330
1A69
102
}
330
18
100
AcDbEntity
  8
ROGO
 62
     4
100
AcDbLine
 10
144.6366810274044
 20
128.0759276840755
 30
0.0
 11
144.0198104466061
 21
126.8291973374391
 31
0.0
  0
LINE
  5
1A68
102
{ACAD_REACTORS
330
1A69
102
}
330
18
100
AcDbEntity
  8
ROGO
 62
     4
100
AcDbLine
 10
145.8473646474256
 20
127.1147717027613
 30
0.0
 11
145.7060651073345
 21
126.8291973374391
 31
0.0
  0
HATCH
  5
1A69
330
18
100
AcDbEntity
  8
ROGO
 62
     4
100
AcDbHatch
 10
0.0
 20
0.0
 30
0.0
210
0.0
220
0.0
230
1.0
  2
SOLID
 70
     1
 71
     1
 91
        1
 92
        1
 93
       12
 72
     1
 10
144.6366810274044
 20
128.0759276840755
 11
146.3229356881328
 21
128.0759276840756
 72
     1
 10
146.3229356881328
 20
128.0759276840755
 11
146.1816290401601
 21
127.7903389533225
 72
     1
 10
146.1816290401601
 20
127.7903389533225
 11
145.2953762011908
 21
127.7903389533225
 72
     1
 10
145.2953762011908
 20
127.7903389533225
 11
145.184891962048
 21
127.5670440547617
 72
     1
 10
145.184891962048
 20
127.5670440547617
 11
146.0711448010172
 21
127.5670440547617
 72
     1
 10
146.0711448010172
 20
127.5670440547617
 11
145.95785356394
 21
127.3380760545546
 72
     1
 10
145.95785356394
 20
127.3380760545546
 11
145.0716007249709
 21
127.3380760545546
 72
     1
 10
145.0716007249709
 20
127.3380760545546
 11
144.9611118084564
 21
127.1147717027613
 72
     1
 10
144.9611118084565
 20
127.1147717027613
 11
145.8473646474256
 21
127.1147717027613
 72
     1
 10
145.8473646474256
 20
127.1147717027613
 11
145.7060651073345
 21
126.8291973374391
 72
     1
 10
145.7060651073345
 20
126.8291973374391
 11
144.0198104466061
 21
126.8291973374391
 72
     1
 10
144.0198104466061
 20
126.8291973374391
 11
144.6366810274044
 21
128.0759276840755
 97
       12
330
1A85
330
1A7D
330
1A7F
330
1A7E
330
1A80
330
1A83
330
1A82
330
1A84
330
1A81
330
1A68
330
1A79
330
1A67
 75
     0
 76
     1
 98
        1
 10
75.66095841135279
 20
41.87010293026756
450
        0
451
        0
460
0.0
461
0.0
452
        0
462
0.0
453
        0
470

  0
LINE
  5
1A6A
102
{ACAD_REACTORS
330
1A6B
102
}
330
18
100
AcDbEntity
  8
ROGO
 62
     4
100
AcDbLine
 10
142.2012942338047
 20
128.0759276840755
 30
0.0
 11
141.2373917518181
 21
126.1278262299004
 31
0.0
  0
HATCH
  5
1A6B
330
18
100
AcDbEntity
  8
ROGO
 62
     4
100
AcDbHatch
 10
0.0
 20
0.0
 30
0.0
210
0.0
220
0.0
230
1.0
  2
SOLID
 70
     1
 71
     1
 91
        2
 92
        5
 93
        6
 72
     1
 10
141.2373917518181
 20
126.1278262299004
 11
142.1429525690175
 21
126.1278262299004
 72
     1
 10
142.1429525690175
 20
126.1278262299004
 11
142.4602727533476
 21
126.8291973374392
 72
     1
 10
142.4602727533476
 20
126.8291973374392
 11
143.3067863859062
 21
126.8291973374391
 72
     4
 94
        3
 73
     0
 74
     0
 95
       18
 96
       14
 40
0.108740278791501
 40
0.108740278791501
 40
0.108740278791501
 40
0.108740278791501
 40
0.6623149649549278
 40
1.384304701649787
 40
2.097394834876493
 40
2.774073369849618
 40
3.428974823686337
 40
4.005208313035923
 40
4.455173659284313
 40
4.720999734343524
 40
5.086034088486724
 40
5.569973738255373
 40
6.060470601257719
 40
6.060470601257719
 40
6.060470601257719
 40
6.060470601257719
 10
143.3067863859062
 20
126.8291973374391
 10
143.3663626168469
 20
126.8296409835919
 10
143.5036400656454
 20
126.830663247187
 10
143.695690142327
 20
126.9332606181758
 10
143.8778084873634
 20
127.0639621936706
 10
144.0244924250333
 20
127.2272601761263
 10
144.1158809376041
 20
127.413963442218
 10
144.1300367293378
 20
127.5929013735797
 10
144.121394966268
 20
127.7344390527114
 10
144.0596452285772
 20
127.8330943288776
 10
143.995448841013
 20
127.9332193453635
 10
143.877734373939
 20
128.0199513535386
 10
143.7812844128643
 20
128.0579528659328
 10
143.7322376460031
 20
128.0759276840756
 72
     1
 10
143.7322376460033
 20
128.0759276840755
 11
142.2012942338047
 21
128.0759276840756
 72
     1
 10
142.2012942338047
 20
128.0759276840756
 11
141.2373917518181
 21
126.1278262299004
 97
        6
330
1A66
330
1A7B
330
1A6A
330
1A60
330
1A78
330
1A77
 92
       20
 93
        4
 72
     1
 10
142.6562000032986
 20
127.2622542908923
 11
142.8062067868887
 21
127.5938134829652
 72
     1
 10
142.8062067868887
 20
127.5938134829652
 11
143.1916602888868
 21
127.5938134829652
 72
     4
 94
        3
 73
     0
 74
     0
 95
       15
 96
       11
 40
0.0
 40
0.0
 40
0.0
 40
0.0
 40
0.1461831775054869
 40
0.2128346657926855
 40
0.2884885421222081
 40
0.3400274801801145
 40
0.4215368452530754
 40
0.4703587283434508
 40
0.5541210812769089
 40
0.5820418834082098
 40
0.5820418834082098
 40
0.5820418834082098
 40
0.5820418834082098
 10
143.1916602888868
 20
127.5938134829651
 10
143.2465638555351
 20
127.5940649706071
 10
143.3265004286608
 20
127.5944311227809
 10
143.3702125938653
 20
127.4955493506563
 10
143.3506187172174
 20
127.4318849147763
 10
143.3259876173444
 20
127.366521381898
 10
143.282458885293
 20
127.3221058754849
 10
143.2240369510989
 20
127.2793262553889
 10
143.1688254314228
 20
127.2741475908181
 10
143.1329165355757
 20
127.2646329517884
 10
143.1239393073167
 20
127.2622542908923
 72
     1
 10
143.1239393073167
 20
127.2622542908923
 11
142.6562000032986
 21
127.2622542908923
 97
        4
330
1A86
330
1A87
330
1A7C
330
1A88
 75
     0
 76
     1
 47
0.0514683685270805
 98
        2
 10
142.20947688882
 20
127.4700164311891
 10
142.20947688882
 20
127.4700164311891
450
        0
451
        0
460
0.0
461
0.0
452
        0
462
0.0
453
        0
470

  0
TEXT
  5
1A6C
330
18
100
AcDbEntity
  8
文字
100
AcDbText
 10
142.3186592334561
 20
108.5608244592764
 30
0.0
 40
1.0
  1
.8
  7
STYLE3
100
AcDbText
  0
TEXT
  5
1A6D
330
18
100
AcDbEntity
  8
文字
100
AcDbText
 10
141.3036828427415
 20
106.4579678882697
 30
0.0
 40
1.0
  1
1.0
  7
STYLE3
100
AcDbText
  0
LINE
  5
1A6E
330
18
100
AcDbEntity
  8
外形線
100
AcDbLine
 10
141.287391751818
 20
106.9141935400646
 30
0.0
 11
140.787391751818
 21
106.9141935400646
 31
0.0
  0
LINE
  5
1A6F
330
18
100
AcDbEntity
  8
外形線
100
AcDbLine
 10
141.4954015575636
 20
108.2275157661581
 30
0.0
 11
141.019873299416
 21
108.3820242633456
 31
0.0
  0
LINE
  5
1A71
330
18
100
AcDbEntity
  8
外形線
100
AcDbLine
 10
142.0990695257245
 20
109.4122808623076
 30
0.0
 11
141.694561028537
 21
109.7061734884539
 31
0.0
  0
TEXT
  5
1A72
330
18
100
AcDbEntity
  8
文字
100
AcDbText
 10
143.970875529429
 20
109.6128415809401
 30
0.0
 40
1.0
  1
.6
  7
STYLE3
100
AcDbText
  0
LINE
  5
1A73
330
18
100
AcDbEntity
  8
外形線
100
AcDbLine
 10
143.039304429575
 20
110.3525157661581
 30
0.0
 11
142.7454118034288
 21
110.7570242633456
 31
0.0
  0
LINE
  5
1A74
330
18
100
AcDbEntity
  8
外形線
100
AcDbLine
 10
144.2240695257245
 20
110.956183734319
 30
0.0
 11
144.069561028537
 21
111.4317119924666
 31
0.0
  0
POINT
  5
1A75
330
18
100
AcDbEntity
  8
DEFPOINTS
  6
ByBlock
 62
     0
100
AcDbPoint
 10
144.0695610285371
 20
111.4317119924666
 30
0.0
  0
LINE
  5
1A76
330
18
100
AcDbEntity
  8
外形線
100
AcDbLine
 10
145.537391751818
 20
111.1641935400646
 30
0.0
 11
145.537391751818
 21
111.6641935400646
 31
0.0
  0
LINE
  5
1A77
102
{ACAD_REACTORS
330
1A6B
102
}
330
18
100
AcDbEntity
  8
ROGO
 62
     4
100
AcDbLine
 10
143.3067863861997
 20
126.8291973374391
 30
0.0
 11
142.4602727533475
 21
126.8291973374391
 31
0.0
  0
LINE
  5
1A78
102
{ACAD_REACTORS
330
1A6B
102
}
330
18
100
AcDbEntity
  8
ROGO
 62
     4
100
AcDbLine
 10
142.4602727533475
 20
126.8291973374391
 30
0.0
 11
142.1429525690175
 21
126.1278262299004
 31
0.0
  0
LINE
  5
1A79
102
{ACAD_REACTORS
330
1A69
102
}
330
18
100
AcDbEntity
  8
ROGO
 62
     4
100
AcDbLine
 10
144.0198104466061
 20
126.8291973374391
 30
0.0
 11
145.7060651073345
 21
126.8291973374391
 31
0.0
  0
LINE
  5
1A7A
102
{ACAD_REACTORS
330
1A5F
102
}
330
18
100
AcDbEntity
  8
ROGO
 62
     4
100
AcDbLine
 10
145.9123670300448
 20
126.8291973374391
 30
0.0
 11
146.6028324897918
 21
126.8291973374391
 31
0.0
  0
LINE
  5
1A7B
102
{ACAD_REACTORS
330
1A6B
102
}
330
18
100
AcDbEntity
  8
ROGO
 62
     4
100
AcDbLine
 10
142.2012942338047
 20
128.0759276840755
 30
0.0
 11
143.7322376460031
 21
128.0759276840755
 31
0.0
  0
SPLINE
  5
1A7C
102
{ACAD_REACTORS
330
1A6B
102
}
330
18
100
AcDbEntity
  8
ROGO
 62
     4
100
AcDbSpline
210
0.0
220
0.0
230
1.0
 70
     8
 71
     3
 72
    15
 73
    11
 74
     9
 42
0.0000000001
 43
0.0000000001
 44
0.0000000001
 40
0.0
 40
0.0
 40
0.0
 40
0.0
 40
0.1461831775054869
 40
0.2128346657926855
 40
0.2884885421222081
 40
0.3400274801801145
 40
0.4215368452530754
 40
0.4703587283434508
 40
0.5541210812769089
 40
0.5820418834082098
 40
0.5820418834082098
 40
0.5820418834082098
 40
0.5820418834082098
 10
143.1916602888868
 20
127.5938134829651
 30
0.0
 10
143.2465638555351
 20
127.5940649706071
 30
0.0
 10
143.3265004286608
 20
127.5944311227809
 30
0.0
 10
143.3702125938653
 20
127.4955493506563
 30
0.0
 10
143.3506187172174
 20
127.4318849147763
 30
0.0
 10
143.3259876173444
 20
127.366521381898
 30
0.0
 10
143.282458885293
 20
127.3221058754849
 30
0.0
 10
143.2240369510989
 20
127.2793262553889
 30
0.0
 10
143.1688254314228
 20
127.2741475908181
 30
0.0
 10
143.1329165355757
 20
127.2646329517884
 30
0.0
 10
143.1239393073167
 20
127.2622542908923
 30
0.0
 11
143.1916602888868
 21
127.5938134829651
 31
0.0
 11
143.3338744670069
 21
127.5599808223066
 31
0.0
 11
143.3609629375168
 21
127.4990822537165
 31
0.0
 11
143.3474188969664
 21
127.4246506208629
 31
0.0
 11
143.3271026414363
 21
127.377284895941
 31
0.0
 11
143.2729257004165
 21
127.3163863273508
 31
0.0
 11
143.2322931893562
 21
127.2893201988241
 31
0.0
 11
143.1510277778266
 21
127.269020823024
 31
0.0
 11
143.1239393073167
 21
127.2622542908923
 31
0.0
  0
LINE
  5
1A7D
102
{ACAD_REACTORS
330
1A69
102
}
330
18
100
AcDbEntity
  8
ROGO
 62
     4
100
AcDbLine
 10
146.3229356881328
 20
128.0759276840755
 30
0.0
 11
146.1816290401601
 21
127.7903389533225
 31
0.0
  0
LINE
  5
1A7E
102
{ACAD_REACTORS
330
1A69
102
}
330
18
100
AcDbEntity
  8
ROGO
 62
     4
100
AcDbLine
 10
145.2953762011908
 20
127.7903389533225
 30
0.0
 11
145.184891962048
 21
127.5670440547617
 31
0.0
  0
LINE
  5
1A7F
102
{ACAD_REACTORS
330
1A69
102
}
330
18
100
AcDbEntity
  8
ROGO
 62
     4
100
AcDbLine
 10
145.2953762011908
 20
127.7903389533225
 30
0.0
 11
146.1816290401601
 21
127.7903389533225
 31
0.0
  0
LINE
  5
1A80
102
{ACAD_REACTORS
330
1A69
102
}
330
18
100
AcDbEntity
  8
ROGO
 62
     4
100
AcDbLine
 10
145.184891962048
 20
127.5670440547617
 30
0.0
 11
146.0711448010172
 21
127.5670440547617
 31
0.0
  0
LINE
  5
1A81
102
{ACAD_REACTORS
330
1A69
102
}
330
18
100
AcDbEntity
  8
ROGO
 62
     4
100
AcDbLine
 10
144.9611118084565
 20
127.1147717027613
 30
0.0
 11
145.8473646474256
 21
127.1147717027613
 31
0.0
  0
LINE
  5
1A82
102
{ACAD_REACTORS
330
1A69
102
}
330
18
100
AcDbEntity
  8
ROGO
 62
     4
100
AcDbLine
 10
145.0716007249709
 20
127.3380760545546
 30
0.0
 11
145.95785356394
 21
127.3380760545546
 31
0.0
  0
LINE
  5
1A83
102
{ACAD_REACTORS
330
1A69
102
}
330
18
100
AcDbEntity
  8
ROGO
 62
     4
100
AcDbLine
 10
146.0711448010172
 20
127.5670440547617
 30
0.0
 11
145.95785356394
 21
127.3380760545546
 31
0.0
  0
LINE
  5
1A84
102
{ACAD_REACTORS
330
1A69
102
}
330
18
100
AcDbEntity
  8
ROGO
 62
     4
100
AcDbLine
 10
145.0716007249709
 20
127.3380760545546
 30
0.0
 11
144.9611118084564
 21
127.1147717027613
 31
0.0
  0
LINE
  5
1A85
102
{ACAD_REACTORS
330
1A69
102
}
330
18
100
AcDbEntity
  8
ROGO
 62
     4
100
AcDbLine
 10
144.6366810274044
 20
128.0759276840755
 30
0.0
 11
146.3229356881328
 21
128.0759276840756
 31
0.0
  0
LINE
  5
1A86
102
{ACAD_REACTORS
330
1A6B
102
}
330
18
100
AcDbEntity
  8
ROGO
 62
     4
100
AcDbLine
 10
142.8062067868886
 20
127.5938134829651
 30
0.0
 11
142.6562000032986
 21
127.2622542908923
 31
0.0
  0
LINE
  5
1A87
102
{ACAD_REACTORS
330
1A6B
102
}
330
18
100
AcDbEntity
  8
ROGO
 62
     4
100
AcDbLine
 10
143.1916602888869
 20
127.5938134829651
 30
0.0
 11
142.8062067868886
 21
127.5938134829651
 31
0.0
  0
LINE
  5
1A88
102
{ACAD_REACTORS
330
1A6B
102
}
330
18
100
AcDbEntity
  8
ROGO
 62
     4
100
AcDbLine
 10
143.1239393073168
 20
127.2622542908923
 30
0.0
 11
142.6562000032986
 21
127.2622542908923
 31
0.0
  0
LINE
  5
1A89
102
{ACAD_REACTORS
330
1A96
102
}
330
18
100
AcDbEntity
  8
ROGO
 62
     4
100
AcDbLine
 10
155.1633200263696
 20
127.101876956988
 30
0.0
 11
155.6490131778054
 21
126.1278262299004
 31
0.0
  0
LINE
  5
1A8A
102
{ACAD_REACTORS
330
1A95
102
}
330
18
100
AcDbEntity
  8
ROGO
 62
     4
100
AcDbLine
 10
150.0090847178407
 20
127.2930569462343
 30
0.0
 11
149.7777893356247
 21
126.8291973374391
 31
0.0
  0
SPLINE
  5
1A8B
102
{ACAD_REACTORS
330
1A8E
102
}
330
18
100
AcDbEntity
  8
ROGO
 62
     4
100
AcDbSpline
210
0.0
220
0.0
230
1.0
 70
     8
 71
     3
 72
    26
 73
    22
 74
    20
 42
0.0000000001
 43
0.0000000001
 44
0.0000000001
 40
0.0
 40
0.0
 40
0.0
 40
0.0
 40
0.2261711682465229
 40
0.3775752524709292
 40
0.4867499270747143
 40
0.568267124049349
 40
0.6739992068899219
 40
0.7511733198246508
 40
0.8905317800930927
 40
1.003967563249621
 40
1.081122071918995
 40
1.156776017963945
 40
1.292106219407766
 40
1.38780082415581
 40
1.439339762213746
 40
1.512549301287572
 40
1.565415552119695
 40
1.642001295672594
 40
1.68534220200602
 40
1.779656875742671
 40
1.822721775074878
 40
1.822721775074878
 40
1.822721775074878
 40
1.822721775074878
 10
153.1679993292712
 20
128.0759276840755
 30
0.0
 10
153.0912333402306
 20
128.0713476935295
 30
0.0
 10
152.9630784656818
 20
128.0637017539514
 30
0.0
 10
152.8223651930295
 20
127.9782199519638
 30
0.0
 10
152.7192704116781
 20
127.9285245887771
 30
0.0
 10
152.6457433386469
 20
127.8609679762913
 30
0.0
 10
152.5918476960583
 20
127.7911869305103
 30
0.0
 10
152.5239021207371
 20
127.7080433261102
 30
0.0
 10
152.4684944456097
 20
127.6112259632836
 30
0.0
 10
152.4402786851167
 20
127.5045163509727
 30
0.0
 10
152.4152854322687
 20
127.4194681708122
 30
0.0
 10
152.3967500175462
 20
127.3246930730371
 30
0.0
 10
152.4014659517824
 20
127.2223026273042
 30
0.0
 10
152.4082193854397
 20
127.1272076231533
 30
0.0
 10
152.4383718245011
 20
127.0593240278641
 30
0.0
 10
152.472710111675
 20
127.0109955858215
 30
0.0
 10
152.5147568740589
 20
126.9577671648337
 30
0.0
 10
152.5607652269789
 20
126.9225141539737
 30
0.0
 10
152.5988178903065
 20
126.8586509558555
 30
0.0
 10
152.6654277937799
 20
126.8505015511912
 30
0.0
 10
152.7077676984018
 20
126.8342818036374
 30
0.0
 10
152.7210401499719
 20
126.8291973374391
 30
0.0
 11
153.1679993292712
 21
128.0759276840755
 31
0.0
 11
152.9445197396215
 21
128.0411387439364
 31
0.0
 11
152.8090773870721
 21
127.9734736432145
 31
0.0
 11
152.7142679349921
 21
127.919341606756
 31
0.0
 11
152.6533191684017
 21
127.8652093497025
 31
0.0
 11
152.5855981868317
 21
127.7840111847171
 31
0.0
 11
152.5381934607916
 21
127.723112616127
 31
0.0
 11
152.4704720898123
 21
127.6013152583516
 31
0.0
 11
152.4366117937318
 21
127.4930509648395
 31
0.0
 11
152.4162955382017
 21
127.4186193319859
 31
0.0
 11
152.4027511082422
 21
127.3441876991323
 31
0.0
 11
152.4027511082422
 21
127.2088574976885
 31
0.0
 11
152.4162955382017
 21
127.1141262684399
 31
0.0
 11
152.4366117937318
 21
127.066760543518
 31
0.0
 11
152.477244304792
 21
127.0058619749278
 31
0.0
 11
152.5111049902818
 21
126.9652627821376
 31
0.0
 11
152.5652815418923
 21
126.9111307456791
 31
0.0
 11
152.5923700124023
 21
126.8772980850206
 31
0.0
 11
152.6804076389117
 21
126.8434656449572
 31
0.0
 11
152.7210401499719
 21
126.8291973374391
 31
0.0
  0
LINE
  5
1A8C
102
{ACAD_REACTORS
330
1A8E
102
}
330
18
100
AcDbEntity
  8
ROGO
 62
     4
100
AcDbLine
 10
154.0261607917759
 20
127.2930569462343
 30
0.0
 11
153.7948654095599
 21
126.8291973374391
 31
0.0
  0
LINE
  5
1A8D
102
{ACAD_REACTORS
330
1A96
102
}
330
18
100
AcDbEntity
  8
ROGO
 62
     4
100
AcDbLine
 10
154.677642580772
 20
128.0759276840755
 30
0.0
 11
153.7062562779003
 21
126.1278262299004
 31
0.0
  0
HATCH
  5
1A8E
330
18
100
AcDbEntity
  8
ROGO
 62
     4
100
AcDbHatch
 10
0.0
 20
0.0
 30
0.0
210
0.0
220
0.0
230
1.0
  2
SOLID
 70
     1
 71
     1
 91
        1
 92
        5
 93
        8
 72
     4
 94
        3
 73
     0
 74
     0
 95
       26
 96
       22
 40
0.0
 40
0.0
 40
0.0
 40
0.0
 40
0.2261711682465229
 40
0.3775752524709292
 40
0.4867499270747143
 40
0.568267124049349
 40
0.6739992068899219
 40
0.7511733198246508
 40
0.8905317800930927
 40
1.003967563249621
 40
1.081122071918995
 40
1.156776017963945
 40
1.292106219407766
 40
1.38780082415581
 40
1.439339762213746
 40
1.512549301287572
 40
1.565415552119695
 40
1.642001295672594
 40
1.68534220200602
 40
1.779656875742671
 40
1.822721775074878
 40
1.822721775074878
 40
1.822721775074878
 40
1.822721775074878
 10
153.1679993292712
 20
128.0759276840755
 10
153.0912333402306
 20
128.0713476935295
 10
152.9630784656818
 20
128.0637017539514
 10
152.8223651930295
 20
127.9782199519638
 10
152.7192704116781
 20
127.9285245887771
 10
152.6457433386469
 20
127.8609679762913
 10
152.5918476960583
 20
127.7911869305103
 10
152.5239021207371
 20
127.7080433261102
 10
152.4684944456097
 20
127.6112259632836
 10
152.4402786851167
 20
127.5045163509727
 10
152.4152854322687
 20
127.4194681708122
 10
152.3967500175462
 20
127.3246930730371
 10
152.4014659517824
 20
127.2223026273042
 10
152.4082193854397
 20
127.1272076231533
 10
152.4383718245011
 20
127.0593240278641
 10
152.472710111675
 20
127.0109955858215
 10
152.5147568740589
 20
126.9577671648337
 10
152.5607652269789
 20
126.9225141539737
 10
152.5988178903065
 20
126.8586509558555
 10
152.6654277937799
 20
126.8505015511912
 10
152.7077676984018
 20
126.8342818036374
 10
152.7210401499719
 20
126.8291973374391
 72
     1
 10
152.7210401499719
 20
126.8291973374392
 11
153.7948654095599
 21
126.8291973374391
 72
     1
 10
153.7948654095599
 20
126.8291973374391
 11
154.026160791776
 21
127.2930569462343
 72
     1
 10
154.026160791776
 20
127.2930569462343
 11
153.2289480958615
 21
127.2930569462343
 72
     4
 94
        3
 73
     0
 74
     0
 95
       16
 96
       12
 40
0.0
 40
0.0
 40
0.0
 40
0.0
 40
0.0683030918787657
 40
0.1373106805328135
 40
0.1784706056910715
 40
0.2179345026856072
 40
0.261275236818835
 40
0.2915411730567379
 40
0.3202609197925513
 40
0.3785004428982377
 40
0.4977391777072823
 40
0.4977391777072823
 40
0.4977391777072823
 40
0.4977391777072823
 10
153.2289480958616
 20
127.2930569462342
 10
153.2049013515313
 20
127.3001318510048
 10
153.1565598381713
 20
127.3143546330492
 10
153.1525140438697
 20
127.3833014553717
 10
153.1580258532809
 20
127.4324317081756
 10
153.1811093234058
 20
127.468201401239
 10
153.2091135764418
 20
127.4942285592951
 10
153.2195408018702
 20
127.5281248631582
 10
153.2501906809979
 20
127.5537208133721
 10
153.3045411291579
 20
127.596744030165
 10
153.3646433162028
 20
127.6059070140505
 10
153.4050229594712
 20
127.612063163082
 72
     1
 10
153.4050229594712
 20
127.612063163082
 11
154.1852275944379
 21
127.612063163082
 72
     1
 10
154.1852275944379
 20
127.612063163082
 11
154.4165254260347
 21
128.0759276840755
 72
     1
 10
154.4165254260347
 20
128.0759276840755
 11
153.1679993292712
 21
128.0759276840755
 97
        8
330
1AE6
330
1A8B
330
1AAF
330
1A8C
330
1AE8
330
1AE7
330
1AE9
330
1AEA
 75
     0
 76
     1
 47
0.0514683685270805
 98
        1
 10
153.3834400161182
 20
127.8476471171081
450
        0
451
        0
460
0.0
461
0.0
452
        0
462
0.0
453
        0
470

  0
SPLINE
  5
1A8F
102
{ACAD_REACTORS
330
1A91
102
}
330
18
100
AcDbEntity
  8
ROGO
 62
     4
100
AcDbSpline
210
0.0
220
0.0
230
1.0
 70
     8
 71
     3
 72
    38
 73
    34
 74
    32
 42
0.0000000001
 43
0.0000000001
 44
0.0000000001
 40
0.0
 40
0.0
 40
0.0
 40
0.0
 40
0.1716253587406623
 40
0.2255253290976248
 40
0.2947831262912113
 40
0.352498070257192
 40
0.401194707389018
 40
0.4658749546664991
 40
0.4989240118098149
 40
0.5361459251283493
 40
0.5910040209698863
 40
0.6531463397142244
 40
0.6934574532944029
 40
0.7372488460652118
 40
0.7859279681112547
 40
0.8598010024797554
 40
0.9299880888722469
 40
0.962617715058074
 40
0.99982743872465
 40
1.043908673224191
 40
1.075288847593852
 40
1.101594470956001
 40
1.139152958423429
 40
1.180423302418936
 40
1.221693416627877
 40
1.257804824007385
 40
1.340506365805091
 40
1.373135991990864
 40
1.438395283121515
 40
1.496081593396144
 40
1.606517709645446
 40
1.74278444224538
 40
1.93957343352095
 40
1.93957343352095
 40
1.93957343352095
 40
1.93957343352095
 10
151.0917928359578
 20
128.0811278833821
 30
0.0
 10
151.0345849596446
 20
128.0770865501799
 30
0.0
 10
150.9594106076305
 20
128.0717760121155
 30
0.0
 10
150.863956758033
 20
128.0456245031867
 30
0.0
 10
150.8119238491655
 20
128.0144696350023
 30
0.0
 10
150.7577732072012
 20
127.9915693135399
 30
0.0
 10
150.711604741579
 20
127.9576584786901
 30
0.0
 10
150.6649063132918
 20
127.9401845521978
 30
0.0
 10
150.6322066442883
 20
127.9086759394299
 30
0.0
 10
150.5943594446788
 20
127.8894291188151
 30
0.0
 10
150.5642210476715
 20
127.8463491388171
 30
0.0
 10
150.5305348679346
 20
127.8060709186032
 30
0.0
 10
150.4914546615654
 20
127.7766696141875
 30
0.0
 10
150.4593810117067
 20
127.7457896424855
 30
0.0
 10
150.4299578977597
 20
127.6981325677732
 30
0.0
 10
150.4125439820546
 20
127.6348104274168
 30
0.0
 10
150.3634570766413
 20
127.5948311116355
 30
0.0
 10
150.3560661255809
 20
127.5467640451085
 30
0.0
 10
150.3289146612926
 20
127.5184052847075
 30
0.0
 10
150.3171082550155
 20
127.4817981991202
 30
0.0
 10
150.312611807205
 20
127.4482596425588
 30
0.0
 10
150.3072149976544
 20
127.4169369524475
 30
0.0
 10
150.2930979659494
 20
127.3839868660684
 30
0.0
 10
150.2977058138048
 20
127.3432848258951
 30
0.0
 10
150.296393176288
 20
127.3038716894288
 30
0.0
 10
150.2971656650075
 20
127.2506627279029
 30
0.0
 10
150.2943776462355
 20
127.1988572605194
 30
0.0
 10
150.3166110033751
 20
127.1424806246464
 30
0.0
 10
150.3297679662841
 20
127.0922286532183
 30
0.0
 10
150.3658004494794
 20
127.0226487050354
 30
0.0
 10
150.427955727882
 20
126.94236848944
 30
0.0
 10
150.5461491889337
 20
126.8449235181229
 30
0.0
 10
150.659795657411
 20
126.8350381793781
 30
0.0
 10
150.7269447027223
 20
126.8291973374391
 30
0.0
 11
151.0917928359578
 21
128.0811278833821
 31
0.0
 11
150.921412529884
 21
128.0604925964911
 31
0.0
 11
150.8697821463961
 21
128.0450164760027
 31
0.0
 11
150.8078259295912
 21
128.0140637754527
 31
0.0
 11
150.7561955461033
 21
127.9882700115187
 31
0.0
 11
150.7148914015667
 21
127.9624760177982
 31
0.0
 11
150.6580981014204
 21
127.9315235470347
 31
0.0
 11
150.6322827068591
 21
127.9108884899303
 31
0.0
 11
150.6013043956395
 21
127.8902532030392
 31
0.0
 11
150.5651631677614
 21
127.8489830888302
 31
0.0
 11
150.5238590232248
 21
127.8025542677918
 31
0.0
 11
150.4928807120051
 21
127.7767602740713
 31
0.0
 11
150.4619028064199
 21
127.7458078033078
 31
0.0
 11
150.4360874118587
 21
127.7045376890989
 31
0.0
 11
150.4051095062736
 21
127.6374735811694
 31
0.0
 11
150.3638049561025
 21
127.5807271166855
 31
0.0
 11
150.3534791227856
 21
127.5497744161355
 31
0.0
 11
150.3328270505174
 21
127.5188219453719
 31
0.0
 11
150.3173378949075
 21
127.4775516013765
 31
0.0
 11
150.3121745726146
 21
127.446599130613
 31
0.0
 11
150.3070116559561
 21
127.4208051368926
 31
0.0
 11
150.2966858226392
 21
127.3846939592995
 31
0.0
 11
150.2966858226392
 21
127.343423615304
 31
0.0
 11
150.2966858226392
 21
127.3021535010951
 31
0.0
 11
150.2966858226392
 21
127.2660420937156
 31
0.0
 11
150.3018487392977
 21
127.1835018652976
 31
0.0
 11
150.3121745726146
 21
127.1525491647476
 31
0.0
 11
150.3328270505174
 21
127.0906439934342
 31
0.0
 11
150.3586420394441
 21
127.0390562357797
 31
0.0
 11
150.4257615785418
 21
126.9513573005322
 31
0.0
 11
150.5341852621763
 21
126.8688168423278
 31
0.0
 11
150.7269447027223
 21
126.8291973374391
 31
0.0
  0
SPLINE
  5
1A90
102
{ACAD_REACTORS
330
1A91
102
}
330
18
100
AcDbEntity
  8
ROGO
 62
     4
100
AcDbSpline
210
0.0
220
0.0
230
1.0
 70
     8
 71
     3
 72
     9
 73
     5
 74
     3
 42
0.0000000001
 43
0.0000000001
 44
0.0000000001
 40
0.0
 40
0.0
 40
0.0
 40
0.0
 40
0.1078348623950619
 40
0.2528255661270943
 40
0.2528255661270943
 40
0.2528255661270943
 40
0.2528255661270943
 10
151.6768154130581
 20
126.856993077234
 30
0.0
 10
151.7114550907811
 20
126.8675908622526
 30
0.0
 10
151.7926699774724
 20
126.8924380307612
 30
0.0
 10
151.8597720780818
 20
126.9449528320657
 30
0.0
 10
151.8982538698496
 20
126.9750690822303
 30
0.0
 11
151.6768154130581
 21
126.856993077234
 31
0.0
 11
151.7781670721084
 21
126.8938196811434
 31
0.0
 11
151.8982538698496
 21
126.9750690822303
 31
0.0
  0
HATCH
  5
1A91
330
18
100
AcDbEntity
  8
ROGO
 62
     4
100
AcDbHatch
 10
0.0
 20
0.0
 30
0.0
210
0.0
220
0.0
230
1.0
  2
SOLID
 70
     1
 71
     1
 91
        2
 92
        5
 93
        6
 72
     4
 94
        3
 73
     0
 74
     0
 95
       38
 96
       34
 40
0.0
 40
0.0
 40
0.0
 40
0.0
 40
0.1716253587406623
 40
0.2255253290976248
 40
0.2947831262912113
 40
0.352498070257192
 40
0.401194707389018
 40
0.4658749546664991
 40
0.4989240118098149
 40
0.5361459251283493
 40
0.5910040209698863
 40
0.6531463397142244
 40
0.6934574532944029
 40
0.7372488460652118
 40
0.7859279681112547
 40
0.8598010024797554
 40
0.9299880888722469
 40
0.962617715058074
 40
0.99982743872465
 40
1.043908673224191
 40
1.075288847593852
 40
1.101594470956001
 40
1.139152958423429
 40
1.180423302418936
 40
1.221693416627877
 40
1.257804824007385
 40
1.340506365805091
 40
1.373135991990864
 40
1.438395283121515
 40
1.496081593396144
 40
1.606517709645446
 40
1.74278444224538
 40
1.93957343352095
 40
1.93957343352095
 40
1.93957343352095
 40
1.93957343352095
 10
151.0917928359578
 20
128.0811278833821
 10
151.0345849596446
 20
128.0770865501799
 10
150.9594106076305
 20
128.0717760121155
 10
150.863956758033
 20
128.0456245031867
 10
150.8119238491655
 20
128.0144696350023
 10
150.7577732072012
 20
127.9915693135399
 10
150.711604741579
 20
127.9576584786901
 10
150.6649063132918
 20
127.9401845521978
 10
150.6322066442883
 20
127.9086759394299
 10
150.5943594446788
 20
127.8894291188151
 10
150.5642210476715
 20
127.8463491388171
 10
150.5305348679346
 20
127.8060709186032
 10
150.4914546615654
 20
127.7766696141875
 10
150.4593810117067
 20
127.7457896424855
 10
150.4299578977597
 20
127.6981325677732
 10
150.4125439820546
 20
127.6348104274168
 10
150.3634570766413
 20
127.5948311116355
 10
150.3560661255809
 20
127.5467640451085
 10
150.3289146612926
 20
127.5184052847075
 10
150.3171082550155
 20
127.4817981991202
 10
150.312611807205
 20
127.4482596425588
 10
150.3072149976544
 20
127.4169369524475
 10
150.2930979659494
 20
127.3839868660684
 10
150.2977058138048
 20
127.3432848258951
 10
150.296393176288
 20
127.3038716894288
 10
150.2971656650075
 20
127.2506627279029
 10
150.2943776462355
 20
127.1988572605194
 10
150.3166110033751
 20
127.1424806246464
 10
150.3297679662841
 20
127.0922286532183
 10
150.3658004494794
 20
127.0226487050354
 10
150.427955727882
 20
126.94236848944
 10
150.5461491889337
 20
126.8449235181229
 10
150.659795657411
 20
126.8350381793781
 10
150.7269447027223
 20
126.8291973374391
 72
     1
 10
150.7269447027223
 20
126.8291973374391
 11
151.4394430213329
 21
126.8291973374391
 72
     4
 94
        3
 73
     0
 74
     0
 95
       11
 96
        7
 40
0.1647869275458135
 40
0.1647869275458135
 40
0.1647869275458135
 40
0.1647869275458135
 40
0.2545010798212315
 40
0.5111620267764023
 40
0.7602998271033902
 40
0.8850764140209603
 40
0.8850764140209603
 40
0.8850764140209603
 40
0.8850764140209603
 10
151.4394430213331
 20
126.8291973374391
 10
151.4493852871196
 20
126.8290057289726
 10
151.4877711293868
 20
126.8282659526948
 10
151.5533729939446
 20
126.8376904317668
 10
151.6223948947607
 20
126.8467217202853
 10
151.6635438593202
 20
126.8532989351926
 10
151.6768154130581
 20
126.856993077234
 72
     4
 94
        3
 73
     0
 74
     0
 95
        9
 96
        5
 40
0.0
 40
0.0
 40
0.0
 40
0.0
 40
0.1078348623950619
 40
0.2528255661270943
 40
0.2528255661270943
 40
0.2528255661270943
 40
0.2528255661270943
 10
151.6768154130581
 20
126.856993077234
 10
151.7114550907811
 20
126.8675908622526
 10
151.7926699774724
 20
126.8924380307612
 10
151.8597720780818
 20
126.9449528320657
 10
151.8982538698496
 20
126.9750690822303
 72
     4
 94
        3
 73
     0
 74
     0
 95
       25
 96
       21
 40
0.0
 40
0.0
 40
0.0
 40
0.0
 40
0.165525918914855
 40
0.3412380755365305
 40
0.5940540902285263
 40
0.7697671103696209
 40
0.9377330196075423
 40
1.11479469302833
 40
1.274661249598185
 40
1.574522170874768
 40
1.815540668866877
 40
2.15849091873445
 40
2.536227739636605
 40
2.738070817316548
 40
2.925680654369045
 40
3.162706124480894
 40
3.395643218188267
 40
3.648478129958861
 40
3.928509979727306
 40
4.337226830236035
 40
4.337226830236035
 40
4.337226830236035
 40
4.337226830236035
 10
151.8982538698496
 20
126.9750690822303
 10
151.9123933052483
 20
126.9867533912417
 10
151.9392119483647
 20
127.0145431271811
 10
151.9867792280071
 20
127.0595840975663
 10
152.0286964168557
 20
127.1120604023014
 10
152.0804042871332
 20
127.1545906081808
 10
152.1073232427372
 20
127.2065869375801
 10
152.146124792331
 20
127.2474809431282
 10
152.1786729386427
 20
127.3106377008873
 10
152.2062884321316
 20
127.3831848083911
 10
152.2326159919448
 20
127.4777485843061
 10
152.2427049844667
 20
127.5844305797762
 10
152.2277720208629
 20
127.687645356855
 10
152.1916977557038
 20
127.7647950123733
 10
152.1651764135973
 20
127.8290912989572
 10
152.1249269542776
 20
127.8899912032643
 10
152.0790077611806
 20
127.9562265840129
 10
152.014315749195
 20
128.0110139671309
 10
151.9297699316107
 20
128.0770963796908
 10
151.8510218155189
 20
128.0796264754424
 10
151.8042911545685
 20
128.0811278833821
 72
     1
 10
151.8042911545685
 20
128.0811278833821
 11
151.0917928359578
 21
128.0811278833821
 97
        6
330
1AEB
330
1AEC
330
1A8F
330
1AAC
330
1AB1
330
1A90
 92
       20
 93
        1
 72
     3
 10
151.255528847966
 20
127.4377075421601
 11
0.1692676504802256
 21
0.148849717495386
 40
0.6788083417438791
 50
0.0
 51
360.0
 73
     1
 97
        1
330
1AED
 75
     0
 76
     1
 47
0.088756267210375
 98
        2
 10
151.3053083209644
 20
127.7353396497076
 10
151.3053083209644
 20
127.7353396497076
450
        0
451
        0
460
0.0
461
0.0
452
        0
462
0.0
453
        0
470

  0
LINE
  5
1A92
102
{ACAD_REACTORS
330
1A5F
102
}
330
18
100
AcDbEntity
  8
ROGO
 62
     4
100
AcDbLine
 10
147.808686016505
 20
128.0759276840755
 30
0.0
 11
148.3625330370903
 21
126.8291973374391
 31
0.0
  0
LINE
  5
1A93
102
{ACAD_REACTORS
330
1A5F
102
}
330
18
100
AcDbEntity
  8
ROGO
 62
     4
100
AcDbLine
 10
147.5619089453499
 20
127.0665670816715
 30
0.0
 11
147.6673579913083
 21
126.8291973374391
 31
0.0
  0
SPLINE
  5
1A94
102
{ACAD_REACTORS
330
1A95
102
}
330
18
100
AcDbEntity
  8
ROGO
 62
     4
100
AcDbSpline
210
0.0
220
0.0
230
1.0
 70
     8
 71
     3
 72
    26
 73
    22
 74
    20
 42
0.0000000001
 43
0.0000000001
 44
0.0000000001
 40
0.0
 40
0.0
 40
0.0
 40
0.0
 40
0.2261711682465229
 40
0.3775752524709292
 40
0.4867499270747143
 40
0.568267124049349
 40
0.6739992068898783
 40
0.7511733198246171
 40
0.8905317800930589
 40
1.003967563249478
 40
1.081122071918962
 40
1.156776017963922
 40
1.292106219407743
 40
1.387800824155796
 40
1.439339762213627
 40
1.512549301287547
 40
1.565415552119591
 40
1.642001295672489
 40
1.685342202005951
 40
1.779656875742602
 40
1.822721775074863
 40
1.822721775074863
 40
1.822721775074863
 40
1.822721775074863
 10
149.150923255336
 20
128.0759276840755
 30
0.0
 10
149.0741572662954
 20
128.0713476935295
 30
0.0
 10
148.9460023917465
 20
128.0637017539514
 30
0.0
 10
148.8052891190943
 20
127.9782199519638
 30
0.0
 10
148.7021943377428
 20
127.9285245887771
 30
0.0
 10
148.6286672647116
 20
127.8609679762912
 30
0.0
 10
148.574771622123
 20
127.7911869305103
 30
0.0
 10
148.506826046802
 20
127.7080433261102
 30
0.0
 10
148.4514183716745
 20
127.6112259632836
 30
0.0
 10
148.4232026111815
 20
127.5045163509728
 30
0.0
 10
148.3982093583335
 20
127.4194681708122
 30
0.0
 10
148.3796739436109
 20
127.3246930730371
 30
0.0
 10
148.3843898778472
 20
127.2223026273042
 30
0.0
 10
148.3911433115044
 20
127.1272076231533
 30
0.0
 10
148.421295750566
 20
127.0593240278643
 30
0.0
 10
148.4556340377397
 20
127.0109955858215
 30
0.0
 10
148.4976808001237
 20
126.9577671648337
 30
0.0
 10
148.5436891530436
 20
126.9225141539736
 30
0.0
 10
148.5817418163713
 20
126.8586509558555
 30
0.0
 10
148.6483517198447
 20
126.8505015511911
 30
0.0
 10
148.6906916244666
 20
126.8342818036374
 30
0.0
 10
148.7039640760367
 20
126.8291973374391
 30
0.0
 11
149.150923255336
 21
128.0759276840755
 31
0.0
 11
148.9274436656863
 21
128.0411387439364
 31
0.0
 11
148.7920013131369
 21
127.9734736432145
 31
0.0
 11
148.6971918610569
 21
127.919341606756
 31
0.0
 11
148.6362430944665
 21
127.8652093497025
 31
0.0
 11
148.5685221128964
 21
127.7840111847172
 31
0.0
 11
148.5211173868564
 21
127.723112616127
 31
0.0
 11
148.4533960158771
 21
127.6013152583516
 31
0.0
 11
148.4195357197966
 21
127.4930509648396
 31
0.0
 11
148.3992194642666
 21
127.4186193319859
 31
0.0
 11
148.385675034307
 21
127.3441876991323
 31
0.0
 11
148.385675034307
 21
127.2088574976885
 31
0.0
 11
148.3992194642666
 21
127.1141262684399
 31
0.0
 11
148.4195357197966
 21
127.0667605435181
 31
0.0
 11
148.4601682308569
 21
127.0058619749278
 31
0.0
 11
148.4940289163465
 21
126.9652627821377
 31
0.0
 11
148.548205467957
 21
126.9111307456791
 31
0.0
 11
148.575293938467
 21
126.8772980850206
 31
0.0
 11
148.6633315649764
 21
126.8434656449572
 31
0.0
 11
148.7039640760367
 21
126.8291973374391
 31
0.0
  0
HATCH
  5
1A95
330
18
100
AcDbEntity
  8
ROGO
 62
     4
100
AcDbHatch
 10
0.0
 20
0.0
 30
0.0
210
0.0
220
0.0
230
1.0
  2
SOLID
 70
     1
 71
     1
 91
        1
 92
        5
 93
        8
 72
     1
 10
150.1681515205026
 20
127.6120631630819
 11
150.3994493520996
 21
128.0759276840756
 72
     1
 10
150.3994493520996
 20
128.0759276840756
 11
149.1509232553364
 21
128.0759276840756
 72
     4
 94
        3
 73
     0
 74
     0
 95
       26
 96
       22
 40
0.0
 40
0.0
 40
0.0
 40
0.0
 40
0.2261711682465229
 40
0.3775752524709292
 40
0.4867499270747143
 40
0.568267124049349
 40
0.6739992068898783
 40
0.7511733198246171
 40
0.8905317800930589
 40
1.003967563249478
 40
1.081122071918962
 40
1.156776017963922
 40
1.292106219407743
 40
1.387800824155796
 40
1.439339762213627
 40
1.512549301287547
 40
1.565415552119591
 40
1.642001295672489
 40
1.685342202005951
 40
1.779656875742602
 40
1.822721775074863
 40
1.822721775074863
 40
1.822721775074863
 40
1.822721775074863
 10
149.150923255336
 20
128.0759276840755
 10
149.0741572662954
 20
128.0713476935295
 10
148.9460023917465
 20
128.0637017539514
 10
148.8052891190943
 20
127.9782199519638
 10
148.7021943377428
 20
127.9285245887771
 10
148.6286672647116
 20
127.8609679762912
 10
148.574771622123
 20
127.7911869305103
 10
148.506826046802
 20
127.7080433261102
 10
148.4514183716745
 20
127.6112259632836
 10
148.4232026111815
 20
127.5045163509728
 10
148.3982093583335
 20
127.4194681708122
 10
148.3796739436109
 20
127.3246930730371
 10
148.3843898778472
 20
127.2223026273042
 10
148.3911433115044
 20
127.1272076231533
 10
148.421295750566
 20
127.0593240278643
 10
148.4556340377397
 20
127.0109955858215
 10
148.4976808001237
 20
126.9577671648337
 10
148.5436891530436
 20
126.9225141539736
 10
148.5817418163713
 20
126.8586509558555
 10
148.6483517198447
 20
126.8505015511911
 10
148.6906916244666
 20
126.8342818036374
 10
148.7039640760367
 20
126.8291973374391
 72
     1
 10
148.7039640760367
 20
126.8291973374391
 11
149.7777893356246
 21
126.8291973374391
 72
     1
 10
149.7777893356246
 20
126.8291973374391
 11
150.0090847178407
 21
127.2930569462343
 72
     1
 10
150.0090847178407
 20
127.2930569462343
 11
149.2118720219264
 21
127.2930569462343
 72
     4
 94
        3
 73
     0
 74
     0
 95
       16
 96
       12
 40
0.0
 40
0.0
 40
0.0
 40
0.0
 40
0.0683030918787651
 40
0.1373106805328241
 40
0.1784706056911381
 40
0.2179345026857031
 40
0.2612752368189221
 40
0.2915411730568249
 40
0.3202609197926786
 40
0.3785004428982989
 40
0.4977391777073984
 40
0.4977391777073984
 40
0.4977391777073984
 40
0.4977391777073984
 10
149.2118720219264
 20
127.2930569462343
 10
149.1878252775961
 20
127.3001318510049
 10
149.139483764236
 20
127.3143546330493
 10
149.1354379699344
 20
127.3833014553717
 10
149.1409497793456
 20
127.4324317081757
 10
149.1640332494705
 20
127.468201401239
 10
149.1920375025067
 20
127.4942285592951
 10
149.2024647279351
 20
127.5281248631582
 10
149.2331146070625
 20
127.5537208133722
 10
149.2874650552228
 20
127.5967440301649
 10
149.3475672422676
 20
127.6059070140504
 10
149.387946885536
 20
127.612063163082
 72
     1
 10
149.387946885536
 20
127.612063163082
 11
150.1681515205026
 21
127.6120631630819
 97
        8
330
1AE0
330
1A94
330
1AAE
330
1A8A
330
1ADE
330
1ADF
330
1ADD
330
1ADC
 75
     0
 76
     1
 47
0.0514683685270805
 98
        1
 10
149.5875790572477
 20
127.7983908927285
450
        0
451
        0
460
0.0
461
0.0
452
        0
462
0.0
453
        0
470

  0
HATCH
  5
1A96
330
18
100
AcDbEntity
  8
ROGO
 62
     4
100
AcDbHatch
 10
0.0
 20
0.0
 30
0.0
210
0.0
220
0.0
230
1.0
  2
SOLID
 70
     1
 71
     1
 91
        1
 92
        7
 72
     0
 73
     1
 93
       11
 10
153.7062562779003
 20
126.1278262299004
 10
154.4240997728893
 20
126.1278262299004
 10
154.677642580772
 20
126.6363027353563
 10
154.9311853886548
 20
126.1278262299004
 10
155.6490131778054
 20
126.1278262299004
 10
155.1633200263696
 20
127.101876956988
 10
156.3433665047476
 20
128.0759276840755
 10
155.6255387155968
 20
128.0759276840755
 10
155.2894304586102
 20
127.863234647964
 10
155.395486075761
 20
128.0759276840755
 10
154.677642580772
 20
128.0759276840756
 97
       11
330
1AF1
330
1AEF
330
1AEE
330
1ADB
330
1A8D
330
1A60
330
1AB0
330
1AB2
330
1AAA
330
1A89
330
1AF0
 75
     0
 76
     1
 47
0.0514683685270805
 98
        1
 10
154.6158624255909
 20
127.2401541978141
450
        0
451
        0
460
0.0
461
0.0
452
        0
462
0.0
453
        0
470

  0
TEXT
  5
1A97
330
18
100
AcDbEntity
  8
文字
100
AcDbText
 10
149.6400934069544
 20
102.5806743560144
 30
0.0
 40
1.0
  1
H
 50
3.041391095489256
  7
STYLE3
100
AcDbText
  0
TEXT
  5
1A98
330
18
100
AcDbEntity
  8
文字
100
AcDbText
 10
150.6015437844721
 20
102.6865588983307
 30
0.0
 40
1.0
  1
O
 50
1.760930144340787
  7
STYLE3
100
AcDbText
  0
TEXT
  5
1A99
330
18
100
AcDbEntity
  8
文字
100
AcDbText
 10
148.7473147956013
 20
102.533645722366
 30
0.0
 40
1.0
  1
S
  7
STYLE3
100
AcDbText
  0
TEXT
  5
1A9A
330
18
100
AcDbEntity
  8
文字
100
AcDbText
 10
151.6238064577651
 20
102.84916549473
 30
0.0
 40
1.0
  1
C
 50
5.687207778684769
  7
STYLE3
100
AcDbText
  0
TEXT
  5
1A9B
330
18
100
AcDbEntity
  8
文字
100
AcDbText
 10
155.1126377672456
 20
103.9932472926151
 30
0.0
 40
1.0
  1
R
 50
26.06198672177309
  7
STYLE3
100
AcDbText
  0
TEXT
  5
1A9C
330
18
100
AcDbEntity
  8
文字
100
AcDbText
 10
147.3880576614169
 20
108.350643793869
 30
0.0
 40
1.0
  1
.2
  7
STYLE3
100
AcDbText
  0
TEXT
  5
1A9D
330
18
100
AcDbEntity
  8
文字
100
AcDbText
 10
148.5803683528843
 20
106.2339675206249
 30
0.0
 40
1.0
  1
0
  7
STYLE3
100
AcDbText
  0
LINE
  5
1A9E
330
18
100
AcDbEntity
  8
外形線
100
AcDbLine
 10
149.5793819460725
 20
108.2275157661581
 30
0.0
 11
150.05491020422
 21
108.3820242633456
 31
0.0
  0
LINE
  5
1A9F
330
18
100
AcDbEntity
  8
外形線
100
AcDbLine
 10
149.787391751818
 20
106.9141935400646
 30
0.0
 11
150.287391751818
 21
106.9141935400646
 31
0.0
  0
TEXT
  5
1AA0
330
18
100
AcDbEntity
  8
文字
100
AcDbText
 10
152.721062348672
 20
103.0656711960784
 30
0.0
 40
1.0
  1
K
 50
16.11080334047189
  7
STYLE3
100
AcDbText
  0
TEXT
  5
1AA1
330
18
100
AcDbEntity
  8
文字
100
AcDbText
 10
154.2557550879875
 20
103.571006043882
 30
0.0
 40
1.0
  1
P
 50
23.24053280085741
  7
STYLE3
100
AcDbText
  0
POINT
  5
1AA2
330
18
100
AcDbEntity
  8
DEFPOINTS
  6
ByBlock
 62
     0
100
AcDbPoint
 10
147.005222475099
 20
111.4317119924666
 30
0.0
  0
LINE
  5
1AA3
330
18
100
AcDbEntity
  8
外形線
100
AcDbLine
 10
146.8507139779116
 20
110.956183734319
 30
0.0
 11
147.005222475099
 21
111.4317119924666
 31
0.0
  0
LINE
  5
1AA4
330
18
100
AcDbEntity
  8
外形線
100
AcDbLine
 10
148.035479074061
 20
110.3525157661581
 30
0.0
 11
148.3293717002073
 21
110.7570242633456
 31
0.0
  0
LINE
  5
1AA5
330
18
100
AcDbEntity
  8
外形線
100
AcDbLine
 10
148.9757139779116
 20
109.4122808623076
 30
0.0
 11
149.380222475099
 21
109.7061734884539
 31
0.0
  0
TEXT
  5
1AA6
330
18
100
AcDbEntity
  8
文字
100
AcDbText
 10
156.0369396669119
 20
104.5629564015416
 30
0.0
 40
1.0
  1
O
 50
27.73777743938884
  7
STYLE3
100
AcDbText
  0
TEXT
  5
1AA7
330
18
100
AcDbEntity
  8
文字
100
AcDbText
 10
156.9887985738411
 20
105.2096168404025
 30
0.0
 40
1.0
  1
O
 50
27.6495577688412
  7
STYLE3
100
AcDbText
  0
TEXT
  5
1AA8
330
18
100
AcDbEntity
  8
文字
100
AcDbText
 10
158.023195339453
 20
105.8794113912416
 30
0.0
 40
1.0
  1
F
 50
39.72416055040988
  7
STYLE3
100
AcDbText
  0
TEXT
  5
1AA9
330
18
100
AcDbEntity
  8
文字
100
AcDbText
 10
154.1564824164683
 20
115.951874717166
 30
0.0
 40
1.0
  1
0.001mm
  7
STYLE3
100
AcDbText
  0
LINE
  5
1AAA
102
{ACAD_REACTORS
330
1A96
102
}
330
18
100
AcDbEntity
  8
ROGO
 62
     4
100
AcDbLine
 10
154.9311853886548
 20
126.1278262299004
 30
0.0
 11
155.6490131778054
 21
126.1278262299004
 31
0.0
  0
LINE
  5
1AAC
102
{ACAD_REACTORS
330
1A91
102
}
330
18
100
AcDbEntity
  8
ROGO
 62
     4
100
AcDbLine
 10
150.7269447027223
 20
126.8291973374391
 30
0.0
 11
151.4394430213331
 21
126.8291973374391
 31
0.0
  0
LINE
  5
1AAD
102
{ACAD_REACTORS
330
1A5F
102
}
330
18
100
AcDbEntity
  8
ROGO
 62
     4
100
AcDbLine
 10
148.3625330370903
 20
126.8291973374392
 30
0.0
 11
147.6673579913083
 21
126.8291973374391
 31
0.0
  0
LINE
  5
1AAE
102
{ACAD_REACTORS
330
1A95
102
}
330
18
100
AcDbEntity
  8
ROGO
 62
     4
100
AcDbLine
 10
148.7039640760366
 20
126.8291973374391
 30
0.0
 11
149.7777893356247
 21
126.8291973374391
 31
0.0
  0
LINE
  5
1AAF
102
{ACAD_REACTORS
330
1A8E
102
}
330
18
100
AcDbEntity
  8
ROGO
 62
     4
100
AcDbLine
 10
152.7210401499719
 20
126.8291973374391
 30
0.0
 11
153.7948654095599
 21
126.8291973374391
 31
0.0
  0
LINE
  5
1AB0
102
{ACAD_REACTORS
330
1A96
102
}
330
18
100
AcDbEntity
  8
ROGO
 62
     4
100
AcDbLine
 10
154.677642580772
 20
126.6363027353564
 30
0.0
 11
154.4240997728893
 21
126.1278262299004
 31
0.0
  0
SPLINE
  5
1AB1
102
{ACAD_REACTORS
330
1A91
102
}
330
18
100
AcDbEntity
  8
ROGO
 62
     4
100
AcDbSpline
210
0.0
220
0.0
230
1.0
 70
     8
 71
     3
 72
    11
 73
     7
 74
     0
 42
0.0000000001
 43
0.0000000001
 40
0.1647869275458134
 40
0.1647869275458134
 40
0.1647869275458134
 40
0.1647869275458134
 40
0.2895635144633836
 40
0.5387013147903714
 40
0.7953622617455423
 40
0.8850764140209602
 40
0.8850764140209602
 40
0.8850764140209602
 40
0.8850764140209602
 10
151.6768154130581
 20
126.856993077234
 30
0.0
 10
151.6635438593202
 20
126.8532989351926
 30
0.0
 10
151.6223948947607
 20
126.8467217202853
 30
0.0
 10
151.5533729939446
 20
126.8376904317668
 30
0.0
 10
151.4877711293868
 20
126.8282659526948
 30
0.0
 10
151.4493852871196
 20
126.8290057289726
 30
0.0
 10
151.4394430213331
 20
126.8291973374391
 30
0.0
  0
LINE
  5
1AB2
102
{ACAD_REACTORS
330
1A96
102
}
330
18
100
AcDbEntity
  8
ROGO
 62
     4
100
AcDbLine
 10
154.677642580772
 20
126.6363027353564
 30
0.0
 11
154.9311853886548
 21
126.1278262299004
 31
0.0
  0
LINE
  5
1AB3
102
{ACAD_REACTORS
330
1AB5
102
}
330
18
100
AcDbEntity
  8
外形線
100
AcDbLine
 10
158.4095140226191
 20
118.4381649515785
 30
0.0
 11
159.5761806892857
 21
118.0135330116013
 31
0.0
  0
LINE
  5
1AB4
102
{ACAD_REACTORS
330
1AB5
102
}
330
18
100
AcDbEntity
  8
外形線
100
AcDbLine
 10
158.4095140226191
 20
118.4381649515785
 30
0.0
 11
159.5761806892857
 21
118.8627968915557
 31
0.0
  0
HATCH
  5
1AB5
330
18
100
AcDbEntity
  8
外形線
100
AcDbHatch
 10
0.0
 20
0.0
 30
0.0
210
0.0
220
0.0
230
1.0
  2
SOLID
 70
     1
 71
     1
 91
        2
 92
        1
 93
        7
 72
     1
 10
158.4095140226191
 20
118.4381649515785
 11
159.5761806892857
 21
118.0135330116013
 72
     1
 10
159.5761806892857
 20
118.0135330116013
 11
159.5761806892857
 21
118.3485816182452
 72
     1
 10
159.5761806892857
 20
118.3485816182452
 11
160.5761806892857
 21
118.3485816182452
 72
     1
 10
160.5761806892857
 20
118.3485816182452
 11
160.5761806892857
 21
118.5277482849118
 72
     1
 10
160.5761806892857
 20
118.5277482849118
 11
159.5761806892857
 21
118.5277482849118
 72
     1
 10
159.5761806892857
 20
118.5277482849118
 11
159.5761806892857
 21
118.8627968915557
 72
     1
 10
159.5761806892857
 20
118.8627968915557
 11
158.4095140226191
 21
118.4381649515785
 97
        7
330
1AB3
330
1AD8
330
1AD9
330
1ADA
330
1AD5
330
1AD4
330
1AB4
 92
        1
 93
        4
 72
     1
 10
158.4095140226191
 20
119.1881649515784
 11
158.4095140226191
 21
117.6881649515785
 72
     1
 10
158.4095140226191
 20
117.6881649515785
 11
158.2428473559523
 21
117.6881649515785
 72
     1
 10
158.2428473559523
 20
117.6881649515785
 11
158.2428473559523
 21
119.1881649515784
 72
     1
 10
158.2428473559523
 20
119.1881649515784
 11
158.4095140226191
 21
119.1881649515784
 97
        4
330
1ABD
330
1AB7
330
1ABC
330
1AB6
 75
     0
 76
     1
 98
        1
 10
66.07995731613868
 20
49.7760141443975
450
        0
451
        0
460
0.0
461
0.0
452
        0
462
0.0
453
        0
470

  0
LINE
  5
1AB6
102
{ACAD_REACTORS
330
1AB5
102
}
330
18
100
AcDbEntity
  8
外形線
100
AcDbLine
 10
158.2428473559523
 20
119.1881649515784
 30
0.0
 11
158.4095140226191
 21
119.1881649515784
 31
0.0
  0
LINE
  5
1AB7
102
{ACAD_REACTORS
330
1AB5
102
}
330
18
100
AcDbEntity
  8
外形線
100
AcDbLine
 10
158.2428473559523
 20
117.6881649515785
 30
0.0
 11
158.4095140226191
 21
117.6881649515785
 31
0.0
  0
POINT
  5
1AB8
330
18
100
AcDbEntity
  8
DEFPOINTS
  6
ByBlock
 62
     0
100
AcDbPoint
 10
158.4095140226191
 20
117.6881649515785
 30
0.0
  0
POINT
  5
1AB9
330
18
100
AcDbEntity
  8
DEFPOINTS
  6
ByBlock
 62
     0
100
AcDbPoint
 10
158.2428473559523
 20
117.6881649515785
 30
0.0
  0
POINT
  5
1ABA
330
18
100
AcDbEntity
  8
DEFPOINTS
  6
ByBlock
 62
     0
100
AcDbPoint
 10
158.4095140226191
 20
117.6881649515785
 30
0.0
  0
POINT
  5
1ABB
330
18
100
AcDbEntity
  8
DEFPOINTS
  6
ByBlock
 62
     0
100
AcDbPoint
 10
158.2428473559523
 20
117.6881649515785
 30
0.0
  0
LINE
  5
1ABC
102
{ACAD_REACTORS
330
1AB5
102
}
330
18
100
AcDbEntity
  8
外形線
100
AcDbLine
 10
158.2428473559523
 20
119.1881649515784
 30
0.0
 11
158.2428473559523
 21
117.6881649515785
 31
0.0
  0
LINE
  5
1ABD
102
{ACAD_REACTORS
330
1AB5
102
}
330
18
100
AcDbEntity
  8
外形線
100
AcDbLine
 10
158.4095140226191
 20
119.1881649515784
 30
0.0
 11
158.4095140226191
 21
117.6881649515785
 31
0.0
  0
LINE
  5
1ABE
102
{ACAD_REACTORS
330
1AD1
102
}
330
18
100
AcDbEntity
  8
外形線
100
AcDbLine
 10
157.4095140226191
 20
119.1881649515784
 30
0.0
 11
157.2428473559524
 21
119.1881649515784
 31
0.0
  0
LINE
  5
1ABF
102
{ACAD_REACTORS
330
1AD1
102
}
330
18
100
AcDbEntity
  8
外形線
100
AcDbLine
 10
155.0761806892857
 20
118.5277482849118
 30
0.0
 11
156.0761806892857
 21
118.5277482849118
 31
0.0
  0
LINE
  5
1AC0
102
{ACAD_REACTORS
330
1AD1
102
}
330
18
100
AcDbEntity
  8
外形線
100
AcDbLine
 10
156.0761806892857
 20
118.8627968915557
 30
0.0
 11
156.0761806892857
 21
118.5277482849118
 31
0.0
  0
POINT
  5
1AC1
330
18
100
AcDbEntity
  8
DEFPOINTS
  6
ByBlock
 62
     0
100
AcDbPoint
 10
156.0761806892857
 20
118.8627968915557
 30
0.0
  0
POINT
  5
1AC2
330
18
100
AcDbEntity
  8
DEFPOINTS
  6
ByBlock
 62
     0
100
AcDbPoint
 10
156.0761806892857
 20
118.8627968915557
 30
0.0
  0
POINT
  5
1AC3
330
18
100
AcDbEntity
  8
DEFPOINTS
  6
ByBlock
 62
     0
100
AcDbPoint
 10
157.4095140226191
 20
117.6881649515785
 30
0.0
  0
POINT
  5
1AC4
330
18
100
AcDbEntity
  8
DEFPOINTS
  6
ByBlock
 62
     0
100
AcDbPoint
 10
157.2428473559524
 20
117.6881649515785
 30
0.0
  0
POINT
  5
1AC5
330
18
100
AcDbEntity
  8
DEFPOINTS
  6
ByBlock
 62
     0
100
AcDbPoint
 10
157.4095140226191
 20
117.6881649515785
 30
0.0
  0
POINT
  5
1AC6
330
18
100
AcDbEntity
  8
DEFPOINTS
  6
ByBlock
 62
     0
100
AcDbPoint
 10
157.2428473559524
 20
117.6881649515785
 30
0.0
  0
LINE
  5
1AC7
102
{ACAD_REACTORS
330
1AD1
102
}
330
18
100
AcDbEntity
  8
外形線
100
AcDbLine
 10
157.4095140226191
 20
117.6881649515785
 30
0.0
 11
157.2428473559524
 21
117.6881649515785
 31
0.0
  0
LINE
  5
1AC8
102
{ACAD_REACTORS
330
1AD1
102
}
330
18
100
AcDbEntity
  8
外形線
100
AcDbLine
 10
155.0761806892857
 20
118.3485816182452
 30
0.0
 11
156.0761806892858
 21
118.3485816182452
 31
0.0
  0
LINE
  5
1AC9
102
{ACAD_REACTORS
330
1AD1
102
}
330
18
100
AcDbEntity
  8
外形線
100
AcDbLine
 10
156.0761806892858
 20
118.3485816182452
 30
0.0
 11
156.0761806892857
 21
118.0135330116013
 31
0.0
  0
POINT
  5
1ACA
330
18
100
AcDbEntity
  8
DEFPOINTS
  6
ByBlock
 62
     0
100
AcDbPoint
 10
156.0761806892857
 20
118.0135330116013
 30
0.0
  0
POINT
  5
1ACB
330
18
100
AcDbEntity
  8
DEFPOINTS
  6
ByBlock
 62
     0
100
AcDbPoint
 10
156.0761806892857
 20
118.0135330116013
 30
0.0
  0
LINE
  5
1ACC
102
{ACAD_REACTORS
330
1AD1
102
}
330
18
100
AcDbEntity
  8
外形線
100
AcDbLine
 10
157.2428473559524
 20
118.4381649515785
 30
0.0
 11
156.0761806892857
 21
118.0135330116013
 31
0.0
  0
LINE
  5
1ACD
102
{ACAD_REACTORS
330
1AD1
102
}
330
18
100
AcDbEntity
  8
外形線
100
AcDbLine
 10
155.0761806892857
 20
118.5277482849118
 30
0.0
 11
155.0761806892857
 21
118.3485816182452
 31
0.0
  0
LINE
  5
1ACE
102
{ACAD_REACTORS
330
1AD1
102
}
330
18
100
AcDbEntity
  8
外形線
100
AcDbLine
 10
157.2428473559524
 20
118.4381649515785
 30
0.0
 11
156.0761806892857
 21
118.8627968915557
 31
0.0
  0
LINE
  5
1ACF
102
{ACAD_REACTORS
330
1AD1
102
}
330
18
100
AcDbEntity
  8
外形線
100
AcDbLine
 10
157.2428473559524
 20
119.1881649515784
 30
0.0
 11
157.2428473559524
 21
117.6881649515785
 31
0.0
  0
LINE
  5
1AD0
102
{ACAD_REACTORS
330
1AD1
102
}
330
18
100
AcDbEntity
  8
外形線
100
AcDbLine
 10
157.4095140226191
 20
119.1881649515784
 30
0.0
 11
157.4095140226191
 21
117.6881649515785
 31
0.0
  0
HATCH
  5
1AD1
330
18
100
AcDbEntity
  8
外形線
100
AcDbHatch
 10
0.0
 20
0.0
 30
0.0
210
0.0
220
0.0
230
1.0
  2
SOLID
 70
     1
 71
     1
 91
        2
 92
        1
 93
        7
 72
     1
 10
157.2428473559524
 20
118.4381649515785
 11
156.0761806892857
 21
118.0135330116013
 72
     1
 10
156.0761806892857
 20
118.0135330116013
 11
156.0761806892858
 21
118.3485816182452
 72
     1
 10
156.0761806892858
 20
118.3485816182452
 11
155.0761806892857
 21
118.3485816182452
 72
     1
 10
155.0761806892857
 20
118.3485816182452
 11
155.0761806892857
 21
118.5277482849118
 72
     1
 10
155.0761806892857
 20
118.5277482849118
 11
156.0761806892857
 21
118.5277482849118
 72
     1
 10
156.0761806892857
 20
118.5277482849118
 11
156.0761806892857
 21
118.8627968915557
 72
     1
 10
156.0761806892857
 20
118.8627968915557
 11
157.2428473559524
 21
118.4381649515785
 97
        7
330
1ACC
330
1AC9
330
1AC8
330
1ACD
330
1ABF
330
1AC0
330
1ACE
 92
        1
 93
        4
 72
     1
 10
157.2428473559524
 20
119.1881649515784
 11
157.2428473559524
 21
117.6881649515785
 72
     1
 10
157.2428473559524
 20
117.6881649515785
 11
157.4095140226191
 21
117.6881649515785
 72
     1
 10
157.4095140226191
 20
117.6881649515785
 11
157.4095140226191
 21
119.1881649515784
 72
     1
 10
157.4095140226191
 20
119.1881649515784
 11
157.2428473559524
 21
119.1881649515784
 97
        4
330
1ACF
330
1AC7
330
1AD0
330
1ABE
 75
     0
 76
     1
 98
        1
 10
249.5724040624327
 20
49.7760141443975
450
        0
451
        0
460
0.0
461
0.0
452
        0
462
0.0
453
        0
470

  0
POINT
  5
1AD2
330
18
100
AcDbEntity
  8
DEFPOINTS
  6
ByBlock
 62
     0
100
AcDbPoint
 10
159.5761806892857
 20
118.8627968915557
 30
0.0
  0
POINT
  5
1AD3
330
18
100
AcDbEntity
  8
DEFPOINTS
  6
ByBlock
 62
     0
100
AcDbPoint
 10
159.5761806892857
 20
118.8627968915557
 30
0.0
  0
LINE
  5
1AD4
102
{ACAD_REACTORS
330
1AB5
102
}
330
18
100
AcDbEntity
  8
外形線
100
AcDbLine
 10
159.5761806892857
 20
118.8627968915557
 30
0.0
 11
159.5761806892857
 21
118.5277482849118
 31
0.0
  0
LINE
  5
1AD5
102
{ACAD_REACTORS
330
1AB5
102
}
330
18
100
AcDbEntity
  8
外形線
100
AcDbLine
 10
160.5761806892857
 20
118.5277482849118
 30
0.0
 11
159.5761806892857
 21
118.5277482849118
 31
0.0
  0
POINT
  5
1AD6
330
18
100
AcDbEntity
  8
DEFPOINTS
  6
ByBlock
 62
     0
100
AcDbPoint
 10
159.5761806892857
 20
118.0135330116013
 30
0.0
  0
POINT
  5
1AD7
330
18
100
AcDbEntity
  8
DEFPOINTS
  6
ByBlock
 62
     0
100
AcDbPoint
 10
159.5761806892857
 20
118.0135330116013
 30
0.0
  0
LINE
  5
1AD8
102
{ACAD_REACTORS
330
1AB5
102
}
330
18
100
AcDbEntity
  8
外形線
100
AcDbLine
 10
159.5761806892857
 20
118.3485816182452
 30
0.0
 11
159.5761806892857
 21
118.0135330116013
 31
0.0
  0
LINE
  5
1AD9
102
{ACAD_REACTORS
330
1AB5
102
}
330
18
100
AcDbEntity
  8
外形線
100
AcDbLine
 10
160.5761806892857
 20
118.3485816182452
 30
0.0
 11
159.5761806892857
 21
118.3485816182452
 31
0.0
  0
LINE
  5
1ADA
102
{ACAD_REACTORS
330
1AB5
102
}
330
18
100
AcDbEntity
  8
外形線
100
AcDbLine
 10
160.5761806892857
 20
118.5277482849118
 30
0.0
 11
160.5761806892857
 21
118.3485816182452
 31
0.0
  0
LINE
  5
1ADB
102
{ACAD_REACTORS
330
1A96
102
}
330
18
100
AcDbEntity
  8
ROGO
 62
     4
100
AcDbLine
 10
154.677642580772
 20
128.0759276840755
 30
0.0
 11
155.395486075761
 21
128.0759276840755
 31
0.0
  0
LINE
  5
1ADC
102
{ACAD_REACTORS
330
1A95
102
}
330
18
100
AcDbEntity
  8
ROGO
 62
     4
100
AcDbLine
 10
150.3994493520995
 20
128.0759276840755
 30
0.0
 11
150.1681515205026
 21
127.612063163082
 31
0.0
  0
LINE
  5
1ADD
102
{ACAD_REACTORS
330
1A95
102
}
330
18
100
AcDbEntity
  8
ROGO
 62
     4
100
AcDbLine
 10
149.387946885536
 20
127.612063163082
 30
0.0
 11
150.1681515205026
 21
127.612063163082
 31
0.0
  0
LINE
  5
1ADE
102
{ACAD_REACTORS
330
1A95
102
}
330
18
100
AcDbEntity
  8
ROGO
 62
     4
100
AcDbLine
 10
149.2118720219264
 20
127.2930569462343
 30
0.0
 11
150.0090847178407
 21
127.2930569462343
 31
0.0
  0
SPLINE
  5
1ADF
102
{ACAD_REACTORS
330
1A95
102
}
330
18
100
AcDbEntity
  8
ROGO
 62
     4
100
AcDbSpline
210
0.0
220
0.0
230
1.0
 70
     8
 71
     3
 72
    16
 73
    12
 74
    10
 42
0.0000000001
 43
0.0000000001
 44
0.0000000001
 40
0.0
 40
0.0
 40
0.0
 40
0.0
 40
0.1192387348090995
 40
0.1774782579147198
 40
0.2061980046505734
 40
0.2364639408884763
 40
0.2798046750216953
 40
0.3192685720162602
 40
0.3604284971745742
 40
0.4294360858286333
 40
0.4977391777073984
 40
0.4977391777073984
 40
0.4977391777073984
 40
0.4977391777073984
 10
149.387946885536
 20
127.612063163082
 30
0.0
 10
149.3475672422676
 20
127.6059070140504
 30
0.0
 10
149.2874650552228
 20
127.5967440301649
 30
0.0
 10
149.2331146070625
 20
127.5537208133722
 30
0.0
 10
149.2024647279351
 20
127.5281248631582
 30
0.0
 10
149.1920375025067
 20
127.4942285592951
 30
0.0
 10
149.1640332494705
 20
127.468201401239
 30
0.0
 10
149.1409497793456
 20
127.4324317081757
 30
0.0
 10
149.1354379699344
 20
127.3833014553717
 30
0.0
 10
149.139483764236
 20
127.3143546330493
 30
0.0
 10
149.1878252775961
 20
127.3001318510049
 30
0.0
 10
149.2118720219264
 20
127.2930569462343
 30
0.0
 11
149.387946885536
 21
127.612063163082
 31
0.0
 11
149.2728211779259
 21
127.5810156619565
 31
0.0
 11
149.2254164518859
 21
127.5471832218931
 31
0.0
 11
149.2051001963558
 21
127.5268836254979
 31
0.0
 11
149.1915557663963
 21
127.4998174969711
 31
0.0
 11
149.1644672958863
 21
127.4659850569078
 31
0.0
 11
149.1441510403562
 21
127.4321523962493
 31
0.0
 11
149.1373788253764
 21
127.3915534240541
 31
0.0
 11
149.150923255336
 21
127.3238881027372
 31
0.0
 11
149.2118720219264
 21
127.2930569462343
 31
0.0
  0
LINE
  5
1AE0
102
{ACAD_REACTORS
330
1A95
102
}
330
18
100
AcDbEntity
  8
ROGO
 62
     4
100
AcDbLine
 10
149.1509232553364
 20
128.0759276840756
 30
0.0
 11
150.3994493520995
 21
128.0759276840756
 31
0.0
  0
LINE
  5
1AE1
102
{ACAD_REACTORS
330
1A5F
102
}
330
18
100
AcDbEntity
  8
ROGO
 62
     4
100
AcDbLine
 10
147.2615565303254
 20
127.7426715953347
 30
0.0
 11
146.9545446279276
 21
127.3169281087591
 31
0.0
  0
LINE
  5
1AE2
102
{ACAD_REACTORS
330
1A5F
102
}
330
18
100
AcDbEntity
  8
ROGO
 62
     4
100
AcDbLine
 10
146.7740044255849
 20
127.0665670816715
 30
0.0
 11
147.5619089453499
 21
127.0665670816715
 31
0.0
  0
LINE
  5
1AE3
102
{ACAD_REACTORS
330
1A5F
102
}
330
18
100
AcDbEntity
  8
ROGO
 62
     4
100
AcDbLine
 10
146.9545446279276
 20
127.3169281087591
 30
0.0
 11
147.450688656779
 21
127.3169281087591
 31
0.0
  0
LINE
  5
1AE4
102
{ACAD_REACTORS
330
1A5F
102
}
330
18
100
AcDbEntity
  8
ROGO
 62
     4
100
AcDbLine
 10
146.8114085129261
 20
128.0759276840755
 30
0.0
 11
147.808686016505
 21
128.0759276840756
 31
0.0
  0
LINE
  5
1AE5
102
{ACAD_REACTORS
330
1A5F
102
}
330
18
100
AcDbEntity
  8
ROGO
 62
     4
100
AcDbLine
 10
147.2615565303255
 20
127.7426715953347
 30
0.0
 11
147.450688656779
 21
127.3169281087591
 31
0.0
  0
LINE
  5
1AE6
102
{ACAD_REACTORS
330
1A8E
102
}
330
18
100
AcDbEntity
  8
ROGO
 62
     4
100
AcDbLine
 10
153.1679993292715
 20
128.0759276840755
 30
0.0
 11
154.4165254260347
 21
128.0759276840755
 31
0.0
  0
SPLINE
  5
1AE7
102
{ACAD_REACTORS
330
1A8E
102
}
330
18
100
AcDbEntity
  8
ROGO
 62
     4
100
AcDbSpline
210
0.0
220
0.0
230
1.0
 70
     8
 71
     3
 72
    16
 73
    12
 74
    10
 42
0.0000000001
 43
0.0000000001
 44
0.0000000001
 40
0.0
 40
0.0
 40
0.0
 40
0.0
 40
0.1192387348090446
 40
0.177478257914731
 40
0.2061980046505444
 40
0.2364639408884473
 40
0.2798046750216751
 40
0.3192685720162108
 40
0.3604284971744688
 40
0.4294360858285167
 40
0.4977391777072823
 40
0.4977391777072823
 40
0.4977391777072823
 40
0.4977391777072823
 10
153.4050229594712
 20
127.612063163082
 30
0.0
 10
153.3646433162028
 20
127.6059070140505
 30
0.0
 10
153.3045411291579
 20
127.596744030165
 30
0.0
 10
153.2501906809979
 20
127.5537208133721
 30
0.0
 10
153.2195408018702
 20
127.5281248631582
 30
0.0
 10
153.2091135764418
 20
127.4942285592951
 30
0.0
 10
153.1811093234058
 20
127.468201401239
 30
0.0
 10
153.1580258532809
 20
127.4324317081756
 30
0.0
 10
153.1525140438697
 20
127.3833014553717
 30
0.0
 10
153.1565598381713
 20
127.3143546330492
 30
0.0
 10
153.2049013515313
 20
127.3001318510048
 30
0.0
 10
153.2289480958616
 20
127.2930569462342
 30
0.0
 11
153.4050229594712
 21
127.612063163082
 31
0.0
 11
153.2898972518611
 21
127.5810156619565
 31
0.0
 11
153.2424925258211
 21
127.547183221893
 31
0.0
 11
153.222176270291
 21
127.5268836254979
 31
0.0
 11
153.2086318403314
 21
127.4998174969711
 31
0.0
 11
153.1815433698216
 21
127.4659850569077
 31
0.0
 11
153.1612271142915
 21
127.4321523962493
 31
0.0
 11
153.1544548993117
 21
127.3915534240541
 31
0.0
 11
153.1679993292712
 21
127.3238881027372
 31
0.0
 11
153.2289480958616
 21
127.2930569462342
 31
0.0
  0
LINE
  5
1AE8
102
{ACAD_REACTORS
330
1A8E
102
}
330
18
100
AcDbEntity
  8
ROGO
 62
     4
100
AcDbLine
 10
153.2289480958616
 20
127.2930569462343
 30
0.0
 11
154.0261607917759
 21
127.2930569462343
 31
0.0
  0
LINE
  5
1AE9
102
{ACAD_REACTORS
330
1A8E
102
}
330
18
100
AcDbEntity
  8
ROGO
 62
     4
100
AcDbLine
 10
153.4050229594712
 20
127.612063163082
 30
0.0
 11
154.1852275944379
 21
127.612063163082
 31
0.0
  0
LINE
  5
1AEA
102
{ACAD_REACTORS
330
1A8E
102
}
330
18
100
AcDbEntity
  8
ROGO
 62
     4
100
AcDbLine
 10
154.4165254260347
 20
128.0759276840755
 30
0.0
 11
154.1852275944379
 21
127.612063163082
 31
0.0
  0
SPLINE
  5
1AEB
102
{ACAD_REACTORS
330
1A91
102
}
330
18
100
AcDbEntity
  8
ROGO
 62
     4
100
AcDbSpline
210
0.0
220
0.0
230
1.0
 70
     8
 71
     3
 72
    25
 73
    21
 74
     0
 42
0.0000000001
 43
0.0000000001
 40
0.0
 40
0.0
 40
0.0
 40
0.0
 40
0.4087168505087288
 40
0.6887487002771746
 40
0.9415836120477687
 40
1.17452070575514
 40
1.41154617586699
 40
1.599156012919487
 40
1.80099909059943
 40
2.178735911501585
 40
2.521686161369157
 40
2.762704659361267
 40
3.06256558063785
 40
3.222432137207705
 40
3.399493810628493
 40
3.567459719866414
 40
3.743172740007509
 40
3.995988754699505
 40
4.17170091132118
 40
4.337226830236035
 40
4.337226830236035
 40
4.337226830236035
 40
4.337226830236035
 10
151.8042911545685
 20
128.0811278833821
 30
0.0
 10
151.8510218155189
 20
128.0796264754424
 30
0.0
 10
151.9297699316107
 20
128.0770963796908
 30
0.0
 10
152.014315749195
 20
128.0110139671309
 30
0.0
 10
152.0790077611806
 20
127.9562265840129
 30
0.0
 10
152.1249269542776
 20
127.8899912032643
 30
0.0
 10
152.1651764135973
 20
127.8290912989572
 30
0.0
 10
152.1916977557038
 20
127.7647950123733
 30
0.0
 10
152.2277720208629
 20
127.687645356855
 30
0.0
 10
152.2427049844667
 20
127.5844305797762
 30
0.0
 10
152.2326159919448
 20
127.4777485843061
 30
0.0
 10
152.2062884321316
 20
127.3831848083911
 30
0.0
 10
152.1786729386427
 20
127.3106377008873
 30
0.0
 10
152.146124792331
 20
127.2474809431282
 30
0.0
 10
152.1073232427372
 20
127.2065869375801
 30
0.0
 10
152.0804042871332
 20
127.1545906081808
 30
0.0
 10
152.0286964168557
 20
127.1120604023014
 30
0.0
 10
151.9867792280071
 20
127.0595840975663
 30
0.0
 10
151.9392119483647
 20
127.0145431271811
 30
0.0
 10
151.9123933052483
 20
126.9867533912417
 30
0.0
 10
151.8982538698496
 20
126.9750690822303
 30
0.0
  0
LINE
  5
1AEC
102
{ACAD_REACTORS
330
1A91
102
}
330
18
100
AcDbEntity
  8
ROGO
 62
     4
100
AcDbLine
 10
151.0917928359578
 20
128.0811278833821
 30
0.0
 11
151.8042911545685
 21
128.0811278833821
 31
0.0
  0
ELLIPSE
  5
1AED
102
{ACAD_REACTORS
330
1A91
102
}
330
18
100
AcDbEntity
  8
ROGO
 62
     4
100
AcDbEllipse
 10
151.255528847966
 20
127.4377075421601
 30
0.0
 11
0.1692676504802256
 21
0.148849717495386
 31
0.0
210
0.0
220
0.0
230
1.0
 40
0.6788083417438791
 41
0.0
 42
6.283185307179586
  0
LINE
  5
1AEE
102
{ACAD_REACTORS
330
1A96
102
}
330
18
100
AcDbEntity
  8
ROGO
 62
     4
100
AcDbLine
 10
155.395486075761
 20
128.0759276840755
 30
0.0
 11
155.2894304586102
 21
127.863234647964
 31
0.0
  0
LINE
  5
1AEF
102
{ACAD_REACTORS
330
1A96
102
}
330
18
100
AcDbEntity
  8
ROGO
 62
     4
100
AcDbLine
 10
155.2894304586102
 20
127.863234647964
 30
0.0
 11
155.6255387155969
 21
128.0759276840755
 31
0.0
  0
LINE
  5
1AF0
102
{ACAD_REACTORS
330
1A96
102
}
330
18
100
AcDbEntity
  8
ROGO
 62
     4
100
AcDbLine
 10
155.1633200263696
 20
127.101876956988
 30
0.0
 11
156.3433665047475
 21
128.0759276840755
 31
0.0
  0
LINE
  5
1AF1
102
{ACAD_REACTORS
330
1A96
102
}
330
18
100
AcDbEntity
  8
ROGO
 62
     4
100
AcDbLine
 10
155.6255387155969
 20
128.0759276840755
 30
0.0
 11
156.3433665047475
 21
128.0759276840755
 31
0.0
  0
LINE
  5
1AF5
330
18
100
AcDbEntity
  8
目盛
100
AcDbLine
 10
149.459839210615
 20
139.9768158399903
 30
0.0
 11
149.4205757617674
 21
138.7274326395332
 31
0.0
  0
LINE
  5
1AF6
330
18
100
AcDbEntity
  8
目盛
100
AcDbLine
 10
150.1815737009923
 20
139.9427797054288
 30
0.0
 11
150.1030855515806
 21
138.6952462948934
 31
0.0
  0
LINE
  5
1AF7
330
18
100
AcDbEntity
  8
目盛
100
AcDbLine
 10
150.9018829581439
 20
139.8860901374493
 30
0.0
 11
150.7842475664958
 21
138.6416376816955
 31
0.0
  0
LINE
  5
1AF8
330
18
100
AcDbEntity
  8
目盛
100
AcDbLine
 10
151.6200561237971
 20
139.8068030818115
 30
0.0
 11
151.4633895818417
 21
138.5666597051684
 31
0.0
  0
LINE
  5
1AF9
330
18
100
AcDbEntity
  8
目盛
100
AcDbLine
 10
152.3353844477434
 20
139.7049967852667
 30
0.0
 11
151.9834069014029
 21
137.4826980189276
 31
0.0
  0
LINE
  5
1AFA
330
18
100
AcDbEntity
  8
目盛
100
AcDbLine
 10
153.0471619872898
 20
139.5807717183384
 30
0.0
 11
152.8129353440576
 21
138.3529126549275
 31
0.0
  0
LINE
  5
1AFB
330
18
100
AcDbEntity
  8
目盛
100
AcDbLine
 10
153.7546863039386
 20
139.4342504761697
 30
0.0
 11
153.4820072521929
 21
138.2143545237463
 31
0.0
  0
LINE
  5
1AFC
330
18
100
AcDbEntity
  8
目盛
100
AcDbLine
 10
154.4572591566097
 20
139.265577657537
 30
0.0
 11
154.1463967976537
 21
138.0548487061262
 31
0.0
  0
LINE
  5
1AFD
330
18
100
AcDbEntity
  8
目盛
100
AcDbLine
 10
155.1541871907204
 20
139.0749197221482
 30
0.0
 11
154.8054483081713
 21
137.874552615052
 31
0.0
  0
LINE
  5
1AFF
330
18
100
AcDbEntity
  8
目盛
100
AcDbLine
 10
146.5729005454923
 20
139.8860901374493
 30
0.0
 11
146.6905359371404
 21
138.6416376816955
 31
0.0
  0
LINE
  5
1B00
330
18
100
AcDbEntity
  8
目盛
100
AcDbLine
 10
145.8547273798391
 20
139.8068030818115
 30
0.0
 11
146.0113939217944
 21
138.5666597051684
 31
0.0
  0
LINE
  5
1B01
330
18
100
AcDbEntity
  8
目盛
100
AcDbLine
 10
144.4276215163464
 20
139.5807717183383
 30
0.0
 11
144.6618481595786
 21
138.3529126549275
 31
0.0
  0
LINE
  5
1B02
330
18
100
AcDbEntity
  8
目盛
100
AcDbLine
 10
143.7200971996976
 20
139.4342504761697
 30
0.0
 11
143.9927762514433
 21
138.2143545237463
 31
0.0
  0
LINE
  5
1B03
330
18
100
AcDbEntity
  8
目盛
100
AcDbLine
 10
143.0175243470264
 20
139.265577657537
 30
0.0
 11
143.3283867059825
 21
138.0548487061262
 31
0.0
  0
LINE
  5
1B04
330
18
100
AcDbEntity
  8
目盛
100
AcDbLine
 10
142.3205963129158
 20
139.0749197221482
 30
0.0
 11
142.6693351954649
 21
137.874552615052
 31
0.0
  0
LINE
  5
1B05
330
18
100
AcDbEntity
  8
目盛
100
AcDbLine
 10
145.1393990558928
 20
139.7049967852667
 30
0.0
 11
145.4913766022333
 21
137.4826980189276
 31
0.0
  0
LINE
  5
1B06
330
18
100
AcDbEntity
  8
目盛
100
AcDbLine
 10
141.6300008811943
 20
138.8624648263671
 30
0.0
 11
142.3252891185379
 21
136.7225876647029
 31
0.0
  0
LINE
  5
1B07
330
18
100
AcDbEntity
  8
目盛
100
AcDbLine
 10
148.0149442930211
 20
139.9768158399903
 30
0.0
 11
148.0542077418688
 21
138.7274326395331
 31
0.0
  0
LINE
  5
1B08
330
18
100
AcDbEntity
  8
目盛
100
AcDbLine
 10
147.2932098026439
 20
139.9427797054287
 30
0.0
 11
147.3716979520555
 21
138.6952462948934
 31
0.0
  0
LINE
  5
1B09
330
18
100
AcDbEntity
  8
目盛
100
AcDbLine
 10
139.6029902672181
 20
138.0965213423101
 30
0.0
 11
140.0994251305116
 21
136.9493280602051
 31
0.0
  0
LINE
  5
1B0A
330
18
100
AcDbEntity
  8
目盛
100
AcDbLine
 10
138.9444680458214
 20
137.799187158297
 30
0.0
 11
139.4766921602777
 21
136.6681533427144
 31
0.0
  0
LINE
  5
1B0B
330
18
100
AcDbEntity
  8
目盛
100
AcDbLine
 10
137.6570572474786
 20
137.1432185925874
 30
0.0
 11
138.2592493401058
 21
136.0478352425325
 31
0.0
  0
LINE
  5
1B0C
330
18
100
AcDbEntity
  8
目盛
100
AcDbLine
 10
137.0294391895596
 20
136.7852315726692
 30
0.0
 11
137.6657409592475
 21
135.7093040389143
 31
0.0
  0
LINE
  5
1B0D
330
18
100
AcDbEntity
  8
目盛
100
AcDbLine
 10
136.4133754673012
 20
136.4077072381249
 30
0.0
 11
137.0831589610249
 21
135.3522973312474
 31
0.0
  0
LINE
  5
1B0E
330
18
100
AcDbEntity
  8
目盛
100
AcDbLine
 10
135.8094740612191
 20
136.0110181598934
 30
0.0
 11
136.5120782835343
 21
134.9771674420502
 31
0.0
  0
LINE
  5
1B0F
330
18
100
AcDbEntity
  8
目盛
100
AcDbLine
 10
138.2956102578085
 20
137.481315007911
 30
0.0
 11
139.3170888822225
 21
135.4765503284871
 31
0.0
  0
LINE
  5
1B10
330
18
100
AcDbEntity
  8
目盛
100
AcDbLine
 10
135.2183309490912
 20
135.5955558222023
 30
0.0
 11
136.5408477667493
 21
133.7752675848587
 31
0.0
  0
LINE
  5
1B11
330
18
100
AcDbEntity
  8
目盛
100
AcDbLine
 10
140.9464195861763
 20
138.6284226375257
 30
0.0
 11
141.369841986483
 21
137.4523216763329
 31
0.0
  0
LINE
  5
1B12
330
18
100
AcDbEntity
  8
目盛
100
AcDbLine
 10
140.2705270400705
 20
138.3730241270083
 30
0.0
 11
140.7306827309263
 21
137.210803519648
 31
0.0
  0
LINE
  5
1B13
330
18
100
AcDbEntity
  8
目盛
100
AcDbLine
 10
133.5272188493741
 20
134.2407195530791
 30
0.0
 11
134.3538586810286
 21
133.303080716041
 31
0.0
  0
LINE
  5
1B14
330
18
100
AcDbEntity
  8
目盛
100
AcDbLine
 10
132.9928083154582
 20
133.754443382271
 30
0.0
 11
133.8484921978691
 21
132.8432325979942
 31
0.0
  0
LINE
  5
1B15
330
18
100
AcDbEntity
  8
目盛
100
AcDbLine
 10
131.9711133211256
 20
132.7327483879383
 30
0.0
 11
132.8823241054024
 21
131.8770645055275
 31
0.0
  0
LINE
  5
1B16
330
18
100
AcDbEntity
  8
目盛
100
AcDbLine
 10
131.4848371503175
 20
132.1983378540225
 30
0.0
 11
132.4224759873556
 21
131.3716980223679
 31
0.0
  0
LINE
  5
1B17
330
18
100
AcDbEntity
  8
目盛
100
AcDbLine
 10
131.0155871679749
 20
131.6489167157984
 30
0.0
 11
131.9787287214447
 21
130.8521367286125
 31
0.0
  0
LINE
  5
1B18
330
18
100
AcDbEntity
  8
目盛
100
AcDbLine
 10
130.5638264671772
 20
131.085027185597
 30
0.0
 11
131.5515202326468
 21
130.3188933685307
 31
0.0
  0
LINE
  5
1B19
330
18
100
AcDbEntity
  8
目盛
100
AcDbLine
 10
132.4739357845275
 20
133.2516209188691
 30
0.0
 11
134.0649260421972
 21
131.6606306611994
 31
0.0
  0
LINE
  5
1B1A
330
18
100
AcDbEntity
  8
目盛
100
AcDbLine
 10
130.1300008811943
 20
130.5072257543054
 30
0.0
 11
131.9502891185379
 21
129.1847089366473
 31
0.0
  0
LINE
  5
1B1B
330
18
100
AcDbEntity
  8
目盛
100
AcDbLine
 10
134.6405295177996
 20
135.1617302362194
 30
0.0
 11
135.4066633348658
 21
134.1740364707498
 31
0.0
  0
LINE
  5
1B1C
330
18
100
AcDbEntity
  8
目盛
100
AcDbLine
 10
134.0766399875982
 20
134.7099695354216
 30
0.0
 11
134.8734199747841
 21
133.7468279819519
 31
0.0
  0
LINE
  5
1B1D
330
18
100
AcDbEntity
  8
目盛
100
AcDbLine
 10
128.9403251307274
 20
128.6961175138371
 30
0.0
 11
130.0162526644823
 21
128.0598157441491
 31
0.0
  0
LINE
  5
1B1E
330
18
100
AcDbEntity
  8
目盛
100
AcDbLine
 10
128.5823381108092
 20
128.068499455918
 30
0.0
 11
129.677721460864
 21
127.4663073632908
 31
0.0
  0
LINE
  5
1B1F
330
18
100
AcDbEntity
  8
目盛
100
AcDbLine
 10
127.9263695450997
 20
126.7810886575752
 30
0.0
 11
129.0574033606821
 21
126.2488645431188
 31
0.0
  0
LINE
  5
1B20
330
18
100
AcDbEntity
  8
目盛
100
AcDbLine
 10
127.6290353610865
 20
126.1225664361785
 30
0.0
 11
128.7762286431915
 21
125.626131572885
 31
0.0
  0
LINE
  5
1B21
330
18
100
AcDbEntity
  8
目盛
100
AcDbLine
 10
127.3525325763883
 20
125.4550296633261
 30
0.0
 11
128.5147531837486
 21
124.9948739724703
 31
0.0
  0
LINE
  5
1B22
330
18
100
AcDbEntity
  8
目盛
100
AcDbLine
 10
127.0971340658709
 20
124.7791371172202
 30
0.0
 11
128.2732350270637
 21
124.3557147169136
 31
0.0
  0
LINE
  5
1B23
330
18
100
AcDbEntity
  8
目盛
100
AcDbLine
 10
128.2442416954856
 20
127.4299464455881
 30
0.0
 11
130.2490063749095
 21
126.4084678211742
 31
0.0
  0
LINE
  5
1B24
330
18
100
AcDbEntity
  8
目盛
100
AcDbLine
 10
126.8630918770295
 20
124.0955558222023
 30
0.0
 11
129.0029690386937
 21
123.4002675848587
 31
0.0
  0
LINE
  5
1B25
330
18
100
AcDbEntity
  8
目盛
100
AcDbLine
 10
129.7145385435032
 20
129.9160826421775
 30
0.0
 11
130.7483892613464
 21
129.2134784198624
 31
0.0
  0
LINE
  5
1B26
330
18
100
AcDbEntity
  8
目盛
100
AcDbLine
 10
129.3178494652717
 20
129.3121812360954
 30
0.0
 11
130.3732593721492
 21
128.6423977423717
 31
0.0
  0
LINE
  5
1B27
330
18
100
AcDbEntity
  8
目盛
100
AcDbLine
 10
126.2913062272269
 20
122.005459503699
 30
0.0
 11
127.5112021796503
 21
121.7327804519533
 31
0.0
  0
LINE
  5
1B28
330
18
100
AcDbEntity
  8
目盛
100
AcDbLine
 10
126.1447849850583
 20
121.2979351870502
 30
0.0
 11
127.3726440484691
 21
121.063708543818
 31
0.0
  0
LINE
  5
1B29
330
18
100
AcDbEntity
  8
目盛
100
AcDbLine
 10
125.9187536215851
 20
119.8708293235575
 30
0.0
 11
127.1588969982282
 21
119.7141627816021
 31
0.0
  0
LINE
  5
1B2A
330
18
100
AcDbEntity
  8
目盛
100
AcDbLine
 10
125.8394665659473
 20
119.1526561579044
 30
0.0
 11
127.0839190217011
 21
119.0350207662562
 31
0.0
  0
LINE
  5
1B2B
330
18
100
AcDbEntity
  8
目盛
100
AcDbLine
 10
125.7827769979678
 20
118.4323469007527
 30
0.0
 11
127.0303104085032
 21
118.3538587513411
 31
0.0
  0
LINE
  5
1B2C
330
18
100
AcDbEntity
  8
目盛
100
AcDbLine
 10
125.7487408634063
 20
117.7106124103755
 30
0.0
 11
126.9981240638634
 21
117.6713489615278
 31
0.0
  0
LINE
  5
1B2D
330
18
100
AcDbEntity
  8
目盛
100
AcDbLine
 10
126.0205599181299
 20
120.5861576475038
 30
0.0
 11
128.242858684469
 21
120.2341801011633
 31
0.0
  0
LINE
  5
1B2E
330
18
100
AcDbEntity
  8
目盛
100
AcDbLine
 10
125.7373917518181
 20
116.9881649515785
 30
0.0
 11
127.9873917518181
 21
116.9881649515785
 31
0.0
  0
LINE
  5
1B2F
330
18
100
AcDbEntity
  8
目盛
100
AcDbLine
 10
126.6506369812484
 20
123.4049603904808
 30
0.0
 11
127.8510040883446
 21
123.0562215079318
 31
0.0
  0
LINE
  5
1B30
330
18
100
AcDbEntity
  8
目盛
100
AcDbLine
 10
126.4599790458596
 20
122.7080323563702
 30
0.0
 11
127.6707079972704
 21
122.3971699974141
 31
0.0
  0
LINE
  5
1B31
330
18
100
AcDbEntity
  8
目盛
100
AcDbLine
 10
125.8394665659473
 20
114.8236737452527
 30
0.0
 11
127.0839190217011
 21
114.9413091369008
 31
0.0
  0
LINE
  5
1B32
330
18
100
AcDbEntity
  8
目盛
100
AcDbLine
 10
125.9187536215851
 20
114.1055005795995
 30
0.0
 11
127.1588969982282
 21
114.2621671215549
 31
0.0
  0
LINE
  5
1B33
330
18
100
AcDbEntity
  8
目盛
100
AcDbLine
 10
126.1447849850583
 20
112.6783947161068
 30
0.0
 11
127.3726440484691
 21
112.912621359339
 31
0.0
  0
LINE
  5
1B34
330
18
100
AcDbEntity
  8
目盛
100
AcDbLine
 10
126.2913062272269
 20
111.9708703994581
 30
0.0
 11
127.5112021796504
 21
112.2435494512037
 31
0.0
  0
LINE
  5
1B35
330
18
100
AcDbEntity
  8
目盛
100
AcDbLine
 10
126.4599790458596
 20
111.2682975467869
 30
0.0
 11
127.6707079972704
 21
111.5791599057429
 31
0.0
  0
LINE
  5
1B36
330
18
100
AcDbEntity
  8
目盛
100
AcDbLine
 10
126.6506369812484
 20
110.5713695126762
 30
0.0
 11
127.8510040883446
 21
110.9201083952253
 31
0.0
  0
LINE
  5
1B37
330
18
100
AcDbEntity
  8
目盛
100
AcDbLine
 10
126.0205599181299
 20
113.3901722556532
 30
0.0
 11
128.242858684469
 21
113.7421498019938
 31
0.0
  0
LINE
  5
1B38
330
18
100
AcDbEntity
  8
目盛
100
AcDbLine
 10
126.8630918770296
 20
109.8807740809547
 30
0.0
 11
129.0029690386936
 21
110.5760623182984
 31
0.0
  0
LINE
  5
1B39
330
18
100
AcDbEntity
  8
目盛
100
AcDbLine
 10
125.7487408634063
 20
116.2657174927816
 30
0.0
 11
126.9981240638634
 21
116.3049809416292
 31
0.0
  0
LINE
  5
1B3A
330
18
100
AcDbEntity
  8
目盛
100
AcDbLine
 10
125.7827769979679
 20
115.5439830024043
 30
0.0
 11
127.0303104085032
 21
115.6224711518159
 31
0.0
  0
LINE
  5
1B3B
330
18
100
AcDbEntity
  8
目盛
100
AcDbLine
 10
127.6290353610865
 20
107.8537634669786
 30
0.0
 11
128.7762286431915
 21
108.350198330272
 31
0.0
  0
LINE
  5
1B3C
330
18
100
AcDbEntity
  8
目盛
100
AcDbLine
 10
127.9263695450997
 20
107.1952412455818
 30
0.0
 11
129.0574033606822
 21
107.7274653600382
 31
0.0
  0
LINE
  5
1B3D
330
18
100
AcDbEntity
  8
目盛
100
AcDbLine
 10
128.5823381108093
 20
105.9078304472391
 30
0.0
 11
129.6777214608641
 21
106.5100225398662
 31
0.0
  0
LINE
  5
1B3E
330
18
100
AcDbEntity
  8
目盛
100
AcDbLine
 10
128.9403251307274
 20
105.28021238932
 30
0.0
 11
130.0162526644823
 21
105.9165141590079
 31
0.0
  0
LINE
  5
1B3F
330
18
100
AcDbEntity
  8
目盛
100
AcDbLine
 10
129.3178494652717
 20
104.6641486670616
 30
0.0
 11
130.3732593721492
 21
105.3339321607853
 31
0.0
  0
LINE
  5
1B40
330
18
100
AcDbEntity
  8
目盛
100
AcDbLine
 10
129.7145385435032
 20
104.0602472609795
 30
0.0
 11
130.7483892613464
 21
104.7628514832947
 31
0.0
  0
LINE
  5
1B41
330
18
100
AcDbEntity
  8
目盛
100
AcDbLine
 10
128.2442416954856
 20
106.5463834575689
 30
0.0
 11
130.2490063749095
 21
107.5678620819829
 31
0.0
  0
LINE
  5
1B42
330
18
100
AcDbEntity
  8
目盛
100
AcDbLine
 10
130.1300008811943
 20
103.4691041488516
 30
0.0
 11
131.9502891185379
 21
104.7916209665097
 31
0.0
  0
LINE
  5
1B43
330
18
100
AcDbEntity
  8
目盛
100
AcDbLine
 10
127.0971340658709
 20
109.1971927859368
 30
0.0
 11
128.2732350270637
 21
109.6206151862434
 31
0.0
  0
LINE
  5
1B44
330
18
100
AcDbEntity
  8
目盛
100
AcDbLine
 10
127.3525325763883
 20
108.5213002398309
 30
0.0
 11
128.5147531837486
 21
108.9814559306868
 31
0.0
  0
LINE
  5
1B45
330
18
100
AcDbEntity
  8
目盛
100
AcDbLine
 10
131.4848371503175
 20
101.7779920491346
 30
0.0
 11
132.4224759873556
 21
102.6046318807891
 31
0.0
  0
LINE
  5
1B46
330
18
100
AcDbEntity
  8
目盛
100
AcDbLine
 10
131.9711133211256
 20
101.2435815152187
 30
0.0
 11
132.8823241054024
 21
102.0992653976295
 31
0.0
  0
LINE
  5
1B47
330
18
100
AcDbEntity
  8
目盛
100
AcDbLine
 10
132.9928083154583
 20
100.2218865208861
 30
0.0
 11
133.8484921978692
 21
101.1330973051628
 31
0.0
  0
LINE
  5
1B48
330
18
100
AcDbEntity
  8
目盛
100
AcDbLine
 10
133.5272188493741
 20
99.73561035007799
 30
0.0
 11
134.3538586810287
 21
100.673249187116
 31
0.0
  0
LINE
  5
1B49
330
18
100
AcDbEntity
  8
目盛
100
AcDbLine
 10
134.0766399875983
 20
99.26636036773539
 30
0.0
 11
134.8734199747841
 21
100.2295019212051
 31
0.0
  0
LINE
  5
1B4A
330
18
100
AcDbEntity
  8
目盛
100
AcDbLine
 10
134.6405295177997
 20
98.81459966693768
 30
0.0
 11
135.4066633348658
 21
99.80229343240729
 31
0.0
  0
LINE
  5
1B4B
330
18
100
AcDbEntity
  8
目盛
100
AcDbLine
 10
132.4739357845275
 20
100.724708984288
 30
0.0
 11
134.0649260421972
 21
102.3156992419577
 31
0.0
  0
LINE
  5
1B4C
330
18
100
AcDbEntity
  8
目盛
100
AcDbLine
 10
135.2183309490912
 20
98.38077408095475
 30
0.0
 11
136.5408477667493
 21
100.2010623182984
 31
0.0
  0
LINE
  5
1B4D
330
18
100
AcDbEntity
  8
目盛
100
AcDbLine
 10
130.5638264671772
 20
102.8913027175601
 30
0.0
 11
131.5515202326468
 21
103.6574365346263
 31
0.0
  0
LINE
  5
1B4E
330
18
100
AcDbEntity
  8
目盛
100
AcDbLine
 10
131.015587167975
 20
102.3274131873586
 30
0.0
 11
131.9787287214447
 21
103.1241931745445
 31
0.0
  0
LINE
  5
1B4F
330
18
100
AcDbEntity
  8
目盛
100
AcDbLine
 10
137.0294391895595
 20
97.19109833048785
 30
0.0
 11
137.6657409592475
 21
98.26702586424275
 31
0.0
  0
LINE
  5
1B50
330
18
100
AcDbEntity
  8
目盛
100
AcDbLine
 10
137.6570572474786
 20
96.83311131056971
 30
0.0
 11
138.2592493401058
 21
97.92849466062451
 31
0.0
  0
LINE
  5
1B51
330
18
100
AcDbEntity
  8
目盛
100
AcDbLine
 10
138.9444680458214
 20
96.17714274486012
 30
0.0
 11
139.4766921602777
 21
97.30817656044262
 31
0.0
  0
LINE
  5
1B52
330
18
100
AcDbEntity
  8
目盛
100
AcDbLine
 10
139.6029902672181
 20
95.87980856084698
 30
0.0
 11
140.0994251305116
 21
97.02700184295196
 31
0.0
  0
LINE
  5
1B53
330
18
100
AcDbEntity
  8
目盛
100
AcDbLine
 10
140.2705270400705
 20
95.60330577614877
 30
0.0
 11
140.7306827309263
 21
96.76552638350909
 31
0.0
  0
LINE
  5
1B54
330
18
100
AcDbEntity
  8
目盛
100
AcDbLine
 10
140.9464195861763
 20
95.34790726563135
 30
0.0
 11
141.369841986483
 21
96.52400822682416
 31
0.0
  0
LINE
  5
1B55
330
18
100
AcDbEntity
  8
目盛
100
AcDbLine
 10
138.2956102578085
 20
96.4950148952461
 30
0.0
 11
139.3170888822224
 21
98.49977957466993
 31
0.0
  0
LINE
  5
1B56
330
18
100
AcDbEntity
  8
目盛
100
AcDbLine
 10
141.6300008811943
 20
95.11386507679
 30
0.0
 11
142.3252891185379
 21
97.25374223845413
 31
0.0
  0
LINE
  5
1B57
330
18
100
AcDbEntity
  8
目盛
100
AcDbLine
 10
135.8094740612191
 20
97.96531174326363
 30
0.0
 11
136.5120782835342
 21
98.99916246110686
 31
0.0
  0
LINE
  5
1B58
330
18
100
AcDbEntity
  8
目盛
100
AcDbLine
 10
136.4133754673011
 20
97.56862266503219
 30
0.0
 11
137.0831589610249
 21
98.62403257190969
 31
0.0
  0
LINE
  5
1B59
330
18
100
AcDbEntity
  8
目盛
100
AcDbLine
 10
143.7200971996976
 20
94.54207942698738
 30
0.0
 11
143.9927762514433
 21
95.76197537941082
 31
0.0
  0
LINE
  5
1B5A
330
18
100
AcDbEntity
  8
目盛
100
AcDbLine
 10
144.4276215163464
 20
94.39555818481872
 30
0.0
 11
144.6618481595785
 21
95.62341724822957
 31
0.0
  0
LINE
  5
1B5B
330
18
100
AcDbEntity
  8
目盛
100
AcDbLine
 10
145.8547273798391
 20
94.16952682134558
 30
0.0
 11
146.0113939217944
 21
95.40967019798868
 31
0.0
  0
LINE
  5
1B5C
330
18
100
AcDbEntity
  8
目盛
100
AcDbLine
 10
146.5729005454922
 20
94.09023976570773
 30
0.0
 11
146.6905359371404
 21
95.33469222146157
 31
0.0
  0
LINE
  5
1B5D
330
18
100
AcDbEntity
  8
目盛
100
AcDbLine
 10
147.2932098026438
 20
94.03355019772831
 30
0.0
 11
147.3716979520555
 21
95.28108360826365
 31
0.0
  0
LINE
  5
1B5E
330
18
100
AcDbEntity
  8
目盛
100
AcDbLine
 10
148.0149442930211
 20
93.99951406316674
 30
0.0
 11
148.0542077418687
 21
95.24889726362392
 31
0.0
  0
LINE
  5
1B5F
330
18
100
AcDbEntity
  8
目盛
100
AcDbLine
 10
145.1393990558927
 20
94.2713331178904
 30
0.0
 11
145.4913766022332
 21
96.49363188422945
 31
0.0
  0
LINE
  5
1B60
330
18
100
AcDbEntity
  8
目盛
100
AcDbLine
 10
148.7373917518181
 20
93.98816495157857
 30
0.0
 11
148.7373917518181
 21
96.23816495157857
 31
0.0
  0
LINE
  5
1B61
330
18
100
AcDbEntity
  8
目盛
100
AcDbLine
 10
142.3205963129158
 20
94.90141018100885
 30
0.0
 11
142.6693351954648
 21
96.10177728810507
 31
0.0
  0
LINE
  5
1B62
330
18
100
AcDbEntity
  8
目盛
100
AcDbLine
 10
143.0175243470264
 20
94.71075224562005
 30
0.0
 11
143.3283867059825
 21
95.92148119703082
 31
0.0
  0
LINE
  5
1B63
330
18
100
AcDbEntity
  8
目盛
100
AcDbLine
 10
150.9018829581439
 20
94.09023976570773
 30
0.0
 11
150.7842475664958
 21
95.33469222146157
 31
0.0
  0
LINE
  5
1B64
330
18
100
AcDbEntity
  8
目盛
100
AcDbLine
 10
151.6200561237971
 20
94.16952682134555
 30
0.0
 11
151.4633895818417
 21
95.40967019798864
 31
0.0
  0
LINE
  5
1B65
330
18
100
AcDbEntity
  8
目盛
100
AcDbLine
 10
153.0471619872898
 20
94.39555818481872
 30
0.0
 11
152.8129353440576
 21
95.6234172482296
 31
0.0
  0
LINE
  5
1B66
330
18
100
AcDbEntity
  8
目盛
100
AcDbLine
 10
153.7546863039386
 20
94.54207942698738
 30
0.0
 11
153.4820072521929
 21
95.76197537941082
 31
0.0
  0
LINE
  5
1B67
330
18
100
AcDbEntity
  8
目盛
100
AcDbLine
 10
154.4572591566098
 20
94.71075224562003
 30
0.0
 11
154.1463967976537
 21
95.92148119703081
 31
0.0
  0
LINE
  5
1B68
330
18
100
AcDbEntity
  8
目盛
100
AcDbLine
 10
155.1541871907204
 20
94.90141018100889
 30
0.0
 11
154.8054483081713
 21
96.10177728810507
 31
0.0
  0
LINE
  5
1B69
330
18
100
AcDbEntity
  8
目盛
100
AcDbLine
 10
152.3353844477434
 20
94.27133311789038
 30
0.0
 11
151.9834069014029
 21
96.49363188422942
 31
0.0
  0
LINE
  5
1B6A
330
18
100
AcDbEntity
  8
目盛
100
AcDbLine
 10
155.8447826224419
 20
95.11386507679004
 30
0.0
 11
155.1494943850983
 21
97.25374223845413
 31
0.0
  0
LINE
  5
1B6B
330
18
100
AcDbEntity
  8
目盛
100
AcDbLine
 10
149.459839210615
 20
93.99951406316672
 30
0.0
 11
149.4205757617674
 21
95.24889726362392
 31
0.0
  0
LINE
  5
1B6C
330
18
100
AcDbEntity
  8
目盛
100
AcDbLine
 10
150.1815737009923
 20
94.03355019772831
 30
0.0
 11
150.1030855515806
 21
95.28108360826365
 31
0.0
  0
LINE
  5
1B6D
330
18
100
AcDbEntity
  8
目盛
100
AcDbLine
 10
157.871793236418
 20
95.87980856084698
 30
0.0
 11
157.3753583731246
 21
97.02700184295196
 31
0.0
  0
LINE
  5
1B6E
330
18
100
AcDbEntity
  8
目盛
100
AcDbLine
 10
158.5303154578148
 20
96.17714274486008
 30
0.0
 11
157.9980913433584
 21
97.3081765604426
 31
0.0
  0
LINE
  5
1B6F
330
18
100
AcDbEntity
  8
目盛
100
AcDbLine
 10
159.8177262561575
 20
96.83311131056967
 30
0.0
 11
159.2155341635304
 21
97.92849466062452
 31
0.0
  0
LINE
  5
1B70
330
18
100
AcDbEntity
  8
目盛
100
AcDbLine
 10
160.4453443140766
 20
97.19109833048783
 30
0.0
 11
159.8090425443887
 21
98.26702586424278
 31
0.0
  0
LINE
  5
1B71
330
18
100
AcDbEntity
  8
目盛
100
AcDbLine
 10
161.061408036335
 20
97.56862266503219
 30
0.0
 11
160.3916245426113
 21
98.62403257190971
 31
0.0
  0
LINE
  5
1B72
330
18
100
AcDbEntity
  8
目盛
100
AcDbLine
 10
161.6653094424171
 20
97.96531174326361
 30
0.0
 11
160.9627052201019
 21
98.99916246110684
 31
0.0
  0
LINE
  5
1B73
330
18
100
AcDbEntity
  8
目盛
100
AcDbLine
 10
159.1791732458277
 20
96.49501489524608
 30
0.0
 11
158.1576946214137
 21
98.4997795746699
 31
0.0
  0
LINE
  5
1B74
330
18
100
AcDbEntity
  8
目盛
100
AcDbLine
 10
162.2564525545449
 20
98.38077408095475
 30
0.0
 11
160.9339357368869
 21
100.2010623182984
 31
0.0
  0
LINE
  5
1B75
330
18
100
AcDbEntity
  8
目盛
100
AcDbLine
 10
156.5283639174598
 20
95.34790726563134
 30
0.0
 11
156.1049415171531
 21
96.52400822682416
 31
0.0
  0
LINE
  5
1B76
330
18
100
AcDbEntity
  8
目盛
100
AcDbLine
 10
157.2042564635657
 20
95.60330577614877
 30
0.0
 11
156.7441007727098
 21
96.76552638350907
 31
0.0
  0
LINE
  5
1B77
330
18
100
AcDbEntity
  8
目盛
100
AcDbLine
 10
163.9475646542621
 20
99.73561035007794
 30
0.0
 11
163.1209248226075
 21
100.673249187116
 31
0.0
  0
LINE
  5
1B78
330
18
100
AcDbEntity
  8
目盛
100
AcDbLine
 10
164.4819751881779
 20
100.221886520886
 30
0.0
 11
163.6262913057671
 21
101.1330973051628
 31
0.0
  0
LINE
  5
1B79
330
18
100
AcDbEntity
  8
目盛
100
AcDbLine
 10
165.5036701825105
 20
101.2435815152187
 30
0.0
 11
164.5924593982338
 21
102.0992653976295
 31
0.0
  0
LINE
  5
1B7A
330
18
100
AcDbEntity
  8
目盛
100
AcDbLine
 10
165.9899463533186
 20
101.7779920491345
 30
0.0
 11
165.0523075162806
 21
102.6046318807891
 31
0.0
  0
LINE
  5
1B7B
330
18
100
AcDbEntity
  8
目盛
100
AcDbLine
 10
166.4591963356612
 20
102.3274131873586
 30
0.0
 11
165.4960547821915
 21
103.1241931745445
 31
0.0
  0
LINE
  5
1B7C
330
18
100
AcDbEntity
  8
目盛
100
AcDbLine
 10
166.9109570364589
 20
102.89130271756
 30
0.0
 11
165.9232632709893
 21
103.6574365346262
 31
0.0
  0
LINE
  5
1B7D
330
18
100
AcDbEntity
  8
目盛
100
AcDbLine
 10
165.0008477191086
 20
100.7247089842879
 30
0.0
 11
163.4098574614389
 21
102.3156992419576
 31
0.0
  0
LINE
  5
1B7E
330
18
100
AcDbEntity
  8
目盛
100
AcDbLine
 10
167.3447826224419
 20
103.4691041488516
 30
0.0
 11
165.5244943850982
 21
104.7916209665097
 31
0.0
  0
LINE
  5
1B7F
330
18
100
AcDbEntity
  8
目盛
100
AcDbLine
 10
162.8342539858365
 20
98.81459966693762
 30
0.0
 11
162.0681201687703
 21
99.80229343240722
 31
0.0
  0
LINE
  5
1B80
330
18
100
AcDbEntity
  8
目盛
100
AcDbLine
 10
163.398143516038
 20
99.26636036773539
 30
0.0
 11
162.6013635288521
 21
100.2295019212051
 31
0.0
  0
LINE
  5
1B81
330
18
100
AcDbEntity
  8
目盛
100
AcDbLine
 10
168.5344583729088
 20
105.2802123893199
 30
0.0
 11
167.4585308391539
 21
105.9165141590079
 31
0.0
  0
LINE
  5
1B82
330
18
100
AcDbEntity
  8
目盛
100
AcDbLine
 10
168.8924453928269
 20
105.907830447239
 30
0.0
 11
167.7970620427721
 21
106.5100225398662
 31
0.0
  0
LINE
  5
1B83
330
18
100
AcDbEntity
  8
目盛
100
AcDbLine
 10
169.5484139585365
 20
107.1952412455818
 30
0.0
 11
168.417380142954
 21
107.7274653600382
 31
0.0
  0
LINE
  5
1B84
330
18
100
AcDbEntity
  8
目盛
100
AcDbLine
 10
169.8457481425496
 20
107.8537634669785
 30
0.0
 11
168.6985548604447
 21
108.350198330272
 31
0.0
  0
LINE
  5
1B85
330
18
100
AcDbEntity
  8
目盛
100
AcDbLine
 10
170.1222509272479
 20
108.5213002398309
 30
0.0
 11
168.9600303198875
 21
108.9814559306867
 31
0.0
  0
LINE
  5
1B86
330
18
100
AcDbEntity
  8
目盛
100
AcDbLine
 10
170.3776494377653
 20
109.1971927859368
 30
0.0
 11
169.2015484765725
 21
109.6206151862434
 31
0.0
  0
LINE
  5
1B87
330
18
100
AcDbEntity
  8
目盛
100
AcDbLine
 10
169.2305418081506
 20
106.5463834575689
 30
0.0
 11
167.2257771287267
 21
107.5678620819829
 31
0.0
  0
LINE
  5
1B88
330
18
100
AcDbEntity
  8
目盛
100
AcDbLine
 10
170.6116916266066
 20
109.8807740809547
 30
0.0
 11
168.4718144649425
 21
110.5760623182983
 31
0.0
  0
LINE
  5
1B89
330
18
100
AcDbEntity
  8
目盛
100
AcDbLine
 10
167.760244960133
 20
104.0602472609795
 30
0.0
 11
166.7263942422898
 21
104.7628514832946
 31
0.0
  0
LINE
  5
1B8A
330
18
100
AcDbEntity
  8
目盛
100
AcDbLine
 10
168.1569340383644
 20
104.6641486670616
 30
0.0
 11
167.1015241314869
 21
105.3339321607853
 31
0.0
  0
LINE
  5
1B8B
330
18
100
AcDbEntity
  8
目盛
100
AcDbLine
 10
171.1834772764093
 20
111.970870399458
 30
0.0
 11
169.9635813239858
 21
112.2435494512037
 31
0.0
  0
LINE
  5
1B8C
330
18
100
AcDbEntity
  8
目盛
100
AcDbLine
 10
171.3299985185779
 20
112.6783947161068
 30
0.0
 11
170.1021394551671
 21
112.912621359339
 31
0.0
  0
LINE
  5
1B8D
330
18
100
AcDbEntity
  8
目盛
100
AcDbLine
 10
171.5560298820511
 20
114.1055005795995
 30
0.0
 11
170.315886505408
 21
114.2621671215549
 31
0.0
  0
LINE
  5
1B8E
330
18
100
AcDbEntity
  8
目盛
100
AcDbLine
 10
171.6353169376889
 20
114.8236737452527
 30
0.0
 11
170.3908644819351
 21
114.9413091369008
 31
0.0
  0
LINE
  5
1B8F
330
18
100
AcDbEntity
  8
目盛
100
AcDbLine
 10
171.6920065056683
 20
115.5439830024043
 30
0.0
 11
170.444473095133
 21
115.6224711518159
 31
0.0
  0
LINE
  5
1B90
330
18
100
AcDbEntity
  8
目盛
100
AcDbLine
 10
171.7260426402299
 20
116.2657174927816
 30
0.0
 11
170.4766594397727
 21
116.3049809416292
 31
0.0
  0
LINE
  5
1B91
330
18
100
AcDbEntity
  8
目盛
100
AcDbLine
 10
171.4542235855063
 20
113.3901722556532
 30
0.0
 11
169.2319248191672
 21
113.7421498019937
 31
0.0
  0
LINE
  5
1B92
330
18
100
AcDbEntity
  8
目盛
100
AcDbLine
 10
171.7373917518181
 20
116.9881649515785
 30
0.0
 11
169.4873917518181
 21
116.9881649515785
 31
0.0
  0
LINE
  5
1B93
330
18
100
AcDbEntity
  8
目盛
100
AcDbLine
 10
170.8241465223878
 20
110.5713695126762
 30
0.0
 11
169.6237794152916
 21
110.9201083952253
 31
0.0
  0
LINE
  5
1B94
330
18
100
AcDbEntity
  8
目盛
100
AcDbLine
 10
171.0148044577766
 20
111.2682975467869
 30
0.0
 11
169.8040755063658
 21
111.5791599057429
 31
0.0
  0
LINE
  5
1B95
330
18
100
AcDbEntity
  8
目盛
100
AcDbLine
 10
171.6353169376889
 20
119.1526561579043
 30
0.0
 11
170.3908644819351
 21
119.0350207662562
 31
0.0
  0
LINE
  5
1B96
330
18
100
AcDbEntity
  8
目盛
100
AcDbLine
 10
171.556029882051
 20
119.8708293235575
 30
0.0
 11
170.315886505408
 21
119.7141627816021
 31
0.0
  0
LINE
  5
1B97
330
18
100
AcDbEntity
  8
目盛
100
AcDbLine
 10
171.3299985185779
 20
121.2979351870502
 30
0.0
 11
170.102139455167
 21
121.063708543818
 31
0.0
  0
LINE
  5
1B98
330
18
100
AcDbEntity
  8
目盛
100
AcDbLine
 10
171.1834772764092
 20
122.005459503699
 30
0.0
 11
169.9635813239858
 21
121.7327804519533
 31
0.0
  0
LINE
  5
1B99
330
18
100
AcDbEntity
  8
目盛
100
AcDbLine
 10
171.0148044577766
 20
122.7080323563702
 30
0.0
 11
169.8040755063658
 21
122.3971699974141
 31
0.0
  0
LINE
  5
1B9A
330
18
100
AcDbEntity
  8
目盛
100
AcDbLine
 10
170.8241465223878
 20
123.4049603904808
 30
0.0
 11
169.6237794152916
 21
123.0562215079317
 31
0.0
  0
LINE
  5
1B9B
330
18
100
AcDbEntity
  8
目盛
100
AcDbLine
 10
171.4542235855062
 20
120.5861576475038
 30
0.0
 11
169.2319248191672
 21
120.2341801011633
 31
0.0
  0
LINE
  5
1B9C
330
18
100
AcDbEntity
  8
目盛
100
AcDbLine
 10
170.6116916266066
 20
124.0955558222023
 30
0.0
 11
168.4718144649425
 21
123.4002675848587
 31
0.0
  0
LINE
  5
1B9D
330
18
100
AcDbEntity
  8
目盛
100
AcDbLine
 10
171.7260426402299
 20
117.7106124103755
 30
0.0
 11
170.4766594397727
 21
117.6713489615278
 31
0.0
  0
LINE
  5
1B9E
330
18
100
AcDbEntity
  8
目盛
100
AcDbLine
 10
171.6920065056683
 20
118.4323469007527
 30
0.0
 11
170.444473095133
 21
118.3538587513411
 31
0.0
  0
LINE
  5
1B9F
330
18
100
AcDbEntity
  8
目盛
100
AcDbLine
 10
169.8457481425496
 20
126.1225664361784
 30
0.0
 11
168.6985548604447
 21
125.626131572885
 31
0.0
  0
LINE
  5
1BA0
330
18
100
AcDbEntity
  8
目盛
100
AcDbLine
 10
169.5484139585365
 20
126.7810886575752
 30
0.0
 11
168.417380142954
 21
126.2488645431188
 31
0.0
  0
LINE
  5
1BA1
330
18
100
AcDbEntity
  8
目盛
100
AcDbLine
 10
168.8924453928269
 20
128.0684994559179
 30
0.0
 11
167.7970620427721
 21
127.4663073632908
 31
0.0
  0
LINE
  5
1BA2
330
18
100
AcDbEntity
  8
目盛
100
AcDbLine
 10
168.5344583729088
 20
128.696117513837
 30
0.0
 11
167.4585308391538
 21
128.0598157441491
 31
0.0
  0
LINE
  5
1BA3
330
18
100
AcDbEntity
  8
目盛
100
AcDbLine
 10
168.1569340383644
 20
129.3121812360954
 30
0.0
 11
167.1015241314869
 21
128.6423977423717
 31
0.0
  0
LINE
  5
1BA4
330
18
100
AcDbEntity
  8
目盛
100
AcDbLine
 10
167.760244960133
 20
129.9160826421775
 30
0.0
 11
166.7263942422898
 21
129.2134784198623
 31
0.0
  0
LINE
  5
1BA5
330
18
100
AcDbEntity
  8
目盛
100
AcDbLine
 10
169.2305418081505
 20
127.4299464455881
 30
0.0
 11
167.2257771287267
 21
126.4084678211741
 31
0.0
  0
LINE
  5
1BA6
330
18
100
AcDbEntity
  8
目盛
100
AcDbLine
 10
167.3447826224419
 20
130.5072257543054
 30
0.0
 11
165.5244943850982
 21
129.1847089366473
 31
0.0
  0
LINE
  5
1BA7
330
18
100
AcDbEntity
  8
目盛
100
AcDbLine
 10
170.3776494377653
 20
124.7791371172202
 30
0.0
 11
169.2015484765725
 21
124.3557147169136
 31
0.0
  0
LINE
  5
1BA8
330
18
100
AcDbEntity
  8
目盛
100
AcDbLine
 10
170.1222509272479
 20
125.4550296633261
 30
0.0
 11
168.9600303198875
 21
124.9948739724702
 31
0.0
  0
LINE
  5
1BA9
330
18
100
AcDbEntity
  8
目盛
100
AcDbLine
 10
165.9899463533186
 20
132.1983378540225
 30
0.0
 11
165.0523075162805
 21
131.371698022368
 31
0.0
  0
LINE
  5
1BAA
330
18
100
AcDbEntity
  8
目盛
100
AcDbLine
 10
165.5036701825105
 20
132.7327483879384
 30
0.0
 11
164.5924593982338
 21
131.8770645055275
 31
0.0
  0
LINE
  5
1BAB
330
18
100
AcDbEntity
  8
目盛
100
AcDbLine
 10
164.4819751881779
 20
133.754443382271
 30
0.0
 11
163.626291305767
 21
132.8432325979942
 31
0.0
  0
LINE
  5
1BAC
330
18
100
AcDbEntity
  8
目盛
100
AcDbLine
 10
163.9475646542621
 20
134.2407195530791
 30
0.0
 11
163.1209248226075
 21
133.303080716041
 31
0.0
  0
LINE
  5
1BAD
330
18
100
AcDbEntity
  8
目盛
100
AcDbLine
 10
163.398143516038
 20
134.7099695354217
 30
0.0
 11
162.6013635288521
 21
133.7468279819519
 31
0.0
  0
LINE
  5
1BAE
330
18
100
AcDbEntity
  8
目盛
100
AcDbLine
 10
162.8342539858365
 20
135.1617302362194
 30
0.0
 11
162.0681201687703
 21
134.1740364707498
 31
0.0
  0
LINE
  5
1BAF
330
18
100
AcDbEntity
  8
目盛
100
AcDbLine
 10
165.0008477191086
 20
133.2516209188691
 30
0.0
 11
163.409857461439
 21
131.6606306611993
 31
0.0
  0
LINE
  5
1BB0
330
18
100
AcDbEntity
  8
目盛
100
AcDbLine
 10
162.2564525545449
 20
135.5955558222023
 30
0.0
 11
160.9339357368869
 21
133.7752675848587
 31
0.0
  0
LINE
  5
1BB1
330
18
100
AcDbEntity
  8
目盛
100
AcDbLine
 10
166.910957036459
 20
131.085027185597
 30
0.0
 11
165.9232632709893
 21
130.3188933685307
 31
0.0
  0
LINE
  5
1BB2
330
18
100
AcDbEntity
  8
目盛
100
AcDbLine
 10
166.4591963356612
 20
131.6489167157984
 30
0.0
 11
165.4960547821915
 21
130.8521367286125
 31
0.0
  0
LINE
  5
1BB3
330
18
100
AcDbEntity
  8
目盛
100
AcDbLine
 10
160.4453443140766
 20
136.7852315726692
 30
0.0
 11
159.8090425443886
 21
135.7093040389143
 31
0.0
  0
LINE
  5
1BB4
330
18
100
AcDbEntity
  8
目盛
100
AcDbLine
 10
159.8177262561575
 20
137.1432185925874
 30
0.0
 11
159.2155341635304
 21
136.0478352425326
 31
0.0
  0
LINE
  5
1BB5
330
18
100
AcDbEntity
  8
目盛
100
AcDbLine
 10
158.5303154578148
 20
137.7991871582969
 30
0.0
 11
157.9980913433584
 21
136.6681533427144
 31
0.0
  0
LINE
  5
1BB6
330
18
100
AcDbEntity
  8
目盛
100
AcDbLine
 10
157.8717932364181
 20
138.0965213423101
 30
0.0
 11
157.3753583731246
 21
136.9493280602051
 31
0.0
  0
LINE
  5
1BB7
330
18
100
AcDbEntity
  8
目盛
100
AcDbLine
 10
157.2042564635657
 20
138.3730241270083
 30
0.0
 11
156.7441007727098
 21
137.210803519648
 31
0.0
  0
LINE
  5
1BB8
330
18
100
AcDbEntity
  8
目盛
100
AcDbLine
 10
156.5283639174598
 20
138.6284226375257
 30
0.0
 11
156.1049415171532
 21
137.4523216763329
 31
0.0
  0
LINE
  5
1BB9
330
18
100
AcDbEntity
  8
目盛
100
AcDbLine
 10
159.1791732458277
 20
137.481315007911
 30
0.0
 11
158.1576946214137
 21
135.4765503284871
 31
0.0
  0
LINE
  5
1BBA
330
18
100
AcDbEntity
  8
目盛
100
AcDbLine
 10
155.8447826224419
 20
138.8624648263671
 30
0.0
 11
155.1494943850983
 21
136.7225876647029
 31
0.0
  0
LINE
  5
1BBB
330
18
100
AcDbEntity
  8
目盛
100
AcDbLine
 10
161.6653094424171
 20
136.0110181598934
 30
0.0
 11
160.9627052201019
 21
134.9771674420502
 31
0.0
  0
LINE
  5
1BBC
330
18
100
AcDbEntity
  8
目盛
100
AcDbLine
 10
161.061408036335
 20
136.4077072381249
 30
0.0
 11
160.3916245426113
 21
135.3522973312474
 31
0.0
  0
TEXT
  5
1BBE
330
18
100
AcDbEntity
  8
文字
100
AcDbText
 10
147.6945169694163
 20
134.3782247238849
 30
0.0
 40
2.2
  1
0
  7
STYLE3
100
AcDbText
  0
TEXT
  5
1BCE
330
18
100
AcDbEntity
  8
文字
100
AcDbText
 10
152.812656711489
 20
133.2078703898142
 30
0.0
 40
2.2
  1
10
 41
0.9
  7
STYLE3
100
AcDbText
  0
TEXT
  5
1BCF
330
18
100
AcDbEntity
  8
文字
100
AcDbText
 10
157.9799906931995
 20
130.2672428481503
 30
0.0
 40
2.2
  1
20
 41
0.9
  7
STYLE3
100
AcDbText
  0
TEXT
  5
1BD0
330
18
100
AcDbEntity
  8
文字
100
AcDbText
 10
161.7103217314521
 20
125.9202428659398
 30
0.0
 40
2.2
  1
30
 41
0.9
  7
STYLE3
100
AcDbText
  0
TEXT
  5
1BD1
330
18
100
AcDbEntity
  8
文字
100
AcDbText
 10
163.8855245209594
 20
121.44536071922
 30
0.0
 40
2.2
  1
40
 41
0.9
  7
STYLE3
100
AcDbText
  0
TEXT
  5
1BD2
330
18
100
AcDbEntity
  8
文字
100
AcDbText
 10
164.8402509688026
 20
115.8394867154125
 30
0.0
 40
2.2
  1
50
 41
0.9
  7
STYLE3
100
AcDbText
  0
TEXT
  5
1BD3
330
18
100
AcDbEntity
  8
文字
100
AcDbText
 10
163.885538192672
 20
109.9385578345152
 30
0.0
 40
2.2
  1
60
 41
0.9
  7
STYLE3
100
AcDbText
  0
TEXT
  5
1BD4
330
18
100
AcDbEntity
  8
文字
100
AcDbText
 10
161.3461517425203
 20
105.1293153807907
 30
0.0
 40
2.2
  1
70
 41
0.9
  7
STYLE3
100
AcDbText
  0
TEXT
  5
1BD5
330
18
100
AcDbEntity
  8
文字
100
AcDbText
 10
157.8815723070525
 20
101.5494213704654
 30
0.0
 40
2.2
  1
80
 41
0.9
  7
STYLE3
100
AcDbText
  0
TEXT
  5
1BD6
330
18
100
AcDbEntity
  8
文字
100
AcDbText
 10
152.69454764136
 20
98.6186158457424
 30
0.0
 40
2.2
  1
90
 41
0.9
  7
STYLE3
100
AcDbText
  0
TEXT
  5
1BD7
330
18
100
AcDbEntity
  8
文字
100
AcDbText
 10
145.6768311069453
 20
97.65479719729649
 30
0.0
 40
2.2
  1
100
 41
0.8
  7
STYLE3
100
AcDbText
  0
TEXT
  5
1BD8
330
18
100
AcDbEntity
  8
文字
100
AcDbText
 10
140.2417750868803
 20
98.97927286689117
 30
0.0
 40
2.2
  1
110
 41
0.8
  7
STYLE3
100
AcDbText
  0
TEXT
  5
1BD9
330
18
100
AcDbEntity
  8
文字
100
AcDbText
 10
135.6712045215731
 20
101.372059059401
 30
0.0
 40
2.2
  1
120
 41
0.8
  7
STYLE3
100
AcDbText
  0
TEXT
  5
1BDA
330
18
100
AcDbEntity
  8
文字
100
AcDbText
 10
131.7775708584349
 20
105.1183742491923
 30
0.0
 40
2.2
  1
130
 41
0.8
  7
STYLE3
100
AcDbText
  0
TEXT
  5
1BDB
330
18
100
AcDbEntity
  8
文字
100
AcDbText
 10
129.1091396770886
 20
109.9760888525817
 30
0.0
 40
2.2
  1
140
 41
0.8
  7
STYLE3
100
AcDbText
  0
TEXT
  5
1BDC
330
18
100
AcDbEntity
  8
文字
100
AcDbText
 10
128.0669305041643
 20
115.6944894383529
 30
0.0
 40
2.2
  1
150
 41
0.8
  7
STYLE3
100
AcDbText
  0
TEXT
  5
1BDD
330
18
100
AcDbEntity
  8
文字
100
AcDbText
 10
128.9997711036811
 20
121.7385980271143
 30
0.0
 40
2.2
  1
160
 41
0.8
  7
STYLE3
100
AcDbText
  0
TEXT
  5
1BDE
330
18
100
AcDbEntity
  8
文字
100
AcDbText
 10
131.6310331710483
 20
126.6513114608195
 30
0.0
 40
2.2
  1
170
 41
0.8
  7
STYLE3
100
AcDbText
  0
TEXT
  5
1BDF
330
18
100
AcDbEntity
  8
文字
100
AcDbText
 10
135.7069475050383
 20
130.2147754194731
 30
0.0
 40
2.2
  1
180
 41
0.8
  7
STYLE3
100
AcDbText
  0
TEXT
  5
1BE0
330
18
100
AcDbEntity
  8
文字
100
AcDbText
 10
141.1903475551176
 20
133.2461147442626
 30
0.0
 40
2.2
  1
190
 41
0.8
  7
STYLE3
100
AcDbText
  0
ARC
  5
1CF6
330
18
100
AcDbEntity
  8
外形線
  6
Continuous
100
AcDbCircle
 10
-40.35668791404259
 20
116.9881649515785
 30
0.0
 40
105.6666666666664
100
AcDbArc
 50
346.3144531747381
 51
13.68554682526192
  0
LINE
  5
1CF7
330
18
100
AcDbEntity
  8
外形線
  6
Continuous
100
AcDbLine
 10
62.30997875262374
 20
141.9881649515785
 30
0.0
 11
62.30997875262374
 21
91.98816495157851
 31
0.0
  0
LINE
  5
1CF8
330
18
100
AcDbEntity
  8
外形線
  6
Continuous
100
AcDbLine
 10
61.1099787526237
 20
143.3881649515785
 30
0.0
 11
61.1099787526237
 21
90.58816495157854
 31
0.0
  0
LINE
  5
1CF9
330
18
100
AcDbEntity
  8
外形線
  6
Continuous
100
AcDbLine
 10
57.30997875262374
 20
143.3881649515785
 30
0.0
 11
57.30997875262374
 21
90.58816495157854
 31
0.0
  0
LINE
  5
1CFA
330
18
100
AcDbEntity
  8
外形線
  6
Continuous
100
AcDbLine
 10
55.80997875262375
 20
141.9881649515785
 30
0.0
 11
55.80997875262375
 21
91.98816495157851
 31
0.0
  0
LINE
  5
1CFB
330
18
100
AcDbEntity
  8
外形線
  6
Continuous
100
AcDbLine
 10
61.1099787526237
 20
91.4881649515785
 30
0.0
 11
62.30997875262374
 21
91.98816495157851
 31
0.0
  0
LINE
  5
1CFC
330
18
100
AcDbEntity
  8
外形線
  6
CENTER2
100
AcDbLine
 10
55.80997875262375
 20
91.98816495157851
 30
0.0
 11
57.30997875262374
 21
91.98816495157851
 31
0.0
  0
LINE
  5
1CFD
330
18
100
AcDbEntity
  8
外形線
  6
Continuous
100
AcDbLine
 10
61.1099787526237
 20
90.58816495157854
 30
0.0
 11
57.30997875262374
 21
90.58816495157854
 31
0.0
  0
LINE
  5
1CFE
330
18
100
AcDbEntity
  8
外形線
  6
Continuous
 62
     4
100
AcDbLine
 10
61.1099787526237
 20
94.58816495157853
 30
0.0
 11
57.30997875262374
 21
94.58816495157853
 31
0.0
  0
LINE
  5
1CFF
330
18
100
AcDbEntity
  8
外形線
  6
Continuous
 62
     4
100
AcDbLine
 10
61.1099787526237
 20
93.58816495157853
 30
0.0
 11
57.30997875262374
 21
93.58816495157853
 31
0.0
  0
LINE
  5
1D00
330
18
100
AcDbEntity
  8
外形線
  6
Continuous
 62
     4
100
AcDbLine
 10
61.1099787526237
 20
92.58816495157853
 30
0.0
 11
57.30997875262374
 21
92.58816495157853
 31
0.0
  0
LINE
  5
1D01
330
18
100
AcDbEntity
  8
外形線
  6
Continuous
 62
     4
100
AcDbLine
 10
61.1099787526237
 20
91.58816495157854
 30
0.0
 11
57.30997875262374
 21
91.58816495157854
 31
0.0
  0
ARC
  5
1D02
330
18
100
AcDbEntity
  8
外形線
  6
Continuous
100
AcDbCircle
 10
50.8099787526238
 20
151.1431649515786
 30
0.0
 40
7.344999999999885
100
AcDbArc
 50
59.75198538337818
 51
120.2480146166212
  0
LINE
  5
1D03
330
18
100
AcDbEntity
  8
外形線
  6
Continuous
100
AcDbLine
 10
61.1099787526237
 20
142.4881649515785
 30
0.0
 11
62.30997875262374
 21
141.9881649515785
 31
0.0
  0
LINE
  5
1D04
330
18
100
AcDbEntity
  8
外形線
  6
Continuous
 62
     4
100
AcDbLine
 10
61.1099787526237
 20
95.58816495157854
 30
0.0
 11
57.30997875262374
 21
95.58816495157854
 31
0.0
  0
LINE
  5
1D05
330
18
100
AcDbEntity
  8
外形線
  6
Continuous
 62
     4
100
AcDbLine
 10
57.30997875262374
 20
114.9881649515785
 30
0.0
 11
61.1099787526237
 21
114.9881649515785
 31
0.0
  0
LINE
  5
1D06
330
18
100
AcDbEntity
  8
外形線
  6
Continuous
 62
     4
100
AcDbLine
 10
57.30997875262374
 20
115.9881649515785
 30
0.0
 11
61.1099787526237
 21
115.9881649515785
 31
0.0
  0
LINE
  5
1D07
330
18
100
AcDbEntity
  8
外形線
  6
Continuous
 62
     4
100
AcDbLine
 10
57.30997875262374
 20
116.9881649515785
 30
0.0
 11
61.1099787526237
 21
116.9881649515785
 31
0.0
  0
LINE
  5
1D08
330
18
100
AcDbEntity
  8
外形線
  6
Continuous
 62
     4
100
AcDbLine
 10
57.30997875262374
 20
117.9881649515785
 30
0.0
 11
61.1099787526237
 21
117.9881649515785
 31
0.0
  0
LINE
  5
1D09
330
18
100
AcDbEntity
  8
外形線
  6
Continuous
 62
     4
100
AcDbLine
 10
57.30997875262374
 20
119.9881649515785
 30
0.0
 11
61.1099787526237
 21
119.9881649515785
 31
0.0
  0
LINE
  5
1D0A
330
18
100
AcDbEntity
  8
外形線
  6
Continuous
 62
     4
100
AcDbLine
 10
57.30997875262374
 20
118.9881649515785
 30
0.0
 11
61.1099787526237
 21
118.9881649515785
 31
0.0
  0
LINE
  5
1D0B
330
18
100
AcDbEntity
  8
外形線
  6
Continuous
 62
     4
100
AcDbLine
 10
61.1099787526237
 20
138.3881649515785
 30
0.0
 11
57.30997875262374
 21
138.3881649515785
 31
0.0
  0
LINE
  5
1D0C
330
18
100
AcDbEntity
  8
外形線
  6
Continuous
 62
     4
100
AcDbLine
 10
61.1099787526237
 20
139.3881649515785
 30
0.0
 11
57.30997875262374
 21
139.3881649515785
 31
0.0
  0
LINE
  5
1D0D
330
18
100
AcDbEntity
  8
外形線
  6
Continuous
 62
     4
100
AcDbLine
 10
61.1099787526237
 20
140.3881649515785
 30
0.0
 11
57.30997875262374
 21
140.3881649515785
 31
0.0
  0
LINE
  5
1D0E
330
18
100
AcDbEntity
  8
外形線
  6
Continuous
 62
     4
100
AcDbLine
 10
61.1099787526237
 20
141.3881649515785
 30
0.0
 11
57.30997875262374
 21
141.3881649515785
 31
0.0
  0
LINE
  5
1D0F
330
18
100
AcDbEntity
  8
外形線
  6
Continuous
100
AcDbLine
 10
47.10997875262376
 20
157.4881649515784
 30
0.0
 11
54.50997875262385
 21
157.4881649515784
 31
0.0
  0
LINE
  5
1D10
330
18
100
AcDbEntity
  8
外形線
  6
Continuous
100
AcDbLine
 10
46.8099787526238
 20
150.9881649515784
 30
0.0
 11
54.80997875262381
 21
150.9881649515784
 31
0.0
  0
LINE
  5
1D11
330
18
100
AcDbEntity
  8
外形線
  6
Continuous
100
AcDbLine
 10
46.8099787526238
 20
144.9881649515784
 30
0.0
 11
54.80997875262381
 21
144.9881649515784
 31
0.0
  0
LINE
  5
1D12
330
18
100
AcDbEntity
  8
外形線
  6
Continuous
100
AcDbLine
 10
46.8099787526238
 20
150.9881649515784
 30
0.0
 11
46.8099787526238
 21
144.9881649515784
 31
0.0
  0
LINE
  5
1D13
330
18
100
AcDbEntity
  8
外形線
  6
Continuous
100
AcDbLine
 10
47.10997875262376
 20
144.9881649515784
 30
0.0
 11
47.10997875262376
 21
141.4881649515785
 31
0.0
  0
LINE
  5
1D14
330
18
100
AcDbEntity
  8
外形線
  6
Continuous
100
AcDbLine
 10
47.10997875262376
 20
157.4881649515784
 30
0.0
 11
47.10997875262376
 21
150.9881649515784
 31
0.0
  0
LINE
  5
1D15
330
18
100
AcDbEntity
  8
外形線
  6
Continuous
100
AcDbLine
 10
54.80997875262381
 20
150.9881649515784
 30
0.0
 11
54.80997875262381
 21
144.9881649515784
 31
0.0
  0
LINE
  5
1D16
330
18
100
AcDbEntity
  8
外形線
  6
CENTER2
100
AcDbLine
 10
55.80997875262375
 20
141.9881649515785
 30
0.0
 11
57.30997875262374
 21
141.9881649515785
 31
0.0
  0
LINE
  5
1D17
330
18
100
AcDbEntity
  8
外形線
  6
Continuous
100
AcDbLine
 10
54.50997875262385
 20
144.9881649515784
 30
0.0
 11
54.50997875262391
 21
141.4881649515785
 31
0.0
  0
LINE
  5
1D18
330
18
100
AcDbEntity
  8
外形線
  6
Continuous
 62
     4
100
AcDbLine
 10
61.1099787526237
 20
142.3881649515785
 30
0.0
 11
57.30997875262374
 21
142.3881649515785
 31
0.0
  0
LINE
  5
1D19
330
18
100
AcDbEntity
  8
外形線
  6
Continuous
100
AcDbLine
 10
61.1099787526237
 20
143.3881649515785
 30
0.0
 11
57.30997875262374
 21
143.3881649515785
 31
0.0
  0
LINE
  5
1D1A
330
18
100
AcDbEntity
  8
外形線
  6
Continuous
100
AcDbLine
 10
54.50997875262385
 20
157.4881649515784
 30
0.0
 11
54.50997875262385
 21
150.9881649515784
 31
0.0
  0
MTEXT
  5
1D1C
330
18
100
AcDbEntity
  8
DEFPOINTS
  6
Continuous
100
AcDbMText
 10
842.9147322553253
 20
253.9088575909121
 30
0.0
 40
1.0
 41
0.0
 71
     4
 72
     1
  1
\A1;
 73
     1
 44
1.0
  0
LINE
  5
1D1E
330
18
100
AcDbEntity
  8
外形線
100
AcDbLine
 10
55.80997875262375
 20
92.48816495157852
 30
0.0
 11
44.30997875262358
 21
92.48816495157852
 31
0.0
  0
LINE
  5
1D1F
330
18
100
AcDbEntity
  8
外形線
100
AcDbLine
 10
55.80997875262375
 20
141.4881649515785
 30
0.0
 11
44.30997875262358
 21
141.4881649515785
 31
0.0
  0
LINE
  5
1D3C
330
18
100
AcDbEntity
  8
外形線
100
AcDbLine
 10
46.80997875262375
 20
92.48816495157845
 30
0.0
 11
46.80997875262375
 21
91.98816495157855
 31
0.0
  0
LINE
  5
1D3D
330
18
100
AcDbEntity
  8
外形線
100
AcDbLine
 10
54.80997875262358
 20
92.48816495157852
 30
0.0
 11
54.80997875262358
 21
91.98816495157855
 31
0.0
  0
LINE
  5
1D3E
330
18
100
AcDbEntity
  8
外形線
100
AcDbLine
 10
54.40997875262372
 20
73.98816495157851
 30
0.0
 11
54.40997875262372
 21
72.1881649515785
 31
0.0
  0
LINE
  5
1D3F
330
18
100
AcDbEntity
  8
外形線
100
AcDbLine
 10
47.20997875262367
 20
72.1881649515785
 30
0.0
 11
47.20997875262367
 21
73.98816495157851
 31
0.0
  0
LINE
  5
1D40
330
18
100
AcDbEntity
  8
外形線
100
AcDbLine
 10
54.20997875262372
 20
71.98816495157846
 30
0.0
 11
47.40997875262365
 21
71.98816495157846
 31
0.0
  0
LINE
  5
1D41
330
18
100
AcDbEntity
  8
外形線
100
AcDbLine
 10
54.40997875262372
 20
72.1881649515785
 30
0.0
 11
54.20997875262372
 21
71.98816495157846
 31
0.0
  0
LINE
  5
1D42
330
18
100
AcDbEntity
  8
外形線
100
AcDbLine
 10
47.20997875262367
 20
72.1881649515785
 30
0.0
 11
47.40997875262365
 21
71.98816495157846
 31
0.0
  0
LINE
  5
1D43
330
18
100
AcDbEntity
  8
外形線
100
AcDbLine
 10
51.5599787526238
 20
74.98816495157855
 30
0.0
 11
50.0599787526238
 21
74.98816495157848
 31
0.0
  0
LINE
  5
1D44
330
18
100
AcDbEntity
  8
外形線
100
AcDbLine
 10
56.3099787526238
 20
73.98816495157842
 30
0.0
 11
51.55997875262378
 21
73.98816495157849
 31
0.0
  0
LINE
  5
1D45
330
18
100
AcDbEntity
  8
外形線
100
AcDbLine
 10
51.55997875262378
 20
76.48816495157849
 30
0.0
 11
50.0599787526238
 21
76.48816495157856
 31
0.0
  0
LINE
  5
1D4D
330
18
100
AcDbEntity
  8
中心線
 48
0.5
100
AcDbLine
 10
70.14729286278833
 20
116.9881649515785
 30
0.0
 11
40.1964275655456
 21
116.9881649515785
 31
0.0
  0
MTEXT
  5
1D77
330
18
100
AcDbEntity
  8
文字
100
AcDbMText
 10
410.0539418133248
 20
279.9868398291462
 30
0.0
 40
1.0
 41
6.927999999999999
 71
     1
 72
     5
  1

  7
STYLE3
 73
     1
 44
1.0
  0
POINT
  5
1D8B
330
18
100
AcDbEntity
  8
DEFPOINTS
  6
ByBlock
 62
     0
100
AcDbPoint
 10
54.20997875262372
 20
71.98816495157846
 30
0.0
  0
MTEXT
  5
1DD8
330
18
100
AcDbEntity
  8
DEFPOINTS
  6
Continuous
100
AcDbMText
 10
731.7897514684663
 20
203.2343911165971
 30
0.0
 40
0.35
 41
0.0
 71
     4
 72
     1
  1
\A1;
 73
     1
 44
1.0
  0
LINE
  5
1E2D
330
18
100
AcDbEntity
  8
外形線
100
AcDbLine
 10
43.20997875262366
 20
139.9881649515785
 30
0.0
 11
43.20997875262366
 21
93.9881649515785
 31
0.0
  0
LINE
  5
1E2E
330
18
100
AcDbEntity
  8
外形線
100
AcDbLine
 10
44.30997875262358
 20
139.9881649515785
 30
0.0
 11
43.20997875262366
 21
139.9881649515785
 31
0.0
  0
LINE
  5
1E2F
330
18
100
AcDbEntity
  8
外形線
100
AcDbLine
 10
44.30997875262358
 20
93.9881649515785
 30
0.0
 11
43.20997875262366
 21
93.9881649515785
 31
0.0
  0
POINT
  5
1E30
330
18
100
AcDbEntity
  8
DEFPOINTS
  6
ByBlock
 62
     0
100
AcDbPoint
 10
43.20997875262366
 20
139.9881649515785
 30
0.0
  0
MTEXT
  5
1E34
330
18
100
AcDbEntity
  8
DEFPOINTS
  6
Continuous
100
AcDbMText
 10
1343.353379627426
 20
429.1220460999138
 30
0.0
 40
1.0
 41
0.0
 71
     4
 72
     1
  1
\A1;
 73
     1
 44
1.0
  0
MTEXT
  5
1E35
330
18
100
AcDbEntity
  8
文字
100
AcDbMText
 10
910.4925891854255
 20
455.2000283381478
 30
0.0
 40
1.0
 41
6.927999999999999
 71
     1
 72
     5
  1

  7
STYLE3
 73
     1
 44
1.0
  0
MTEXT
  5
1E36
330
18
100
AcDbEntity
  8
DEFPOINTS
  6
Continuous
100
AcDbMText
 10
1232.228398840567
 20
378.4475796255987
 30
0.0
 40
0.35
 41
0.0
 71
     4
 72
     1
  1
\A1;
 73
     1
 44
1.0
  0
POINT
  5
1E49
330
18
100
AcDbEntity
  8
DEFPOINTS
  6
ByBlock
 62
     0
100
AcDbPoint
 10
65.3099787526238
 20
116.9881649515785
 30
0.0
  0
POINT
  5
1E4A
330
18
100
AcDbEntity
  8
DEFPOINTS
  6
ByBlock
 62
     0
100
AcDbPoint
 10
50.8099787526238
 20
158.4881649515785
 30
0.0
  0
LINE
  5
1E4E
330
18
100
AcDbEntity
  8
外形線
100
AcDbLine
 10
44.30997875262358
 20
141.4881649515785
 30
0.0
 11
44.30997875262358
 21
92.48816495157852
 31
0.0
  0
LINE
  5
1ED0
330
18
100
AcDbEntity
  8
中心線
100
AcDbLine
 10
50.8099787526238
 20
161.8296173494363
 30
0.0
 11
50.8099787526238
 21
39.7686269666554
 31
0.0
  0
LINE
  5
1ED5
330
18
100
AcDbEntity
  8
外形線
100
AcDbLine
 10
152.137391751818
 20
71.98816495157848
 30
0.0
 11
145.3373917518179
 21
71.98816495157848
 31
0.0
  0
LINE
  5
1ED9
330
18
100
AcDbEntity
  8
外形線
100
AcDbLine
 10
145.1373917518179
 20
72.18816495157852
 30
0.0
 11
145.3373917518179
 21
71.98816495157848
 31
0.0
  0
LINE
  5
1EDA
330
18
100
AcDbEntity
  8
外形線
100
AcDbLine
 10
145.1373917518179
 20
72.18816495157852
 30
0.0
 11
145.1373917518179
 21
73.98816495157854
 31
0.0
  0
POINT
  5
1EDC
330
18
100
AcDbEntity
  8
DEFPOINTS
  6
ByBlock
 62
     0
100
AcDbPoint
 10
152.137391751818
 20
71.98816495157848
 30
0.0
  0
LINE
  5
1EDD
330
18
100
AcDbEntity
  8
外形線
100
AcDbLine
 10
152.337391751818
 20
72.18816495157852
 30
0.0
 11
152.137391751818
 21
71.98816495157848
 31
0.0
  0
LINE
  5
1EDE
330
18
100
AcDbEntity
  8
外形線
100
AcDbLine
 10
152.337391751818
 20
73.98816495157854
 30
0.0
 11
152.337391751818
 21
72.18816495157852
 31
0.0
  0
LINE
  5
1EE1
330
18
100
AcDbEntity
  8
外形線
 48
0.5
100
AcDbLine
 10
150.7373917518181
 20
71.98816495157848
 30
0.0
 11
150.7373917518181
 21
65.68816495157857
 31
0.0
  0
LINE
  5
1EE2
330
18
100
AcDbEntity
  8
外形線
 48
0.5
100
AcDbLine
 10
146.7373917518181
 20
71.98816495157848
 30
0.0
 11
146.7373917518181
 21
65.68816495157857
 31
0.0
  0
LINE
  5
1EE3
330
18
100
AcDbEntity
  8
外形線
 48
0.5
100
AcDbLine
 10
52.80997875262383
 20
71.98816495157846
 30
0.0
 11
52.80997875262383
 21
65.68816495157857
 31
0.0
  0
LINE
  5
1EE4
330
18
100
AcDbEntity
  8
外形線
 48
0.5
100
AcDbLine
 10
48.8099787526238
 20
71.98816495157846
 30
0.0
 11
48.8099787526238
 21
65.68816495157857
 31
0.0
  0
LINE
  5
1EE6
330
18
100
AcDbEntity
  8
外形線
100
AcDbLine
 10
56.3099787526238
 20
91.98816495157851
 30
0.0
 11
56.3099787526238
 21
55.98816495157859
 31
0.0
  0
LINE
  5
1EE7
330
18
100
AcDbEntity
  8
外形線
100
AcDbLine
 10
45.3099787526238
 20
92.4881649515785
 30
0.0
 11
45.3099787526238
 21
55.98816495157859
 31
0.0
  0
LINE
  5
1EE8
330
18
100
AcDbEntity
  8
外形線
100
AcDbLine
 10
56.3099787526238
 20
91.98816495157855
 30
0.0
 11
51.5599787526238
 21
91.98816495157853
 31
0.0
  0
LINE
  5
1EEC
330
18
100
AcDbEntity
  8
外形線
100
AcDbLine
 10
45.3099787526238
 20
73.98816495157842
 30
0.0
 11
50.0599787526238
 21
73.98816495157849
 31
0.0
  0
LINE
  5
1EED
330
18
100
AcDbEntity
  8
外形線
100
AcDbLine
 10
45.3099787526238
 20
91.98816495157855
 30
0.0
 11
50.0599787526238
 21
91.98816495157853
 31
0.0
  0
LINE
  5
1EF5
330
18
100
AcDbEntity
  8
外形線
100
AcDbLine
 10
51.5599787526238
 20
91.98816495157853
 30
0.0
 11
51.55997875262378
 21
73.98816495157849
 31
0.0
  0
LINE
  5
1EF6
330
18
100
AcDbEntity
  8
外形線
100
AcDbLine
 10
50.0599787526238
 20
91.98816495157853
 30
0.0
 11
50.0599787526238
 21
84.48816495157855
 31
0.0
  0
LINE
  5
1EF7
330
18
100
AcDbEntity
  8
中心線
 48
0.5
100
AcDbLine
 10
40.42246219651713
 20
82.98816495157854
 30
0.0
 11
60.85097179095879
 21
82.98816495157854
 31
0.0
  0
LINE
  5
1EF8
330
18
100
AcDbEntity
  8
隠れ線2
 48
0.4
100
AcDbLine
 10
53.8099787526238
 20
84.48816495157855
 30
0.0
 11
51.5599787526238
 21
84.48816495157855
 31
0.0
  0
LINE
  5
1EF9
330
18
100
AcDbEntity
  8
隠れ線2
 48
0.4
100
AcDbLine
 10
53.8099787526238
 20
83.98816495157854
 30
0.0
 11
51.5599787526238
 21
83.98816495157854
 31
0.0
  0
LINE
  5
1EFA
330
18
100
AcDbEntity
  8
隠れ線2
 48
0.4
100
AcDbLine
 10
53.8099787526238
 20
81.98816495157855
 30
0.0
 11
51.5599787526238
 21
81.98816495157855
 31
0.0
  0
LINE
  5
1EFB
330
18
100
AcDbEntity
  8
隠れ線2
 48
0.4
100
AcDbLine
 10
53.8099787526238
 20
81.48816495157856
 30
0.0
 11
51.5599787526238
 21
81.48816495157857
 31
0.0
  0
CIRCLE
  5
1EFC
330
18
100
AcDbEntity
  8
外形線
100
AcDbCircle
 10
142.2373917518181
 20
82.98816495157854
 30
0.0
 40
4.0
  0
LINE
  5
1F1E
330
18
100
AcDbEntity
  8
外形線
100
AcDbLine
 10
145.7373917518181
 20
57.48816495157857
 30
0.0
 11
151.7373917518181
 21
57.48816495157856
 31
0.0
  0
LINE
  5
1F1F
330
18
100
AcDbEntity
  8
外形線
100
AcDbLine
 10
151.7373917518181
 20
57.48816495157856
 30
0.0
 11
151.7373917518181
 21
56.98816495157857
 31
0.0
  0
LINE
  5
1F20
330
18
100
AcDbEntity
  8
外形線
100
AcDbLine
 10
145.7373917518181
 20
57.48816495157857
 30
0.0
 11
145.7373917518181
 21
56.98816495157857
 31
0.0
  0
LINE
  5
1F21
330
18
100
AcDbEntity
  8
外形線
100
AcDbLine
 10
146.4373917518181
 20
60.48816495157857
 30
0.0
 11
151.0373917518181
 21
60.48816495157857
 31
0.0
  0
LINE
  5
1F22
330
18
100
AcDbEntity
  8
外形線
100
AcDbLine
 10
151.2373917518181
 20
60.28816495157856
 30
0.0
 11
151.2373917518181
 21
57.48816495157856
 31
0.0
  0
LINE
  5
1F23
330
18
100
AcDbEntity
  8
外形線
100
AcDbLine
 10
146.2373917518181
 20
60.28816495157856
 30
0.0
 11
146.2373917518181
 21
57.48816495157856
 31
0.0
  0
LINE
  5
1F24
330
18
100
AcDbEntity
  8
外形線
100
AcDbLine
 10
146.2373917518181
 20
60.28816495157856
 30
0.0
 11
146.4373917518181
 21
60.48816495157857
 31
0.0
  0
LINE
  5
1F25
330
18
100
AcDbEntity
  8
外形線
100
AcDbLine
 10
151.0373917518181
 20
60.48816495157857
 30
0.0
 11
151.2373917518181
 21
60.28816495157856
 31
0.0
  0
LINE
  5
1F26
330
18
100
AcDbEntity
  8
外形線
100
AcDbLine
 10
146.2373917518181
 20
60.68816495157857
 30
0.0
 11
146.4373917518181
 21
60.48816495157857
 31
0.0
  0
LINE
  5
1F27
330
18
100
AcDbEntity
  8
外形線
100
AcDbLine
 10
146.2373917518181
 20
60.68816495157857
 30
0.0
 11
146.2373917518181
 21
63.48816495157858
 31
0.0
  0
LINE
  5
1F28
330
18
100
AcDbEntity
  8
外形線
100
AcDbLine
 10
151.2373917518181
 20
60.68816495157857
 30
0.0
 11
151.2373917518181
 21
63.48816495157858
 31
0.0
  0
LINE
  5
1F29
330
18
100
AcDbEntity
  8
外形線
100
AcDbLine
 10
146.2373917518181
 20
63.48816495157857
 30
0.0
 11
151.2373917518181
 21
63.48816495157857
 31
0.0
  0
LINE
  5
1F2A
330
18
100
AcDbEntity
  8
外形線
100
AcDbLine
 10
151.0373917518181
 20
60.48816495157857
 30
0.0
 11
151.2373917518181
 21
60.68816495157857
 31
0.0
  0
LINE
  5
1F33
330
18
100
AcDbEntity
  8
外形線
100
AcDbLine
 10
146.5373917518181
 20
65.68816495157857
 30
0.0
 11
150.9373917518181
 21
65.68816495157857
 31
0.0
  0
LINE
  5
1F34
330
18
100
AcDbEntity
  8
外形線
100
AcDbLine
 10
146.2373917518181
 20
63.48816495157857
 30
0.0
 11
146.2373917518181
 21
65.38816495157857
 31
0.0
  0
LINE
  5
1F35
330
18
100
AcDbEntity
  8
外形線
100
AcDbLine
 10
151.2373917518181
 20
63.48816495157857
 30
0.0
 11
151.2373917518181
 21
65.38816495157857
 31
0.0
  0
LINE
  5
1F38
330
18
100
AcDbEntity
  8
外形線
100
AcDbLine
 10
146.2373917518181
 20
65.38816495157857
 30
0.0
 11
146.5373917518181
 21
65.68816495157857
 31
0.0
  0
LINE
  5
1F39
330
18
100
AcDbEntity
  8
外形線
100
AcDbLine
 10
150.9373917518181
 20
65.68816495157857
 30
0.0
 11
151.2373917518181
 21
65.38816495157857
 31
0.0
  0
LINE
  5
1F3A
330
18
100
AcDbEntity
  8
外形線
100
AcDbLine
 10
54.10997875262381
 20
46.98816495157856
 30
0.0
 11
47.50997875262379
 21
46.98816495157856
 31
0.0
  0
LINE
  5
1F3B
330
18
100
AcDbEntity
  8
外形線
 62
     4
100
AcDbLine
 10
56.3099787526238
 20
56.9881649515786
 30
0.0
 11
45.3099787526238
 21
56.98816495157858
 31
0.0
  0
LINE
  5
1F3F
330
18
100
AcDbEntity
  8
外形線
100
AcDbLine
 10
55.10997875262382
 20
56.9881649515786
 30
0.0
 11
55.10997875262382
 21
47.98816495157857
 31
0.0
  0
LINE
  5
1F40
330
18
100
AcDbEntity
  8
外形線
100
AcDbLine
 10
46.50997875262379
 20
56.9881649515786
 30
0.0
 11
46.50997875262379
 21
47.98816495157857
 31
0.0
  0
ARC
  5
1F41
330
18
100
AcDbEntity
  8
外形線
100
AcDbCircle
 10
47.50997875262379
 20
47.98816495157857
 30
0.0
 40
1.0
100
AcDbArc
 50
180.0
 51
270.0
  0
ARC
  5
1F42
330
18
100
AcDbEntity
  8
外形線
100
AcDbCircle
 10
54.10997875262381
 20
47.98816495157857
 30
0.0
 40
1.0
100
AcDbArc
 50
270.0
 51
0.0
  0
LINE
  5
1F44
330
18
100
AcDbEntity
  8
外形線
100
AcDbLine
 10
52.5599787526238
 20
45.46375176538417
 30
0.0
 11
52.5599787526238
 21
44.73816495157857
 31
0.0
  0
LINE
  5
1F45
330
18
100
AcDbEntity
  8
外形線
100
AcDbLine
 10
49.0599787526238
 20
45.46375176538417
 30
0.0
 11
49.0599787526238
 21
44.73816495157857
 31
0.0
  0
ARC
  5
1F46
330
18
100
AcDbEntity
  8
外形線
100
AcDbCircle
 10
50.8099787526238
 20
44.73816495157857
 30
0.0
 40
1.75
100
AcDbArc
 50
180.0
 51
0.0
  0
LINE
  5
1F47
330
18
100
AcDbEntity
  8
外形線
100
AcDbLine
 10
55.3099787526238
 20
54.9881649515786
 30
0.0
 11
55.10997875262382
 21
54.98816495157861
 31
0.0
  0
ARC
  5
1F48
330
18
100
AcDbEntity
  8
外形線
100
AcDbCircle
 10
46.3099787526238
 20
55.98816495157859
 30
0.0
 40
1.0
100
AcDbArc
 50
180.0
 51
270.0
  0
ARC
  5
1F49
330
18
100
AcDbEntity
  8
外形線
100
AcDbCircle
 10
55.3099787526238
 20
55.98816495157859
 30
0.0
 40
1.0
100
AcDbArc
 50
270.0
 51
0.0
  0
LINE
  5
1F4A
330
18
100
AcDbEntity
  8
外形線
100
AcDbLine
 10
46.50997875262379
 20
54.9881649515786
 30
0.0
 11
46.3099787526238
 21
54.9881649515786
 31
0.0
  0
LINE
  5
1F4D
330
18
100
AcDbEntity
  8
外形線
100
AcDbLine
 10
48.3099787526238
 20
63.48816495157854
 30
0.0
 11
48.3099787526238
 21
65.38816495157854
 31
0.0
  0
LINE
  5
1F4E
330
18
100
AcDbEntity
  8
外形線
100
AcDbLine
 10
53.30997875262383
 20
63.48816495157854
 30
0.0
 11
53.30997875262383
 21
65.38816495157854
 31
0.0
  0
LINE
  5
1F4F
330
18
100
AcDbEntity
  8
外形線
100
AcDbLine
 10
53.3099787526238
 20
60.28816495157854
 30
0.0
 11
53.3099787526238
 21
57.48816495157853
 31
0.0
  0
LINE
  5
1F50
330
18
100
AcDbEntity
  8
外形線
100
AcDbLine
 10
48.3099787526238
 20
60.28816495157854
 30
0.0
 11
48.3099787526238
 21
57.48816495157853
 31
0.0
  0
LINE
  5
1F51
330
18
100
AcDbEntity
  8
外形線
100
AcDbLine
 10
47.8099787526238
 20
57.48816495157853
 30
0.0
 11
53.8099787526238
 21
57.48816495157853
 31
0.0
  0
LINE
  5
1F52
330
18
100
AcDbEntity
  8
外形線
100
AcDbLine
 10
47.8099787526238
 20
57.48816495157853
 30
0.0
 11
47.8099787526238
 21
56.98816495157854
 31
0.0
  0
LINE
  5
1F53
330
18
100
AcDbEntity
  8
外形線
100
AcDbLine
 10
53.8099787526238
 20
57.48816495157853
 30
0.0
 11
53.8099787526238
 21
56.98816495157854
 31
0.0
  0
LINE
  5
1F54
330
18
100
AcDbEntity
  8
外形線
100
AcDbLine
 10
48.3099787526238
 20
63.48816495157854
 30
0.0
 11
53.3099787526238
 21
63.48816495157854
 31
0.0
  0
LINE
  5
1F55
330
18
100
AcDbEntity
  8
外形線
100
AcDbLine
 10
48.50997875262379
 20
60.48816495157854
 30
0.0
 11
53.10997875262382
 21
60.48816495157854
 31
0.0
  0
LINE
  5
1F56
330
18
100
AcDbEntity
  8
外形線
100
AcDbLine
 10
48.3099787526238
 20
60.68816495157854
 30
0.0
 11
48.3099787526238
 21
63.48816495157855
 31
0.0
  0
LINE
  5
1F57
330
18
100
AcDbEntity
  8
外形線
100
AcDbLine
 10
48.3099787526238
 20
60.68816495157854
 30
0.0
 11
48.50997875262379
 21
60.48816495157854
 31
0.0
  0
LINE
  5
1F58
330
18
100
AcDbEntity
  8
外形線
100
AcDbLine
 10
48.3099787526238
 20
60.28816495157854
 30
0.0
 11
48.50997875262379
 21
60.48816495157854
 31
0.0
  0
LINE
  5
1F59
330
18
100
AcDbEntity
  8
外形線
100
AcDbLine
 10
53.3099787526238
 20
60.68816495157854
 30
0.0
 11
53.30997875262383
 21
63.48816495157855
 31
0.0
  0
LINE
  5
1F5A
330
18
100
AcDbEntity
  8
外形線
100
AcDbLine
 10
53.10997875262382
 20
60.48816495157854
 30
0.0
 11
53.3099787526238
 21
60.68816495157854
 31
0.0
  0
LINE
  5
1F5B
330
18
100
AcDbEntity
  8
外形線
100
AcDbLine
 10
53.10997875262382
 20
60.48816495157854
 30
0.0
 11
53.3099787526238
 21
60.28816495157854
 31
0.0
  0
LINE
  5
1F5C
330
18
100
AcDbEntity
  8
外形線
100
AcDbLine
 10
48.60997875262381
 20
65.68816495157854
 30
0.0
 11
53.00997875262382
 21
65.68816495157854
 31
0.0
  0
LINE
  5
1F5D
330
18
100
AcDbEntity
  8
外形線
100
AcDbLine
 10
48.3099787526238
 20
65.38816495157854
 30
0.0
 11
48.60997875262381
 21
65.68816495157854
 31
0.0
  0
LINE
  5
1F5E
330
18
100
AcDbEntity
  8
外形線
100
AcDbLine
 10
53.00997875262382
 20
65.68816495157854
 30
0.0
 11
53.30997875262383
 21
65.38816495157854
 31
0.0
  0
LINE
  5
1F65
330
18
100
AcDbEntity
  8
隠れ線2
 48
0.4
100
AcDbLine
 10
53.8099787526238
 20
85.98816495157853
 30
0.0
 11
53.8099787526238
 21
79.98816495157853
 31
0.0
  0
LINE
  5
1F66
330
18
100
AcDbEntity
  8
隠れ線2
 48
0.4
100
AcDbLine
 10
53.8099787526238
 20
85.98816495157853
 30
0.0
 11
56.3099787526238
 21
85.98816495157853
 31
0.0
  0
LINE
  5
1F67
330
18
100
AcDbEntity
  8
隠れ線2
 48
0.4
100
AcDbLine
 10
53.8099787526238
 20
79.98816495157853
 30
0.0
 11
56.3099787526238
 21
79.98816495157853
 31
0.0
  0
LINE
  5
1F68
330
18
100
AcDbEntity
  8
外形線
100
AcDbLine
 10
50.0599787526238
 20
84.48816495157855
 30
0.0
 11
50.0599787526238
 21
73.98816495157849
 31
0.0
  0
LINE
  5
1F6B
330
18
100
AcDbEntity
  8
外形線
100
AcDbLine
 10
51.5599787526238
 20
84.48816495157855
 30
0.0
 11
50.0599787526238
 21
84.48816495157853
 31
0.0
  0
LINE
  5
1F6C
330
18
100
AcDbEntity
  8
中心線
100
AcDbLine
 10
51.5599787526238
 20
83.98816495157852
 30
0.0
 11
50.0599787526238
 21
83.98816495157852
 31
0.0
  0
LINE
  5
1F6D
330
18
100
AcDbEntity
  8
中心線
100
AcDbLine
 10
51.5599787526238
 20
81.98816495157855
 30
0.0
 11
50.0599787526238
 21
81.98816495157853
 31
0.0
  0
LINE
  5
1F6E
330
18
100
AcDbEntity
  8
外形線
100
AcDbLine
 10
51.5599787526238
 20
81.48816495157857
 30
0.0
 11
50.0599787526238
 21
81.48816495157856
 31
0.0
  0
LINE
  5
1F6F
330
18
100
AcDbEntity
  8
隠れ線2
 48
0.4
100
AcDbLine
 10
50.0599787526238
 20
84.48816495157855
 30
0.0
 11
45.3099787526238
 21
84.48816495157855
 31
0.0
  0
LINE
  5
1F70
330
18
100
AcDbEntity
  8
隠れ線2
 48
0.4
100
AcDbLine
 10
50.0599787526238
 20
83.98816495157854
 30
0.0
 11
45.3099787526238
 21
83.98816495157854
 31
0.0
  0
LINE
  5
1F71
330
18
100
AcDbEntity
  8
隠れ線2
 48
0.4
100
AcDbLine
 10
50.0599787526238
 20
81.98816495157853
 30
0.0
 11
45.3099787526238
 21
81.98816495157855
 31
0.0
  0
LINE
  5
1F72
330
18
100
AcDbEntity
  8
隠れ線2
 48
0.4
100
AcDbLine
 10
50.0599787526238
 20
81.48816495157857
 30
0.0
 11
45.3099787526238
 21
81.48816495157854
 31
0.0
  0
LINE
  5
20FE
330
18
100
AcDbEntity
  8
外形線
100
AcDbLine
 10
145.7373917518181
 20
46.48816495157856
 30
0.0
 11
151.7373917518181
 21
46.48816495157857
 31
0.0
  0
LINE
  5
20FF
330
18
100
AcDbEntity
  8
外形線
100
AcDbLine
 10
151.7373917518181
 20
46.98816495157857
 30
0.0
 11
151.7373917518181
 21
46.48816495157857
 31
0.0
  0
LINE
  5
2100
330
18
100
AcDbEntity
  8
外形線
100
AcDbLine
 10
145.7373917518181
 20
46.98816495157856
 30
0.0
 11
145.7373917518181
 21
46.48816495157856
 31
0.0
  0
ARC
  5
2104
330
18
100
AcDbEntity
  8
外形線
100
AcDbCircle
 10
148.7373917518181
 20
48.44566495157858
 30
0.0
 40
3.4575
100
AcDbArc
 50
214.4829187978802
 51
325.5170812021199
  0
ARC
  5
2109
330
18
100
AcDbEntity
  8
外形線
100
AcDbCircle
 10
50.8099787526238
 20
48.44566495157858
 30
0.0
 40
3.4575
100
AcDbArc
 50
214.4829187978802
 51
325.5170812021199
  0
LINE
  5
210A
330
18
100
AcDbEntity
  8
外形線
100
AcDbLine
 10
47.80997875262383
 20
46.48816495157856
 30
0.0
 11
53.8099787526238
 21
46.48816495157857
 31
0.0
  0
LINE
  5
210B
330
18
100
AcDbEntity
  8
外形線
100
AcDbLine
 10
47.80997875262383
 20
46.98816495157856
 30
0.0
 11
47.80997875262383
 21
46.48816495157856
 31
0.0
  0
LINE
  5
210C
330
18
100
AcDbEntity
  8
外形線
100
AcDbLine
 10
53.80997875262384
 20
46.98816495157857
 30
0.0
 11
53.8099787526238
 21
46.48816495157857
 31
0.0
  0
LINE
  5
2144
330
18
100
AcDbEntity
  8
0
  6
ByBlock
 62
     2
100
AcDbLine
 10
65.30997875262383
 20
116.9881649515785
 30
0.0
 11
65.30997875262383
 21
166.1674267838798
 31
0.0
  0
LINE
  5
2145
330
18
100
AcDbEntity
  8
0
  6
ByBlock
 62
     2
100
AcDbLine
 10
53.3099787526238
 20
164.9174267838798
 30
0.0
 11
62.80997875262383
 21
164.9174267838798
 31
0.0
  0
INSERT
  5
2146
330
18
100
AcDbEntity
  8
0
  6
ByBlock
 62
     2
100
AcDbBlockReference
  2
_OPEN
 10
50.8099787526238
 20
164.9174267838798
 30
0.0
 41
2.5
 42
2.5
 43
2.5
 50
180.0
  0
INSERT
  5
2147
330
18
100
AcDbEntity
  8
0
  6
ByBlock
 62
     2
100
AcDbBlockReference
  2
_OPEN
 10
65.30997875262383
 20
164.9174267838798
 30
0.0
 41
2.5
 42
2.5
 43
2.5
  0
MTEXT
  5
2148
330
18
100
AcDbEntity
  8
0
  6
ByBlock
 62
     6
100
AcDbMText
 10
58.05997875262382
 20
166.7924267838798
 30
0.0
 40
2.5
 41
0.0
 71
     5
 72
     1
  1
\A1;14.5
  7
STYLE3
 73
     1
 44
1.0
  0
POINT
  5
2149
330
18
100
AcDbEntity
  8
DEFPOINTS
  6
ByBlock
 62
     0
100
AcDbPoint
 10
50.8099787526238
 20
158.4881649515785
 30
0.0
  0
POINT
  5
214A
330
18
100
AcDbEntity
  8
DEFPOINTS
  6
ByBlock
 62
     0
100
AcDbPoint
 10
65.30997875262383
 20
116.9881649515785
 30
0.0
  0
POINT
  5
214B
330
18
100
AcDbEntity
  8
DEFPOINTS
  6
ByBlock
 62
     0
100
AcDbPoint
 10
65.30997875262383
 20
164.9174267838798
 30
0.0
  0
LINE
  5
214C
330
18
100
AcDbEntity
  8
0
  6
ByBlock
 62
     2
100
AcDbLine
 10
43.20997875262366
 20
139.9881649515785
 30
0.0
 11
43.20997875262366
 21
166.1674267838798
 31
0.0
  0
LINE
  5
214D
330
18
100
AcDbEntity
  8
0
  6
ByBlock
 62
     2
100
AcDbLine
 10
50.8099787526238
 20
158.4881649515785
 30
0.0
 11
50.8099787526238
 21
166.1674267838798
 31
0.0
  0
LINE
  5
214E
330
18
100
AcDbEntity
  8
0
  6
ByBlock
 62
     2
100
AcDbLine
 10
45.70997875262366
 20
164.9174267838798
 30
0.0
 11
48.3099787526238
 21
164.9174267838798
 31
0.0
  0
INSERT
  5
214F
330
18
100
AcDbEntity
  8
0
  6
ByBlock
 62
     2
100
AcDbBlockReference
  2
_OPEN
 10
43.20997875262366
 20
164.9174267838798
 30
0.0
 41
2.5
 42
2.5
 43
2.5
 50
180.0
  0
INSERT
  5
2150
330
18
100
AcDbEntity
  8
0
  6
ByBlock
 62
     2
100
AcDbBlockReference
  2
_OPEN
 10
50.8099787526238
 20
164.9174267838798
 30
0.0
 41
2.5
 42
2.5
 43
2.5
  0
MTEXT
  5
2151
330
18
100
AcDbEntity
  8
0
  6
ByBlock
 62
     6
100
AcDbMText
 10
47.00997875262373
 20
166.7924267838798
 30
0.0
 40
2.5
 41
0.0
 71
     5
 72
     1
  1
\A1;7.6
  7
STYLE3
 73
     1
 44
1.0
  0
POINT
  5
2152
330
18
100
AcDbEntity
  8
DEFPOINTS
  6
ByBlock
 62
     0
100
AcDbPoint
 10
43.20997875262366
 20
139.9881649515785
 30
0.0
  0
POINT
  5
2153
330
18
100
AcDbEntity
  8
DEFPOINTS
  6
ByBlock
 62
     0
100
AcDbPoint
 10
50.8099787526238
 20
158.4881649515785
 30
0.0
  0
POINT
  5
2154
330
18
100
AcDbEntity
  8
DEFPOINTS
  6
ByBlock
 62
     0
100
AcDbPoint
 10
50.8099787526238
 20
164.9174267838798
 30
0.0
  0
LINE
  5
2155
330
18
100
AcDbEntity
  8
0
  6
ByBlock
 62
     2
100
AcDbLine
 10
111.3090196979281
 20
158.4881649515785
 30
0.0
 11
104.3251111569116
 21
158.4881649515785
 31
0.0
  0
LINE
  5
2156
330
18
100
AcDbEntity
  8
0
  6
ByBlock
 62
     2
100
AcDbLine
 10
111.309019697928
 20
42.98816495157857
 30
0.0
 11
104.3251111569116
 21
42.98816495157857
 31
0.0
  0
LINE
  5
2157
330
18
100
AcDbEntity
  8
0
  6
ByBlock
 62
     2
100
AcDbLine
 10
105.5751111569116
 20
155.9881649515785
 30
0.0
 11
105.5751111569116
 21
45.48816495157857
 31
0.0
  0
INSERT
  5
2158
330
18
100
AcDbEntity
  8
0
  6
ByBlock
 62
     2
100
AcDbBlockReference
  2
_OPEN
 10
105.5751111569116
 20
158.4881649515785
 30
0.0
 41
2.5
 42
2.5
 43
2.5
 50
90.0
  0
INSERT
  5
2159
330
18
100
AcDbEntity
  8
0
  6
ByBlock
 62
     2
100
AcDbBlockReference
  2
_OPEN
 10
105.5751111569116
 20
42.98816495157857
 30
0.0
 41
2.5
 42
2.5
 43
2.5
 50
270.0
  0
MTEXT
  5
215A
330
18
100
AcDbEntity
  8
0
  6
ByBlock
 62
     6
100
AcDbMText
 10
103.7001111569116
 20
100.7381649515785
 30
0.0
 40
2.5
 41
0.0
 71
     5
 72
     1
  1
\A1;115.5
  7
STYLE3
 11
0.0000000000000001
 21
1.0
 31
0.0
 73
     1
 44
1.0
  0
POINT
  5
215B
330
18
100
AcDbEntity
  8
DEFPOINTS
  6
ByBlock
 62
     0
100
AcDbPoint
 10
111.3090196979281
 20
158.4881649515785
 30
0.0
  0
POINT
  5
215C
330
18
100
AcDbEntity
  8
DEFPOINTS
  6
ByBlock
 62
     0
100
AcDbPoint
 10
111.309019697928
 20
42.98816495157857
 30
0.0
  0
POINT
  5
215D
330
18
100
AcDbEntity
  8
DEFPOINTS
  6
ByBlock
 62
     0
100
AcDbPoint
 10
105.5751111569116
 20
42.98816495157857
 30
0.0
  0
LINE
  5
215E
330
18
100
AcDbEntity
  8
0
  6
ByBlock
 62
     2
100
AcDbLine
 10
148.7373917518181
 20
158.4881649515785
 30
0.0
 11
111.3090196979281
 21
158.4881649515785
 31
0.0
  0
LINE
  5
215F
330
18
100
AcDbEntity
  8
0
  6
ByBlock
 62
     2
100
AcDbLine
 10
122.3373917518181
 20
116.9881649515785
 30
0.0
 11
111.309019697928
 21
116.9881649515785
 31
0.0
  0
LINE
  5
2160
330
18
100
AcDbEntity
  8
0
  6
ByBlock
 62
     2
100
AcDbLine
 10
112.559019697928
 20
155.9881649515785
 30
0.0
 11
112.559019697928
 21
119.4881649515785
 31
0.0
  0
INSERT
  5
2161
330
18
100
AcDbEntity
  8
0
  6
ByBlock
 62
     2
100
AcDbBlockReference
  2
_OPEN
 10
112.559019697928
 20
158.4881649515785
 30
0.0
 41
2.5
 42
2.5
 43
2.5
 50
90.0
  0
INSERT
  5
2162
330
18
100
AcDbEntity
  8
0
  6
ByBlock
 62
     2
100
AcDbBlockReference
  2
_OPEN
 10
112.559019697928
 20
116.9881649515785
 30
0.0
 41
2.5
 42
2.5
 43
2.5
 50
270.0
  0
MTEXT
  5
2163
330
18
100
AcDbEntity
  8
0
  6
ByBlock
 62
     6
100
AcDbMText
 10
110.684019697928
 20
137.7381649515785
 30
0.0
 40
2.5
 41
0.0
 71
     5
 72
     1
  1
\A1;41.5
  7
STYLE3
 11
0.0000000000000001
 21
1.0
 31
0.0
 73
     1
 44
1.0
  0
POINT
  5
2164
330
18
100
AcDbEntity
  8
DEFPOINTS
  6
ByBlock
 62
     0
100
AcDbPoint
 10
148.7373917518181
 20
158.4881649515785
 30
0.0
  0
POINT
  5
2165
330
18
100
AcDbEntity
  8
DEFPOINTS
  6
ByBlock
 62
     0
100
AcDbPoint
 10
122.3373917518181
 20
116.9881649515785
 30
0.0
  0
POINT
  5
2166
330
18
100
AcDbEntity
  8
DEFPOINTS
  6
ByBlock
 62
     0
100
AcDbPoint
 10
112.559019697928
 20
116.9881649515785
 30
0.0
  0
LINE
  5
2167
330
18
100
AcDbEntity
  8
0
  6
ByBlock
 62
     2
100
AcDbLine
 10
207.2373917518181
 20
110.9881649515785
 30
0.0
 11
207.2373917518181
 21
166.1674267838798
 31
0.0
  0
LINE
  5
2168
330
18
100
AcDbEntity
  8
0
  6
ByBlock
 62
     2
100
AcDbLine
 10
151.2373917518181
 20
164.9174267838798
 30
0.0
 11
204.7373917518181
 21
164.9174267838798
 31
0.0
  0
INSERT
  5
2169
330
18
100
AcDbEntity
  8
0
  6
ByBlock
 62
     2
100
AcDbBlockReference
  2
_OPEN
 10
148.7373917518181
 20
164.9174267838798
 30
0.0
 41
2.5
 42
2.5
 43
2.5
 50
180.0
  0
INSERT
  5
216A
330
18
100
AcDbEntity
  8
0
  6
ByBlock
 62
     2
100
AcDbBlockReference
  2
_OPEN
 10
207.2373917518181
 20
164.9174267838798
 30
0.0
 41
2.5
 42
2.5
 43
2.5
  0
MTEXT
  5
216B
330
18
100
AcDbEntity
  8
0
  6
ByBlock
 62
     6
100
AcDbMText
 10
177.9873917518181
 20
166.7924267838798
 30
0.0
 40
2.5
 41
0.0
 71
     5
 72
     1
  1
\A1;58.5
  7
STYLE3
 73
     1
 44
1.0
  0
POINT
  5
216C
330
18
100
AcDbEntity
  8
DEFPOINTS
  6
ByBlock
 62
     0
100
AcDbPoint
 10
148.7373917518181
 20
158.4881649515785
 30
0.0
  0
POINT
  5
216D
330
18
100
AcDbEntity
  8
DEFPOINTS
  6
ByBlock
 62
     0
100
AcDbPoint
 10
207.2373917518181
 20
110.9881649515785
 30
0.0
  0
POINT
  5
216E
330
18
100
AcDbEntity
  8
DEFPOINTS
  6
ByBlock
 62
     0
100
AcDbPoint
 10
207.2373917518181
 20
164.9174267838798
 30
0.0
  0
LINE
  5
216F
330
18
100
AcDbEntity
  8
0
  6
ByBlock
 62
     2
100
AcDbLine
 10
122.3373917518181
 20
116.9881649515785
 30
0.0
 11
122.3373917518181
 21
166.1674267838798
 31
0.0
  0
LINE
  5
2170
330
18
100
AcDbEntity
  8
0
  6
ByBlock
 62
     2
100
AcDbLine
 10
148.7373917518181
 20
158.4881649515785
 30
0.0
 11
148.7373917518181
 21
166.1674267838798
 31
0.0
  0
LINE
  5
2171
330
18
100
AcDbEntity
  8
0
  6
ByBlock
 62
     2
100
AcDbLine
 10
124.8373917518181
 20
164.9174267838798
 30
0.0
 11
146.2373917518181
 21
164.9174267838798
 31
0.0
  0
INSERT
  5
2172
330
18
100
AcDbEntity
  8
0
  6
ByBlock
 62
     2
100
AcDbBlockReference
  2
_OPEN
 10
122.3373917518181
 20
164.9174267838798
 30
0.0
 41
2.5
 42
2.5
 43
2.5
 50
180.0
  0
INSERT
  5
2173
330
18
100
AcDbEntity
  8
0
  6
ByBlock
 62
     2
100
AcDbBlockReference
  2
_OPEN
 10
148.7373917518181
 20
164.9174267838798
 30
0.0
 41
2.5
 42
2.5
 43
2.5
  0
MTEXT
  5
2174
330
18
100
AcDbEntity
  8
0
  6
ByBlock
 62
     6
100
AcDbMText
 10
135.5373917518181
 20
166.7924267838798
 30
0.0
 40
2.5
 41
0.0
 71
     5
 72
     1
  1
\A1;26.5
  7
STYLE3
 73
     1
 44
1.0
  0
POINT
  5
2175
330
18
100
AcDbEntity
  8
DEFPOINTS
  6
ByBlock
 62
     0
100
AcDbPoint
 10
122.3373917518181
 20
116.9881649515785
 30
0.0
  0
POINT
  5
2176
330
18
100
AcDbEntity
  8
DEFPOINTS
  6
ByBlock
 62
     0
100
AcDbPoint
 10
148.7373917518181
 20
158.4881649515785
 30
0.0
  0
POINT
  5
2177
330
18
100
AcDbEntity
  8
DEFPOINTS
  6
ByBlock
 62
     0
100
AcDbPoint
 10
148.7373917518181
 20
164.9174267838798
 30
0.0
  0
LINE
  5
2178
330
18
100
AcDbEntity
  8
0
  6
ByBlock
 62
     2
100
AcDbLine
 10
70.91273797705136
 20
60.48816495157854
 30
0.0
 11
80.59138490937119
 21
60.48816495157853
 31
0.0
  0
LINE
  5
2179
330
18
100
AcDbEntity
  8
0
  6
ByBlock
 62
     2
100
AcDbLine
 10
56.3099787526238
 20
56.9881649515786
 30
0.0
 11
80.59138490937119
 21
56.98816495157859
 31
0.0
  0
LINE
  5
217A
330
18
100
AcDbEntity
  8
0
  6
ByBlock
 62
     2
100
AcDbLine
 10
79.34138490937119
 20
62.98816495157853
 30
0.0
 11
79.34138490937119
 21
65.48816495157854
 31
0.0
  0
LINE
  5
217B
330
18
100
AcDbEntity
  8
0
  6
ByBlock
 62
     2
100
AcDbLine
 10
79.34138490937119
 20
54.48816495157859
 30
0.0
 11
79.34138490937119
 21
45.50006971348334
 31
0.0
  0
LINE
  5
217C
330
18
100
AcDbEntity
  8
0
  6
ByBlock
 62
     2
100
AcDbLine
 10
79.34138490937119
 20
60.48816495157853
 30
0.0
 11
79.34138490937119
 21
56.98816495157859
 31
0.0
  0
INSERT
  5
217D
330
18
100
AcDbEntity
  8
0
  6
ByBlock
 62
     2
100
AcDbBlockReference
  2
_OPEN
 10
79.34138490937119
 20
60.48816495157853
 30
0.0
 41
2.5
 42
2.5
 43
2.5
 50
270.0
  0
INSERT
  5
217E
330
18
100
AcDbEntity
  8
0
  6
ByBlock
 62
     2
100
AcDbBlockReference
  2
_OPEN
 10
79.34138490937119
 20
56.98816495157859
 30
0.0
 41
2.5
 42
2.5
 43
2.5
 50
90.0
  0
MTEXT
  5
217F
330
18
100
AcDbEntity
  8
0
  6
ByBlock
 62
     6
100
AcDbMText
 10
77.46638490937119
 20
48.74411733253097
 30
0.0
 40
2.5
 41
0.0
 71
     5
 72
     1
  1
\A1;3.5
  7
STYLE3
 11
0.0000000000000001
 21
1.0
 31
0.0
 73
     1
 44
1.0
  0
POINT
  5
2180
330
18
100
AcDbEntity
  8
DEFPOINTS
  6
ByBlock
 62
     0
100
AcDbPoint
 10
70.91273797705136
 20
60.48816495157854
 30
0.0
  0
POINT
  5
2181
330
18
100
AcDbEntity
  8
DEFPOINTS
  6
ByBlock
 62
     0
100
AcDbPoint
 10
56.3099787526238
 20
56.9881649515786
 30
0.0
  0
POINT
  5
2182
330
18
100
AcDbEntity
  8
DEFPOINTS
  6
ByBlock
 62
     0
100
AcDbPoint
 10
79.34138490937119
 20
56.98816495157859
 30
0.0
  0
LINE
  5
2192
330
18
100
AcDbEntity
  8
0
  6
ByBlock
 62
     2
100
AcDbLine
 10
45.3099787526238
 20
56.98816495157858
 30
0.0
 11
45.3099787526238
 21
33.77597533509368
 31
0.0
  0
LINE
  5
2193
330
18
100
AcDbEntity
  8
0
  6
ByBlock
 62
     2
100
AcDbLine
 10
56.3099787526238
 20
56.98816495157859
 30
0.0
 11
56.3099787526238
 21
33.77597533509368
 31
0.0
  0
LINE
  5
2194
330
18
100
AcDbEntity
  8
0
  6
ByBlock
 62
     2
100
AcDbLine
 10
47.8099787526238
 20
35.02597533509368
 30
0.0
 11
53.8099787526238
 21
35.02597533509368
 31
0.0
  0
INSERT
  5
2195
330
18
100
AcDbEntity
  8
0
  6
ByBlock
 62
     2
100
AcDbBlockReference
  2
_OPEN
 10
45.3099787526238
 20
35.02597533509368
 30
0.0
 41
2.5
 42
2.5
 43
2.5
 50
180.0
  0
INSERT
  5
2196
330
18
100
AcDbEntity
  8
0
  6
ByBlock
 62
     2
100
AcDbBlockReference
  2
_OPEN
 10
56.3099787526238
 20
35.02597533509368
 30
0.0
 41
2.5
 42
2.5
 43
2.5
  0
MTEXT
  5
2197
330
18
100
AcDbEntity
  8
0
  6
ByBlock
 62
     6
100
AcDbMText
 10
50.8099787526238
 20
36.90097533509368
 30
0.0
 40
2.5
 41
0.0
 71
     5
 72
     1
  1
\A1;11
  7
STYLE3
 73
     1
 44
1.0
  0
POINT
  5
2198
330
18
100
AcDbEntity
  8
DEFPOINTS
  6
ByBlock
 62
     0
100
AcDbPoint
 10
45.3099787526238
 20
56.98816495157858
 30
0.0
  0
POINT
  5
2199
330
18
100
AcDbEntity
  8
DEFPOINTS
  6
ByBlock
 62
     0
100
AcDbPoint
 10
56.3099787526238
 20
56.98816495157859
 30
0.0
  0
POINT
  5
219A
330
18
100
AcDbEntity
  8
DEFPOINTS
  6
ByBlock
 62
     0
100
AcDbPoint
 10
56.3099787526238
 20
35.02597533509368
 30
0.0
  0
LINE
  5
21A4
330
18
100
AcDbEntity
  8
0
  6
ByBlock
 62
     2
100
AcDbLine
 10
61.1099787526237
 20
143.3881649515785
 30
0.0
 11
80.59138490937119
 21
143.3881649515785
 31
0.0
  0
LINE
  5
21A5
330
18
100
AcDbEntity
  8
0
  6
ByBlock
 62
     2
100
AcDbLine
 10
61.1099787526237
 20
90.58816495157854
 30
0.0
 11
80.59138490937119
 21
90.58816495157854
 31
0.0
  0
LINE
  5
21A6
330
18
100
AcDbEntity
  8
0
  6
ByBlock
 62
     2
100
AcDbLine
 10
79.34138490937119
 20
140.8881649515785
 30
0.0
 11
79.34138490937119
 21
93.08816495157854
 31
0.0
  0
INSERT
  5
21A7
330
18
100
AcDbEntity
  8
0
  6
ByBlock
 62
     2
100
AcDbBlockReference
  2
_OPEN
 10
79.34138490937119
 20
143.3881649515785
 30
0.0
 41
2.5
 42
2.5
 43
2.5
 50
90.0
  0
INSERT
  5
21A8
330
18
100
AcDbEntity
  8
0
  6
ByBlock
 62
     2
100
AcDbBlockReference
  2
_OPEN
 10
79.34138490937119
 20
90.58816495157854
 30
0.0
 41
2.5
 42
2.5
 43
2.5
 50
270.0
  0
MTEXT
  5
21A9
330
18
100
AcDbEntity
  8
0
  6
ByBlock
 62
     6
100
AcDbMText
 10
77.46638490937119
 20
116.9881649515785
 30
0.0
 40
2.5
 41
0.0
 71
     5
 72
     1
  1
\A1;φ53
  7
STYLE3
 11
0.0000000000000001
 21
1.0
 31
0.0
 73
     1
 44
1.0
  0
POINT
  5
21AA
330
18
100
AcDbEntity
  8
DEFPOINTS
  6
ByBlock
 62
     0
100
AcDbPoint
 10
61.1099787526237
 20
143.3881649515785
 30
0.0
  0
POINT
  5
21AB
330
18
100
AcDbEntity
  8
DEFPOINTS
  6
ByBlock
 62
     0
100
AcDbPoint
 10
61.1099787526237
 20
90.58816495157854
 30
0.0
  0
POINT
  5
21AC
330
18
100
AcDbEntity
  8
DEFPOINTS
  6
ByBlock
 62
     0
100
AcDbPoint
 10
79.34138490937119
 20
90.58816495157854
 30
0.0
  0
LINE
  5
21AD
330
18
100
AcDbEntity
  8
ﾊｯﾁﾝｸ
  6
Continuous
100
AcDbLine
 10
46.8099787526238
 20
150.7546587478763
 30
0.0
 11
47.04348495632595
 21
150.9881649515784
 31
0.0
  0
LINE
  5
21AE
330
18
100
AcDbEntity
  8
ﾊｯﾁﾝｸ
  6
Continuous
100
AcDbLine
 10
46.80997875262377
 20
148.9868917949099
 30
0.0
 11
48.81125190929234
 21
150.9881649515784
 31
0.0
  0
LINE
  5
21AF
330
18
100
AcDbEntity
  8
ﾊｯﾁﾝｸ
  6
Continuous
100
AcDbLine
 10
46.8099787526238
 20
147.2191248419435
 30
0.0
 11
50.57901886225872
 21
150.9881649515784
 31
0.0
  0
LINE
  5
21B0
330
18
100
AcDbEntity
  8
ﾊｯﾁﾝｸ
  6
Continuous
100
AcDbLine
 10
46.80997875262377
 20
145.4513578889772
 30
0.0
 11
50.80997875262375
 21
149.4513578889771
 31
0.0
  0
LINE
  5
21B1
330
18
100
AcDbEntity
  8
ﾊｯﾁﾝｸ
  6
Continuous
100
AcDbLine
 10
48.11455276819143
 20
144.9881649515784
 30
0.0
 11
50.80997875262378
 21
147.6835909360108
 31
0.0
  0
LINE
  5
21B2
330
18
100
AcDbEntity
  8
ﾊｯﾁﾝｸ
  6
Continuous
100
AcDbLine
 10
49.88231972115781
 20
144.9881649515784
 30
0.0
 11
50.8099787526238
 21
145.9158239830444
 31
0.0
  0
LINE
  5
21B3
330
18
100
AcDbEntity
  8
ﾊｯﾁﾝｸ
  6
Continuous
100
AcDbLine
 10
46.86152439894278
 20
144.9881649515784
 30
0.0
 11
46.80997875262377
 21
145.0397105978974
 31
0.0
  0
LINE
  5
21B4
330
18
100
AcDbEntity
  8
ﾊｯﾁﾝｸ
  6
Continuous
100
AcDbLine
 10
48.62929135190916
 20
144.9881649515784
 30
0.0
 11
46.8099787526238
 21
146.8074775508638
 31
0.0
  0
LINE
  5
21B5
330
18
100
AcDbEntity
  8
ﾊｯﾁﾝｸ
  6
Continuous
100
AcDbLine
 10
50.39705830487552
 20
144.9881649515784
 30
0.0
 11
46.8099787526238
 21
148.5752445038301
 31
0.0
  0
LINE
  5
21B6
330
18
100
AcDbEntity
  8
ﾊｯﾁﾝｸ
  6
Continuous
100
AcDbLine
 10
50.8099787526238
 20
146.3430114567965
 30
0.0
 11
46.8099787526238
 21
150.3430114567965
 31
0.0
  0
LINE
  5
21B7
330
18
100
AcDbEntity
  8
ﾊｯﾁﾝｸ
  6
Continuous
100
AcDbLine
 10
50.80997875262378
 20
148.1107784097629
 30
0.0
 11
47.93259221080825
 21
150.9881649515784
 31
0.0
  0
LINE
  5
21B8
330
18
100
AcDbEntity
  8
ﾊｯﾁﾝｸ
  6
Continuous
100
AcDbLine
 10
50.80997875262378
 20
149.8785453627293
 30
0.0
 11
49.70035916377463
 21
150.9881649515784
 31
0.0
  0
LINE
  5
21B9
330
18
100
AcDbEntity
  8
0
  6
ByBlock
 62
     2
100
AcDbLine
 10
132.1736782422856
 20
73.98816495157856
 30
0.0
 11
126.6931592617055
 21
73.98816495157856
 31
0.0
  0
LINE
  5
21BA
330
18
100
AcDbEntity
  8
0
  6
ByBlock
 62
     2
100
AcDbLine
 10
145.4873917518181
 20
56.98816495157856
 30
0.0
 11
126.6931592617055
 21
56.98816495157856
 31
0.0
  0
LINE
  5
21BB
330
18
100
AcDbEntity
  8
0
  6
ByBlock
 62
     2
100
AcDbLine
 10
127.9431592617055
 20
71.48816495157856
 30
0.0
 11
127.9431592617055
 21
59.48816495157856
 31
0.0
  0
INSERT
  5
21BC
330
18
100
AcDbEntity
  8
0
  6
ByBlock
 62
     2
100
AcDbBlockReference
  2
_OPEN
 10
127.9431592617055
 20
73.98816495157856
 30
0.0
 41
2.5
 42
2.5
 43
2.5
 50
90.0
  0
INSERT
  5
21BD
330
18
100
AcDbEntity
  8
0
  6
ByBlock
 62
     2
100
AcDbBlockReference
  2
_OPEN
 10
127.9431592617055
 20
56.98816495157856
 30
0.0
 41
2.5
 42
2.5
 43
2.5
 50
270.0
  0
MTEXT
  5
21BE
330
18
100
AcDbEntity
  8
0
  6
ByBlock
 62
     6
100
AcDbMText
 10
126.0681592617055
 20
65.48816495157857
 30
0.0
 40
2.5
 41
0.0
 71
     5
 72
     1
  1
\A1;17
  7
STYLE3
 11
0.0000000000000001
 21
1.0
 31
0.0
 73
     1
 44
1.0
  0
POINT
  5
21BF
330
18
100
AcDbEntity
  8
DEFPOINTS
  6
ByBlock
 62
     0
100
AcDbPoint
 10
132.1736782422856
 20
73.98816495157856
 30
0.0
  0
POINT
  5
21C0
330
18
100
AcDbEntity
  8
DEFPOINTS
  6
ByBlock
 62
     0
100
AcDbPoint
 10
145.4873917518181
 20
56.98816495157856
 30
0.0
  0
POINT
  5
21C1
330
18
100
AcDbEntity
  8
DEFPOINTS
  6
ByBlock
 62
     0
100
AcDbPoint
 10
127.9431592617055
 20
56.98816495157856
 30
0.0
  0
LINE
  5
21C2
330
18
100
AcDbEntity
  8
0
  6
ByBlock
 62
     2
100
AcDbLine
 10
134.8177521097969
 20
42.98816495157857
 30
0.0
 11
118.7609368666095
 21
42.98816495157857
 31
0.0
  0
LINE
  5
21C3
330
18
100
AcDbEntity
  8
0
  6
ByBlock
 62
     2
100
AcDbLine
 10
120.0109368666095
 20
71.48816495157858
 30
0.0
 11
120.0109368666095
 21
45.48816495157857
 31
0.0
  0
INSERT
  5
21C4
330
18
100
AcDbEntity
  8
0
  6
ByBlock
 62
     2
100
AcDbBlockReference
  2
_OPEN
 10
120.0109368666095
 20
73.98816495157858
 30
0.0
 41
2.5
 42
2.5
 43
2.5
 50
90.0
  0
INSERT
  5
21C5
330
18
100
AcDbEntity
  8
0
  6
ByBlock
 62
     2
100
AcDbBlockReference
  2
_OPEN
 10
120.0109368666095
 20
42.98816495157857
 30
0.0
 41
2.5
 42
2.5
 43
2.5
 50
270.0
  0
MTEXT
  5
21C6
330
18
100
AcDbEntity
  8
0
  6
ByBlock
 62
     6
100
AcDbMText
 10
118.1359368666095
 20
58.48816495157858
 30
0.0
 40
2.5
 41
0.0
 71
     5
 72
     1
  1
\A1;31
  7
STYLE3
 11
0.0000000000000001
 21
1.0
 31
0.0
 73
     1
 44
1.0
  0
POINT
  5
21C7
330
18
100
AcDbEntity
  8
DEFPOINTS
  6
ByBlock
 62
     0
100
AcDbPoint
 10
135.2373917518181
 20
73.98816495157856
 30
0.0
  0
POINT
  5
21C8
330
18
100
AcDbEntity
  8
DEFPOINTS
  6
ByBlock
 62
     0
100
AcDbPoint
 10
134.8177521097969
 20
42.98816495157857
 30
0.0
  0
POINT
  5
21C9
330
18
100
AcDbEntity
  8
DEFPOINTS
  6
ByBlock
 62
     0
100
AcDbPoint
 10
120.0109368666095
 20
42.98816495157857
 30
0.0
  0
LINE
  5
21CA
330
18
100
AcDbEntity
  8
0
  6
ByBlock
 62
     2
100
AcDbLine
 10
165.9373917518181
 20
42.98816495157857
 30
0.0
 11
111.309019697928
 21
42.98816495157857
 31
0.0
  0
LINE
  5
21CB
330
18
100
AcDbEntity
  8
0
  6
ByBlock
 62
     2
100
AcDbLine
 10
112.559019697928
 20
114.4881649515785
 30
0.0
 11
112.559019697928
 21
45.48816495157857
 31
0.0
  0
INSERT
  5
21CC
330
18
100
AcDbEntity
  8
0
  6
ByBlock
 62
     2
100
AcDbBlockReference
  2
_OPEN
 10
112.559019697928
 20
116.9881649515785
 30
0.0
 41
2.5
 42
2.5
 43
2.5
 50
90.0
  0
INSERT
  5
21CD
330
18
100
AcDbEntity
  8
0
  6
ByBlock
 62
     2
100
AcDbBlockReference
  2
_OPEN
 10
112.559019697928
 20
42.98816495157857
 30
0.0
 41
2.5
 42
2.5
 43
2.5
 50
270.0
  0
MTEXT
  5
21CE
330
18
100
AcDbEntity
  8
0
  6
ByBlock
 62
     6
100
AcDbMText
 10
110.684019697928
 20
79.98816495157855
 30
0.0
 40
2.5
 41
0.0
 71
     5
 72
     1
  1
\A1;74
  7
STYLE3
 11
0.0000000000000001
 21
1.0
 31
0.0
 73
     1
 44
1.0
  0
POINT
  5
21CF
330
18
100
AcDbEntity
  8
DEFPOINTS
  6
ByBlock
 62
     0
100
AcDbPoint
 10
122.3373917518181
 20
116.9881649515785
 30
0.0
  0
POINT
  5
21D0
330
18
100
AcDbEntity
  8
DEFPOINTS
  6
ByBlock
 62
     0
100
AcDbPoint
 10
165.9373917518181
 20
42.98816495157857
 30
0.0
  0
POINT
  5
21D1
330
18
100
AcDbEntity
  8
DEFPOINTS
  6
ByBlock
 62
     0
100
AcDbPoint
 10
112.559019697928
 20
42.98816495157857
 30
0.0
  0
LINE
  5
21D2
330
18
100
AcDbEntity
  8
0
  6
ByBlock
 62
     2
100
AcDbLine
 10
148.7373917518181
 20
41.69858055946486
 30
0.0
 11
148.7373917518181
 21
33.77597533509368
 31
0.0
  0
LINE
  5
21D3
330
18
100
AcDbEntity
  8
0
  6
ByBlock
 62
     2
100
AcDbLine
 10
168.9373917518181
 20
58.98816495157858
 30
0.0
 11
168.9373917518181
 21
33.77597533509368
 31
0.0
  0
LINE
  5
21D4
330
18
100
AcDbEntity
  8
0
  6
ByBlock
 62
     2
100
AcDbLine
 10
151.2373917518181
 20
35.02597533509368
 30
0.0
 11
166.4373917518181
 21
35.02597533509368
 31
0.0
  0
INSERT
  5
21D5
330
18
100
AcDbEntity
  8
0
  6
ByBlock
 62
     2
100
AcDbBlockReference
  2
_OPEN
 10
148.7373917518181
 20
35.02597533509368
 30
0.0
 41
2.5
 42
2.5
 43
2.5
 50
180.0
  0
INSERT
  5
21D6
330
18
100
AcDbEntity
  8
0
  6
ByBlock
 62
     2
100
AcDbBlockReference
  2
_OPEN
 10
168.9373917518181
 20
35.02597533509368
 30
0.0
 41
2.5
 42
2.5
 43
2.5
  0
MTEXT
  5
21D7
330
18
100
AcDbEntity
  8
0
  6
ByBlock
 62
     6
100
AcDbMText
 10
158.8373917518181
 20
36.90097533509368
 30
0.0
 40
2.5
 41
0.0
 71
     5
 72
     1
  1
\A1;20
  7
STYLE3
 73
     1
 44
1.0
  0
POINT
  5
21D8
330
18
100
AcDbEntity
  8
DEFPOINTS
  6
ByBlock
 62
     0
100
AcDbPoint
 10
148.7373917518181
 20
41.69858055946486
 30
0.0
  0
POINT
  5
21D9
330
18
100
AcDbEntity
  8
DEFPOINTS
  6
ByBlock
 62
     0
100
AcDbPoint
 10
168.9373917518181
 20
58.98816495157858
 30
0.0
  0
POINT
  5
21DA
330
18
100
AcDbEntity
  8
DEFPOINTS
  6
ByBlock
 62
     0
100
AcDbPoint
 10
168.9373917518181
 20
35.02597533509368
 30
0.0
  0
LINE
  5
21DB
330
18
100
AcDbEntity
  8
0
  6
ByBlock
 62
     2
100
AcDbLine
 10
138.5194563168749
 20
42.98816495157857
 30
0.0
 11
126.6931592617055
 21
42.98816495157857
 31
0.0
  0
LINE
  5
21DC
330
18
100
AcDbEntity
  8
0
  6
ByBlock
 62
     2
100
AcDbLine
 10
127.9431592617055
 20
49.48816495157856
 30
0.0
 11
127.9431592617055
 21
51.98816495157856
 31
0.0
  0
LINE
  5
21DD
330
18
100
AcDbEntity
  8
0
  6
ByBlock
 62
     2
100
AcDbLine
 10
127.9431592617055
 20
40.48816495157857
 30
0.0
 11
127.9431592617055
 21
37.98816495157857
 31
0.0
  0
LINE
  5
21DE
330
18
100
AcDbEntity
  8
0
  6
ByBlock
 62
     2
100
AcDbLine
 10
127.9431592617055
 20
46.98816495157856
 30
0.0
 11
127.9431592617055
 21
42.98816495157857
 31
0.0
  0
INSERT
  5
21DF
330
18
100
AcDbEntity
  8
0
  6
ByBlock
 62
     2
100
AcDbBlockReference
  2
_OPEN
 10
127.9431592617055
 20
46.98816495157856
 30
0.0
 41
2.5
 42
2.5
 43
2.5
 50
270.0
  0
INSERT
  5
21E0
330
18
100
AcDbEntity
  8
0
  6
ByBlock
 62
     2
100
AcDbBlockReference
  2
_OPEN
 10
127.9431592617055
 20
42.98816495157857
 30
0.0
 41
2.5
 42
2.5
 43
2.5
 50
90.0
  0
MTEXT
  5
21E1
330
18
100
AcDbEntity
  8
0
  6
ByBlock
 62
     6
100
AcDbMText
 10
126.0681592617055
 20
44.98816495157856
 30
0.0
 40
2.5
 41
0.0
 71
     5
 72
     1
  1
\A1;4
  7
STYLE3
 11
0.0000000000000001
 21
1.0
 31
0.0
 73
     1
 44
1.0
  0
POINT
  5
21E2
330
18
100
AcDbEntity
  8
DEFPOINTS
  6
ByBlock
 62
     0
100
AcDbPoint
 10
145.4873917518181
 20
46.98816495157856
 30
0.0
  0
POINT
  5
21E3
330
18
100
AcDbEntity
  8
DEFPOINTS
  6
ByBlock
 62
     0
100
AcDbPoint
 10
138.5194563168749
 20
42.98816495157857
 30
0.0
  0
POINT
  5
21E4
330
18
100
AcDbEntity
  8
DEFPOINTS
  6
ByBlock
 62
     0
100
AcDbPoint
 10
127.9431592617055
 20
42.98816495157857
 30
0.0
  0
LINE
  5
21E5
330
18
100
AcDbEntity
  8
0
  6
ByBlock
 62
     2
100
AcDbLine
 10
145.4873917518181
 20
46.98816495157856
 30
0.0
 11
126.6931592617055
 21
46.98816495157856
 31
0.0
  0
LINE
  5
21E6
330
18
100
AcDbEntity
  8
0
  6
ByBlock
 62
     2
100
AcDbLine
 10
127.9431592617055
 20
54.48816495157856
 30
0.0
 11
127.9431592617055
 21
49.48816495157856
 31
0.0
  0
INSERT
  5
21E7
330
18
100
AcDbEntity
  8
0
  6
ByBlock
 62
     2
100
AcDbBlockReference
  2
_OPEN
 10
127.9431592617055
 20
56.98816495157856
 30
0.0
 41
2.5
 42
2.5
 43
2.5
 50
90.0
  0
INSERT
  5
21E8
330
18
100
AcDbEntity
  8
0
  6
ByBlock
 62
     2
100
AcDbBlockReference
  2
_OPEN
 10
127.9431592617055
 20
46.98816495157856
 30
0.0
 41
2.5
 42
2.5
 43
2.5
 50
270.0
  0
MTEXT
  5
21E9
330
18
100
AcDbEntity
  8
0
  6
ByBlock
 62
     6
100
AcDbMText
 10
126.0681592617055
 20
51.98816495157856
 30
0.0
 40
2.5
 41
0.0
 71
     5
 72
     1
  1
\A1;10
  7
STYLE3
 11
0.0000000000000001
 21
1.0
 31
0.0
 73
     1
 44
1.0
  0
POINT
  5
21EA
330
18
100
AcDbEntity
  8
DEFPOINTS
  6
ByBlock
 62
     0
100
AcDbPoint
 10
145.4873917518181
 20
56.98816495157856
 30
0.0
  0
POINT
  5
21EB
330
18
100
AcDbEntity
  8
DEFPOINTS
  6
ByBlock
 62
     0
100
AcDbPoint
 10
145.4873917518181
 20
46.98816495157856
 30
0.0
  0
POINT
  5
21EC
330
18
100
AcDbEntity
  8
DEFPOINTS
  6
ByBlock
 62
     0
100
AcDbPoint
 10
127.9431592617055
 20
46.98816495157856
 30
0.0
  0
LINE
  5
21FB
330
18
100
AcDbEntity
  8
0
  6
ByBlock
 62
     2
100
AcDbLine
 10
146.2373917518181
 20
62.01137071601284
 30
0.0
 11
146.2373917518181
 21
63.26137071601284
 31
0.0
  0
LINE
  5
21FC
330
18
100
AcDbEntity
  8
0
  6
ByBlock
 62
     2
100
AcDbLine
 10
151.2373917518181
 20
62.01137071601284
 30
0.0
 11
151.2373917518181
 21
63.26137071601284
 31
0.0
  0
LINE
  5
21FD
330
18
100
AcDbEntity
  8
0
  6
ByBlock
 62
     2
100
AcDbLine
 10
143.7373917518181
 20
62.01137071601284
 30
0.0
 11
141.2373917518181
 21
62.01137071601284
 31
0.0
  0
LINE
  5
21FE
330
18
100
AcDbEntity
  8
0
  6
ByBlock
 62
     2
100
AcDbLine
 10
153.7373917518181
 20
62.01137071601284
 30
0.0
 11
167.6302488946752
 21
62.01137071601284
 31
0.0
  0
LINE
  5
21FF
330
18
100
AcDbEntity
  8
0
  6
ByBlock
 62
     2
100
AcDbLine
 10
146.2373917518181
 20
62.01137071601284
 30
0.0
 11
151.2373917518181
 21
62.01137071601284
 31
0.0
  0
INSERT
  5
2200
330
18
100
AcDbEntity
  8
0
  6
ByBlock
 62
     2
100
AcDbBlockReference
  2
_OPEN
 10
146.2373917518181
 20
62.01137071601284
 30
0.0
 41
2.5
 42
2.5
 43
2.5
  0
INSERT
  5
2201
330
18
100
AcDbEntity
  8
0
  6
ByBlock
 62
     2
100
AcDbBlockReference
  2
_OPEN
 10
151.2373917518181
 20
62.01137071601284
 30
0.0
 41
2.5
 42
2.5
 43
2.5
 50
180.0
  0
MTEXT
  5
2202
330
18
100
AcDbEntity
  8
0
  6
ByBlock
 62
     6
100
AcDbMText
 10
161.9338203232467
 20
63.88637071601284
 30
0.0
 40
2.5
 41
0.0
 71
     5
 72
     1
  1
\A1;2-φ5
  7
STYLE3
 73
     1
 44
1.0
  0
POINT
  5
2203
330
18
100
AcDbEntity
  8
DEFPOINTS
  6
ByBlock
 62
     0
100
AcDbPoint
 10
146.2373917518181
 20
62.01137071601284
 30
0.0
  0
POINT
  5
2204
330
18
100
AcDbEntity
  8
DEFPOINTS
  6
ByBlock
 62
     0
100
AcDbPoint
 10
151.2373917518181
 20
62.01137071601284
 30
0.0
  0
POINT
  5
2205
330
18
100
AcDbEntity
  8
DEFPOINTS
  6
ByBlock
 62
     0
100
AcDbPoint
 10
151.2373917518181
 20
62.01137071601284
 30
0.0
  0
LINE
  5
2206
330
18
100
AcDbEntity
  8
0
  6
ByBlock
 62
     2
100
AcDbLine
 10
119.6583934200873
 20
116.9881649515785
 30
0.0
 11
121.2609368666095
 21
116.9881649515785
 31
0.0
  0
LINE
  5
2207
330
18
100
AcDbEntity
  8
0
  6
ByBlock
 62
     2
100
AcDbLine
 10
135.2373917518181
 20
91.98816495157855
 30
0.0
 11
118.7609368666095
 21
91.98816495157855
 31
0.0
  0
LINE
  5
2208
330
18
100
AcDbEntity
  8
0
  6
ByBlock
 62
     2
100
AcDbLine
 10
120.0109368666095
 20
114.4881649515785
 30
0.0
 11
120.0109368666095
 21
94.48816495157855
 31
0.0
  0
INSERT
  5
2209
330
18
100
AcDbEntity
  8
0
  6
ByBlock
 62
     2
100
AcDbBlockReference
  2
_OPEN
 10
120.0109368666095
 20
116.9881649515785
 30
0.0
 41
2.5
 42
2.5
 43
2.5
 50
90.0
  0
INSERT
  5
220A
330
18
100
AcDbEntity
  8
0
  6
ByBlock
 62
     2
100
AcDbBlockReference
  2
_OPEN
 10
120.0109368666095
 20
91.98816495157855
 30
0.0
 41
2.5
 42
2.5
 43
2.5
 50
270.0
  0
MTEXT
  5
220B
330
18
100
AcDbEntity
  8
0
  6
ByBlock
 62
     6
100
AcDbMText
 10
118.1359368666095
 20
104.4881649515785
 30
0.0
 40
2.5
 41
0.0
 71
     5
 72
     1
  1
\A1;25
  7
STYLE3
 11
0.0000000000000001
 21
1.0
 31
0.0
 73
     1
 44
1.0
  0
POINT
  5
220C
330
18
100
AcDbEntity
  8
DEFPOINTS
  6
ByBlock
 62
     0
100
AcDbPoint
 10
119.6583934200873
 20
116.9881649515785
 30
0.0
  0
POINT
  5
220D
330
18
100
AcDbEntity
  8
DEFPOINTS
  6
ByBlock
 62
     0
100
AcDbPoint
 10
135.2373917518181
 20
91.98816495157855
 30
0.0
  0
POINT
  5
220E
330
18
100
AcDbEntity
  8
DEFPOINTS
  6
ByBlock
 62
     0
100
AcDbPoint
 10
120.0109368666095
 20
91.98816495157855
 30
0.0
  0
HATCH
  5
220F
330
18
100
AcDbEntity
  8
針
100
AcDbHatch
 10
0.0
 20
0.0
 30
0.0
210
0.0
220
0.0
230
1.0
  2
SOLID
 70
     1
 71
     0
 91
        2
 92
        7
 72
     1
 73
     1
 93
        5
 10
144.4880148486494
 20
106.5843327889948
 42
0.31735696877887
 10
145.4966768126377
 20
105.8149473011683
 42
0.0
 10
145.7712037806208
 20
106.1703737860841
 42
0.0
 10
145.7622968093656
 20
106.1987092879042
 42
-0.4142135623731173
 10
144.8219074996576
 20
106.689288482517
 42
0.0
 97
        0
 92
        7
 72
     1
 73
     1
 93
        4
 10
144.4880148486494
 20
106.5843327889948
 42
0.0
 10
144.8219074996576
 20
106.689288482517
 42
-0.4142135623730728
 10
145.3124866942704
 20
107.629677792225
 42
0.0
 10
145.2075310007482
 20
107.9635704432331
 42
0.4142135623730844
 97
        0
 75
     0
 76
     1
 47
0.0161501285364394
 98
        2
 10
144.8267960850429
 20
106.2679943130983
 10
144.6289449986372
 20
106.9512680833737
450
        0
451
        0
460
0.0
461
0.0
452
        0
462
0.0
453
        0
470

  0
HATCH
  5
2210
330
18
100
AcDbEntity
  8
針
100
AcDbHatch
 10
0.0
 20
0.0
 30
0.0
210
0.0
220
0.0
230
1.0
  2
SOLID
 70
     1
 71
     0
 91
        4
 92
        7
 72
     1
 73
     1
 93
        4
 10
145.723676206052
 20
107.9983052050285
 42
0.0
 10
145.6644038797048
 20
107.6533605843582
 42
-0.4142135623730951
 10
146.2765587961116
 20
106.7871814121779
 42
0.0
 10
146.6215034167819
 20
106.7279090858308
 42
0.4142135623730996
 97
        0
 92
        7
 72
     1
 73
     1
 93
        5
 10
145.6644038797048
 20
107.6533605843582
 42
0.0
 10
145.723676206052
 20
107.9983052050285
 42
0.3173569687788799
 10
144.5783148629645
 20
107.4528692507357
 42
0.0
 10
144.7689512901631
 20
107.0462357610248
 42
0.0
 10
144.7982247075244
 20
107.0412056679515
 42
-0.4142135623730839
 97
        0
 92
        7
 72
     1
 73
     1
 93
        4
 10
146.6215034167819
 20
106.7279090858308
 42
0.0
 10
146.2765587961116
 20
106.7871814121779
 42
-0.4142135623730951
 10
145.4103796239312
 20
106.175026495771
 42
0.0
 10
145.3511072975841
 20
105.8300818751007
 42
0.4142135623730996
 97
        0
 92
        7
 72
     1
 73
     1
 93
        4
 10
145.4103796239312
 20
106.175026495771
 42
-0.1036385141593389
 10
145.1243377734263
 20
106.2881852246768
 42
0.0
 10
145.3380108338928
 20
105.8324138723101
 42
0.003023315109616
 10
145.3511072975841
 20
105.8300818751007
 42
0.0
 97
        0
 75
     0
 76
     1
 47
0.0223982890607777
 98
        4
 10
146.3999401580227
 20
107.3995481479989
 10
145.2777109918716
 20
107.7514681829419
 10
146.3990648455384
 20
106.4679101880431
 10
145.3359836984299
 20
106.1051433956474
450
        0
451
        0
460
0.0
461
0.0
452
        0
462
0.0
453
        0
470

  0
CIRCLE
  5
2211
330
18
100
AcDbEntity
  8
針
100
AcDbCircle
 10
145.537391751818
 20
106.9141935400646
 30
0.0
 40
1.1
  0
CIRCLE
  5
2212
330
18
100
AcDbEntity
  8
針
100
AcDbCircle
 10
145.537391751818
 20
106.9141935400646
 30
0.0
 40
0.75
  0
HATCH
  5
2213
330
18
100
AcDbEntity
  8
針
100
AcDbHatch
 10
0.0
 20
0.0
 30
0.0
210
0.0
220
0.0
230
1.0
  2
SOLID
 70
     1
 71
     0
 91
        1
 92
        7
 72
     1
 73
     1
 93
        7
 10
150.2340917905902
 20
106.7116873776941
 42
0.0
 10
150.2362732790936
 20
106.8116635804022
 42
0.0
 10
150.2384547675971
 20
106.9116397831102
 42
0.0
 10
146.9975754418713
 20
107.0272750687167
 42
-0.2935495917910092
 10
146.5535253144187
 20
107.3354684894218
 42
-0.2104432563350663
 10
146.5341827392719
 20
106.4489971005568
 42
-0.2935491884945053
 10
146.9912531235464
 20
106.73752732197
 42
0.0
 97
        0
 75
     0
 76
     1
 47
0.0140573597042523
 98
        1
 10
148.4299845805168
 20
106.7924612751748
450
        0
451
        0
460
0.0
461
0.0
452
        0
462
0.0
453
        0
470

  0
LINE
  5
2214
330
18
100
AcDbEntity
  8
針
100
AcDbLine
 10
146.9912531235465
 20
106.73752732197
 30
0.0
 11
150.2340917905901
 21
106.7116873776942
 31
0.0
  0
LINE
  5
2215
330
18
100
AcDbEntity
  8
針
100
AcDbLine
 10
146.9975754418713
 20
107.0272750687167
 30
0.0
 11
150.238454767597
 21
106.9116397831102
 31
0.0
  0
CIRCLE
  5
2216
330
18
100
AcDbEntity
  8
針
 62
     4
100
AcDbCircle
 10
145.537391751818
 20
106.9141935400646
 30
0.0
 40
0.4
  0
ARC
  5
2217
330
18
100
AcDbEntity
  8
針
100
AcDbCircle
 10
146.9872690949486
 20
106.2375431947059
 30
0.0
 40
0.5
100
AcDbArc
 50
89.54345912073472
 51
154.9817787024804
  0
ARC
  5
2218
330
18
100
AcDbEntity
  8
針
100
AcDbCircle
 10
147.0154042065096
 20
107.5269571027658
 30
0.0
 40
0.5
100
AcDbArc
 50
202.5182212975196
 51
267.9565408792653
  0
LINE
  5
2219
330
18
100
AcDbEntity
  8
文字
100
AcDbLine
 10
150.2340917905901
 20
106.7116873776942
 30
0.0
 11
150.238454767597
 21
106.9116397831102
 31
0.0
  0
LINE
  5
221A
330
18
100
AcDbEntity
  8
0
  6
ByBlock
 62
     2
100
AcDbLine
 10
135.2373917518181
 20
73.98816495157856
 30
0.0
 11
118.7609368666095
 21
73.98816495157858
 31
0.0
  0
LINE
  5
221B
330
18
100
AcDbEntity
  8
0
  6
ByBlock
 62
     2
100
AcDbLine
 10
120.0109368666095
 20
89.48816495157855
 30
0.0
 11
120.0109368666095
 21
76.48816495157858
 31
0.0
  0
INSERT
  5
221C
330
18
100
AcDbEntity
  8
0
  6
ByBlock
 62
     2
100
AcDbBlockReference
  2
_OPEN
 10
120.0109368666095
 20
91.98816495157855
 30
0.0
 41
2.5
 42
2.5
 43
2.5
 50
90.0
  0
INSERT
  5
221D
330
18
100
AcDbEntity
  8
0
  6
ByBlock
 62
     2
100
AcDbBlockReference
  2
_OPEN
 10
120.0109368666095
 20
73.98816495157858
 30
0.0
 41
2.5
 42
2.5
 43
2.5
 50
270.0
  0
MTEXT
  5
221E
330
18
100
AcDbEntity
  8
0
  6
ByBlock
 62
     6
100
AcDbMText
 10
118.1359368666095
 20
82.98816495157856
 30
0.0
 40
2.5
 41
0.0
 71
     5
 72
     1
  1
\A1;18
  7
STYLE3
 11
0.0000000000000001
 21
1.0
 31
0.0
 73
     1
 44
1.0
  0
POINT
  5
221F
330
18
100
AcDbEntity
  8
DEFPOINTS
  6
ByBlock
 62
     0
100
AcDbPoint
 10
135.2373917518181
 20
91.98816495157855
 30
0.0
  0
POINT
  5
2220
330
18
100
AcDbEntity
  8
DEFPOINTS
  6
ByBlock
 62
     0
100
AcDbPoint
 10
135.2373917518181
 20
73.98816495157856
 30
0.0
  0
POINT
  5
2221
330
18
100
AcDbEntity
  8
DEFPOINTS
  6
ByBlock
 62
     0
100
AcDbPoint
 10
120.0109368666095
 20
73.98816495157858
 30
0.0
  0
LINE
  5
2222
330
18
100
AcDbEntity
  8
外形線
100
AcDbLine
 10
144.2373917518181
 20
84.14286548995777
 30
0.0
 11
142.2373917518181
 21
85.29756602833703
 31
0.0
  0
LINE
  5
2223
330
18
100
AcDbEntity
  8
外形線
100
AcDbLine
 10
142.2373917518181
 20
85.29756602833703
 30
0.0
 11
140.2373917518181
 21
84.14286548995777
 31
0.0
  0
LINE
  5
2224
330
18
100
AcDbEntity
  8
外形線
100
AcDbLine
 10
140.2373917518181
 20
84.14286548995777
 30
0.0
 11
140.2373917518181
 21
81.83346441319928
 31
0.0
  0
LINE
  5
2225
330
18
100
AcDbEntity
  8
外形線
100
AcDbLine
 10
140.2373917518181
 20
81.83346441319928
 30
0.0
 11
142.2373917518181
 21
80.67876387482002
 31
0.0
  0
LINE
  5
2226
330
18
100
AcDbEntity
  8
外形線
100
AcDbLine
 10
142.2373917518181
 20
80.67876387482002
 30
0.0
 11
144.2373917518181
 21
81.83346441319926
 31
0.0
  0
LINE
  5
2227
330
18
100
AcDbEntity
  8
外形線
100
AcDbLine
 10
144.2373917518181
 20
81.83346441319926
 30
0.0
 11
144.2373917518181
 21
84.14286548995777
 31
0.0
  0
LINE
  5
2228
330
18
100
AcDbEntity
  8
ﾊｯﾁﾝｸ
  6
Continuous
100
AcDbLine
 10
144.7373917518182
 20
150.7546587478763
 30
0.0
 11
144.9708979555203
 21
150.9881649515784
 31
0.0
  0
LINE
  5
2229
330
18
100
AcDbEntity
  8
ﾊｯﾁﾝｸ
  6
Continuous
100
AcDbLine
 10
144.7373917518182
 20
148.9868917949099
 30
0.0
 11
146.7386649084867
 21
150.9881649515784
 31
0.0
  0
LINE
  5
222A
330
18
100
AcDbEntity
  8
ﾊｯﾁﾝｸ
  6
Continuous
100
AcDbLine
 10
144.7373917518182
 20
147.2191248419435
 30
0.0
 11
148.5064318614531
 21
150.9881649515784
 31
0.0
  0
LINE
  5
222B
330
18
100
AcDbEntity
  8
ﾊｯﾁﾝｸ
  6
Continuous
100
AcDbLine
 10
144.7373917518182
 20
145.4513578889772
 30
0.0
 11
148.7373917518183
 21
149.4513578889772
 31
0.0
  0
LINE
  5
222C
330
18
100
AcDbEntity
  8
ﾊｯﾁﾝｸ
  6
Continuous
100
AcDbLine
 10
146.0419657673858
 20
144.9881649515784
 30
0.0
 11
148.7373917518182
 21
147.6835909360108
 31
0.0
  0
LINE
  5
222D
330
18
100
AcDbEntity
  8
ﾊｯﾁﾝｸ
  6
Continuous
100
AcDbLine
 10
147.8097327203522
 20
144.9881649515784
 30
0.0
 11
148.7373917518182
 21
145.9158239830444
 31
0.0
  0
LINE
  5
222E
330
18
100
AcDbEntity
  8
ﾊｯﾁﾝｸ
  6
Continuous
100
AcDbLine
 10
144.7889373981371
 20
144.9881649515784
 30
0.0
 11
144.7373917518182
 21
145.0397105978973
 31
0.0
  0
LINE
  5
222F
330
18
100
AcDbEntity
  8
ﾊｯﾁﾝｸ
  6
Continuous
100
AcDbLine
 10
146.5567043511035
 20
144.9881649515784
 30
0.0
 11
144.7373917518182
 21
146.8074775508637
 31
0.0
  0
LINE
  5
2230
330
18
100
AcDbEntity
  8
ﾊｯﾁﾝｸ
  6
Continuous
100
AcDbLine
 10
148.3244713040698
 20
144.9881649515784
 30
0.0
 11
144.7373917518182
 21
148.5752445038301
 31
0.0
  0
LINE
  5
2231
330
18
100
AcDbEntity
  8
ﾊｯﾁﾝｸ
  6
Continuous
100
AcDbLine
 10
148.7373917518182
 20
146.3430114567965
 30
0.0
 11
144.7373917518182
 21
150.3430114567965
 31
0.0
  0
LINE
  5
2232
330
18
100
AcDbEntity
  8
ﾊｯﾁﾝｸ
  6
Continuous
100
AcDbLine
 10
148.7373917518182
 20
148.1107784097628
 30
0.0
 11
145.8600052100026
 21
150.9881649515784
 31
0.0
  0
LINE
  5
2233
330
18
100
AcDbEntity
  8
ﾊｯﾁﾝｸ
  6
Continuous
100
AcDbLine
 10
148.7373917518182
 20
149.8785453627292
 30
0.0
 11
147.627772162969
 21
150.9881649515784
 31
0.0
  0
LINE
  5
2234
330
18
100
AcDbEntity
  8
外形線
100
AcDbLine
 10
168.4903558383832
 20
134.5033129610836
 30
0.0
 11
171.3282160288855
 21
141.9763118469133
 31
0.0
  0
LINE
  5
2235
330
18
100
AcDbEntity
  8
外形線
100
AcDbLine
 10
165.1924683055813
 20
137.6325456787835
 30
0.0
 11
169.9469201643267
 21
142.8334386803995
 31
0.0
  0
LINE
  5
2236
330
18
100
AcDbEntity
  8
外形線
100
AcDbLine
 10
169.0137420680767
 20
141.350292585841
 30
0.0
 11
184.1415770820052
 21
145.4420716498549
 31
0.0
  0
LINE
  5
2237
330
18
100
AcDbEntity
  8
外形線
100
AcDbLine
 10
170.9008740500535
 20
143.4146255120723
 30
0.0
 11
183.7499303417856
 21
146.8900401684614
 31
0.0
  0
ARC
  5
2238
330
18
100
AcDbEntity
  8
外形線
100
AcDbCircle
 10
169.5359377217028
 20
139.4196678943658
 30
0.0
 40
2.0
100
AcDbArc
 50
105.1352132696442
 51
137.5676726996862
  0
ARC
  5
2239
330
18
100
AcDbEntity
  8
外形線
100
AcDbCircle
 10
172.8356125740328
 20
140.312164439072
 30
0.0
 40
2.0
100
AcDbArc
 50
105.1352132696444
 51
159.2058012025932
  0
ARC
  5
223A
330
18
100
AcDbEntity
  8
外形線
100
AcDbCircle
 10
171.4230697036796
 20
141.484000820597
 30
0.0
 40
2.0
100
AcDbArc
 50
105.1352132696441
 51
137.5676726996855
  0
LINE
  5
223B
330
18
100
AcDbEntity
  8
外形線
100
AcDbLine
 10
183.7499303417856
 20
146.8900401684614
 30
0.0
 11
184.1415770820052
 21
145.4420716498549
 31
0.0
  0
LINE
  5
223C
330
18
100
AcDbEntity
  8
0
  6
ByBlock
 62
     2
100
AcDbLine
 10
43.20997875262366
 20
166.1674267838798
 30
0.0
 11
43.20997875262366
 21
172.3323838831311
 31
0.0
  0
LINE
  5
223D
330
18
100
AcDbEntity
  8
0
  6
ByBlock
 62
     2
100
AcDbLine
 10
65.30997875262383
 20
166.1674267838798
 30
0.0
 11
65.30997875262383
 21
172.3323838831311
 31
0.0
  0
LINE
  5
223E
330
18
100
AcDbEntity
  8
0
  6
ByBlock
 62
     2
100
AcDbLine
 10
45.70997875262366
 20
171.0823838831311
 30
0.0
 11
62.80997875262383
 21
171.0823838831311
 31
0.0
  0
INSERT
  5
223F
330
18
100
AcDbEntity
  8
0
  6
ByBlock
 62
     2
100
AcDbBlockReference
  2
_OPEN
 10
43.20997875262366
 20
171.0823838831311
 30
0.0
 41
2.5
 42
2.5
 43
2.5
 50
180.0
  0
INSERT
  5
2240
330
18
100
AcDbEntity
  8
0
  6
ByBlock
 62
     2
100
AcDbBlockReference
  2
_OPEN
 10
65.30997875262383
 20
171.0823838831311
 30
0.0
 41
2.5
 42
2.5
 43
2.5
  0
MTEXT
  5
2241
330
18
100
AcDbEntity
  8
0
  6
ByBlock
 62
     6
100
AcDbMText
 10
54.25997875262375
 20
172.9573838831311
 30
0.0
 40
2.5
 41
0.0
 71
     5
 72
     1
  1
\A1;22.1
  7
STYLE3
 73
     1
 44
1.0
  0
POINT
  5
2242
330
18
100
AcDbEntity
  8
DEFPOINTS
  6
ByBlock
 62
     0
100
AcDbPoint
 10
43.20997875262366
 20
166.1674267838798
 30
0.0
  0
POINT
  5
2243
330
18
100
AcDbEntity
  8
DEFPOINTS
  6
ByBlock
 62
     0
100
AcDbPoint
 10
65.30997875262383
 20
166.1674267838798
 30
0.0
  0
POINT
  5
2244
330
18
100
AcDbEntity
  8
DEFPOINTS
  6
ByBlock
 62
     0
100
AcDbPoint
 10
65.30997875262383
 20
171.0823838831311
 30
0.0
  0
LINE
  5
2245
330
18
100
AcDbEntity
  8
0
  6
ByBlock
 62
     2
100
AcDbLine
 10
122.3373917518181
 20
166.1674267838798
 30
0.0
 11
122.3373917518181
 21
172.3323838831311
 31
0.0
  0
LINE
  5
2246
330
18
100
AcDbEntity
  8
0
  6
ByBlock
 62
     2
100
AcDbLine
 10
207.2373917518181
 20
166.1674267838798
 30
0.0
 11
207.2373917518181
 21
172.3323838831311
 31
0.0
  0
LINE
  5
2247
330
18
100
AcDbEntity
  8
0
  6
ByBlock
 62
     2
100
AcDbLine
 10
124.8373917518181
 20
171.0823838831311
 30
0.0
 11
204.7373917518181
 21
171.0823838831311
 31
0.0
  0
INSERT
  5
2248
330
18
100
AcDbEntity
  8
0
  6
ByBlock
 62
     2
100
AcDbBlockReference
  2
_OPEN
 10
122.3373917518181
 20
171.0823838831311
 30
0.0
 41
2.5
 42
2.5
 43
2.5
 50
180.0
  0
INSERT
  5
2249
330
18
100
AcDbEntity
  8
0
  6
ByBlock
 62
     2
100
AcDbBlockReference
  2
_OPEN
 10
207.2373917518181
 20
171.0823838831311
 30
0.0
 41
2.5
 42
2.5
 43
2.5
  0
MTEXT
  5
224A
330
18
100
AcDbEntity
  8
0
  6
ByBlock
 62
     6
100
AcDbMText
 10
164.7873917518181
 20
172.9573838831311
 30
0.0
 40
2.5
 41
0.0
 71
     5
 72
     1
  1
\A1;85
  7
STYLE3
 73
     1
 44
1.0
  0
POINT
  5
224B
330
18
100
AcDbEntity
  8
DEFPOINTS
  6
ByBlock
 62
     0
100
AcDbPoint
 10
122.3373917518181
 20
166.1674267838798
 30
0.0
  0
POINT
  5
224C
330
18
100
AcDbEntity
  8
DEFPOINTS
  6
ByBlock
 62
     0
100
AcDbPoint
 10
207.2373917518181
 20
166.1674267838798
 30
0.0
  0
POINT
  5
224D
330
18
100
AcDbEntity
  8
DEFPOINTS
  6
ByBlock
 62
     0
100
AcDbPoint
 10
207.2373917518181
 20
171.0823838831311
 30
0.0
  0
TEXT
  5
2376
330
18
100
AcDbEntity
  8
文字
100
AcDbText
 10
68.37759099429051
 20
186.7973092646476
 30
0.0
 40
4.0
  1
Model No.G-6C Dial Thickness Gauge
  7
STYLE3
100
AcDbText
  0
LINE
  5
2377
330
18
100
AcDbEntity
  8
外形線
100
AcDbLine
 10
67.72830499429052
 20
184.2808372646475
 30
0.0
 11
179.7283049942905
 21
184.2808372646475
 31
0.0
  0
LINE
  5
2378
330
18
100
AcDbEntity
  8
外形線
100
AcDbLine
 10
67.72830499429052
 20
185.2808372646475
 30
0.0
 11
179.7283049942905
 21
185.2808372646475
 31
0.0
  0
LINE
  5
237B
330
18
100
AcDbEntity
  8
外形線
100
AcDbLine
 10
113.8442999942905
 20
20.80493326464757
 30
0.0
 11
254.6357179942905
 21
20.80493326464757
 31
0.0
  0
LINE
  5
237C
330
18
100
AcDbEntity
  8
外形線
100
AcDbLine
 10
113.8442999942905
 20
10.02472726464757
 30
0.0
 11
254.6357179942905
 21
10.02472726464757
 31
0.0
  0
TEXT
  5
237D
330
18
100
AcDbEntity
  8
0
  6
Continuous
100
AcDbText
 10
115.3017669942905
 20
11.92271726464757
 30
0.0
 40
2.1
  1
Design and specifications are subject to change without notice for future improvement.
  7
STYLE3
100
AcDbText
  0
TEXT
  5
237E
330
18
100
AcDbEntity
  8
0
  6
Continuous
100
AcDbText
 10
115.5932609942905
 20
15.85186526464757
 30
0.0
 40
3.5
  1
仕様及び外観は予告なく変更される場合がございますのでご了承下さい。
  7
STYLE3
100
AcDbText
  0
TEXT
  5
237F
330
18
100
AcDbEntity
  8
0
  6
Continuous
100
AcDbText
 10
115.0102759942905
 20
2.15808926464757
 30
0.0
 40
2.1
  1
3RD Angle Projection
  7
STYLE3
100
AcDbText
  0
TEXT
  5
2380
330
18
100
AcDbEntity
  8
0
  6
Continuous
100
AcDbText
 10
117.6337189942905
 20
5.65437226464757
 30
0.0
 40
3.0
  1
三　　角　　法
  7
STYLE3
100
AcDbText
  0
LINE
  5
2381
330
18
100
AcDbEntity
  8
外形線
100
AcDbLine
 10
113.8442999942905
 20
0.4099492646475699
 30
0.0
 11
113.8442999942905
 21
20.80493326464757
 31
0.0
  0
LINE
  5
2382
330
18
100
AcDbEntity
  8
外形線
100
AcDbLine
 10
215.8670669942905
 20
10.02472726464757
 30
0.0
 11
215.8670669942905
 21
0.4099492646475699
 31
0.0
  0
LINE
  5
2383
330
18
100
AcDbEntity
  8
外形線
100
AcDbLine
 10
186.1347169942905
 20
10.02472726464757
 30
0.0
 11
186.1347169942905
 21
0.4099492646475699
 31
0.0
  0
LINE
  5
2384
330
18
100
AcDbEntity
  8
外形線
100
AcDbLine
 10
166.6046449942905
 20
10.02472726464757
 30
0.0
 11
166.6046449942905
 21
0.4099492646475699
 31
0.0
  0
LINE
  5
2385
330
18
100
AcDbEntity
  8
外形線
100
AcDbLine
 10
149.1150279942905
 20
10.02472726464757
 30
0.0
 11
149.1150279942905
 21
0.4099492646475699
 31
0.0
  0
TEXT
  5
2386
330
18
100
AcDbEntity
  8
0
  6
Continuous
100
AcDbText
 10
150.5724969942905
 20
5.660327264647569
 30
0.0
 40
3.0
  1
単位
  7
STYLE3
100
AcDbText
  0
TEXT
  5
2387
330
18
100
AcDbEntity
  8
0
  6
Continuous
100
AcDbText
 10
150.7442179942905
 20
2.158090264647569
 30
0.0
 40
2.1
  1
Unit
  7
STYLE3
100
AcDbText
  0
TEXT
  5
2388
330
18
100
AcDbEntity
  8
0
  6
Continuous
100
AcDbText
 10
167.8903929942905
 20
5.368969264647569
 30
0.0
 40
3.0
  1
尺 度
  7
STYLE3
100
AcDbText
  0
TEXT
  5
2389
330
18
100
AcDbEntity
  8
0
  6
Continuous
100
AcDbText
 10
158.6145449942905
 20
3.906233264647569
 30
0.0
 40
2.399999999999999
  1
mm
  7
STYLE3
100
AcDbText
  0
TEXT
  5
238A
330
18
100
AcDbEntity
  8
0
  6
Continuous
100
AcDbText
 10
168.3536079942905
 20
2.449447264647569
 30
0.0
 40
2.1
  1
Scale
  7
STYLE3
100
AcDbText
  0
TEXT
  5
238B
330
18
100
AcDbEntity
  8
0
  6
Continuous
100
AcDbText
 10
177.9728969942905
 20
4.19759026464757
 30
0.0
 40
2.399999999999999
  1
1/1
  7
STYLE3
100
AcDbText
  0
TEXT
  5
238C
330
18
100
AcDbEntity
  8
0
  6
Continuous
100
AcDbText
 10
188.0666679942905
 20
2.158091264647569
 30
0.0
 40
2.1
  1
Date
  7
STYLE3
100
AcDbText
  0
TEXT
  5
238D
330
18
100
AcDbEntity
  8
0
  6
Continuous
100
AcDbText
 10
187.6833069942905
 20
5.491174264647569
 30
0.0
 40
3.0
  1
日 付
  7
STYLE3
100
AcDbText
  0
TEXT
  5
238E
330
18
100
AcDbEntity
  8
0
  6
Continuous
100
AcDbText
 10
196.8114759942905
 20
3.906232264647569
 30
0.0
 40
2.1
  1
2010.06.10
  7
STYLE3
100
AcDbText
  0
TEXT
  5
238F
330
18
100
AcDbEntity
  8
0
  6
Continuous
100
AcDbText
 10
217.2160299942905
 20
5.945729264647569
 30
0.0
 40
3.0
  1
株式会社　尾崎製作所
  7
STYLE3
100
AcDbText
  0
TEXT
  5
2390
330
18
100
AcDbEntity
  8
0
  6
Continuous
100
AcDbText
 10
218.0905089942905
 20
2.158090264647569
 30
0.0
 40
2.1
  1
OZAKI MFG. CO., LTD.
  7
STYLE3
100
AcDbText
  0
VIEWPORT
  5
177
330
15
100
AcDbEntity
 67
     1
  8
0
100
AcDbViewport
 10
127.5041203589828
 20
97.49391214526822
 30
0.0
 40
418.3086347473814
 41
243.0346063651093
 68
     1
 69
     1
 12
127.5041203589828
 22
97.49391214526822
 13
0.0
 23
0.0
 14
10.0
 24
10.0
 15
10.0
 25
10.0
 16
0.0
 26
0.0
 36
1.0
 17
0.0
 27
0.0
 37
0.0
 42
50.0
 43
0.0
 44
0.0
 45
243.0346063651093
 50
0.0
 51
0.0
 72
   100
 90
    32800
  1

281
     0
 71
     1
 74
     0
110
0.0
120
0.0
130
0.0
111
1.0
121
0.0
131
0.0
112
0.0
122
1.0
132
0.0
 79
     0
146
0.0
170
     0
  0
ENDSEC
  0
SECTION
  2
OBJECTS
  0
DICTIONARY
  5
C
330
0
100
AcDbDictionary
281
     1
  3
ACAD_COLOR
350
2330
  3
ACAD_GROUP
350
D
  3
ACAD_LAYOUT
350
2333
  3
ACAD_MATERIAL
350
232F
  3
ACAD_MLINESTYLE
350
1B
  3
ACAD_PLOTSETTINGS
350
2334
  3
ACAD_PLOTSTYLENAME
350
232D
  3
ACAD_TABLESTYLE
350
2331
  3
AcDbVariableDictionary
350
2344
  0
DICTIONARY
  5
2330
102
{ACAD_REACTORS
330
C
102
}
330
C
100
AcDbDictionary
281
     1
  0
DICTIONARY
  5
D
102
{ACAD_REACTORS
330
C
102
}
330
C
100
AcDbDictionary
281
     1
  0
DICTIONARY
  5
2333
102
{ACAD_REACTORS
330
C
102
}
330
C
100
AcDbDictionary
281
     1
  3
Model
350
2335
  3
レイアウト1
350
2336
  0
DICTIONARY
  5
232F
102
{ACAD_REACTORS
330
C
102
}
330
C
100
AcDbDictionary
281
     1
  0
DICTIONARY
  5
1B
102
{ACAD_REACTORS
330
C
102
}
330
C
100
AcDbDictionary
281
     1
  3
STANDARD
350
1C
  0
DICTIONARY
  5
2334
102
{ACAD_REACTORS
330
C
102
}
330
C
100
AcDbDictionary
281
     1
  0
ACDBDICTIONARYWDFLT
  5
232D
102
{ACAD_REACTORS
330
C
102
}
330
C
100
AcDbDictionary
281
     1
  3
Normal
350
232E
100
AcDbDictionaryWithDefault
340
232E
  0
DICTIONARY
  5
2331
102
{ACAD_REACTORS
330
C
102
}
330
C
100
AcDbDictionary
281
     1
  3
Standard
350
2332
  0
DICTIONARY
  5
2344
102
{ACAD_REACTORS
330
C
102
}
330
C
100
AcDbDictionary
281
     1
  3
CTABLESTYLE
350
2345
  0
LAYOUT
  5
2335
102
{ACAD_REACTORS
330
2333
102
}
330
2333
100
AcDbPlotSettings
  1

  2
Mytalk FAX
  4

  6

 40
0.0
 41
0.0
 42
0.0
 43
0.0
 44
0.0
 45
0.0
 46
0.0
 47
0.0
 48
0.0
 49
0.0
140
0.0
141
0.0
142
1.0
143
1.0
 70
  1712
 72
     0
 73
     0
 74
     0
  7
AutoCAD LT 98.ctb
 75
     0
147
1.0
 76
     0
 77
     2
 78
   300
148
0.0
149
0.0
100
AcDbLayout
  1
Model
 70
     1
 71
     0
 10
0.0
 20
0.0
 11
12.0
 21
9.0
 12
0.0
 22
0.0
 32
0.0
 14
0.0
 24
0.0
 34
0.0
 15
0.0
 25
0.0
 35
0.0
146
0.0
 13
0.0
 23
0.0
 33
0.0
 16
1.0
 26
0.0
 36
0.0
 17
0.0
 27
1.0
 37
0.0
 76
     0
330
18
  0
LAYOUT
  5
2336
102
{ACAD_REACTORS
330
2333
102
}
330
2333
100
AcDbPlotSettings
  1

  2
Mytalk FAX
  4

  6

 40
0.0
 41
0.0
 42
0.0
 43
0.0
 44
0.0
 45
0.0
 46
0.0
 47
0.0
 48
0.0
 49
0.0
140
0.0
141
0.0
142
1.0
143
1.0
 70
   688
 72
     0
 73
     0
 74
     5
  7
AutoCAD LT 98.ctb
 75
    16
147
1.0
 76
     0
 77
     2
 78
   300
148
0.0
149
0.0
100
AcDbLayout
  1
レイアウト1
 70
     1
 71
     1
 10
0.0
 20
0.0
 11
420.0
 21
297.0
 12
0.0
 22
0.0
 32
0.0
 14
-0.2
 24
-0.2
 34
0.0
 15
255.2
 25
195.2
 35
0.0
146
0.0
 13
0.0
 23
0.0
 33
0.0
 16
1.0
 26
0.0
 36
0.0
 17
0.0
 27
1.0
 37
0.0
 76
     0
330
15
331
177
  0
MLINESTYLE
  5
1C
102
{ACAD_REACTORS
330
1B
102
}
330
1B
100
AcDbMlineStyle
  2
STANDARD
 70
     0
  3

 62
   256
 51
90.0
 52
90.0
 71
     2
 49
0.5
 62
   256
  6
BYLAYER
 49
-0.5
 62
   256
  6
BYLAYER
  0
ACDBPLACEHOLDER
  5
232E
102
{ACAD_REACTORS
330
232D
102
}
330
232D
  0
ACAD_PROXY_OBJECT
  5
2332
102
{ACAD_REACTORS
330
2331
102
}
330
2331
100
AcDbProxyObject
 90
      499
 91
      503
 95
  2555929
 70
     0
 93
     1849
310
4214DD185B99185C992420000000000000F83F0000000000003E0FC00000000000004901028000000C1008070000C3001FDFF8000000C1003FBFF000000182007F7FE00000030400FEFFC00000060801FDFF8000000C1003FBFF000000182000000000000000C2020B0000001820100E000186003FBFF000000182007F7FE0
310
0000030400FEFFC00000060801FDFF8000000C1003FBFF000000182007F7FE0000003040000000000000012404160000003040201C00030C007F7FE00000030400FEFFC00000060801FDFF8000000C1003FBFF000000182007F7FE00000030400FEFFC000000608000
340
F
340
F
340
F
 94
        0
  0
DICTIONARYVAR
  5
2345
102
{ACAD_REACTORS
330
2344
102
}
330
2344
100
DictionaryVariables
280
     0
  1
STANDARD
  0
ENDSEC
  0
EOF
