  0
SECTION
  2
HEADER
  9
$ACADVER
  1
AC1018
  9
$ACADMAINTVER
 70
     0
  9
$DWGCODEPAGE
  3
ANSI_932
  9
$INSBASE
 10
0.0
 20
0.0
 30
0.0
  9
$EXTMIN
 10
236.4583261120649
 20
171.6287515666504
 30
-0.000000001396689
  9
$EXTMAX
 10
491.9215858715545
 20
367.0725802714662
 30
0.0000000044238995
  9
$LIMMIN
 10
0.0
 20
0.0
  9
$LIMMAX
 10
420.0
 20
297.0
  9
$ORTHOMODE
 70
     0
  9
$REGENMODE
 70
     1
  9
$FILLMODE
 70
     1
  9
$QTEXTMODE
 70
     0
  9
$MIRRTEXT
 70
     1
  9
$LTSCALE
 40
1.0
  9
$ATTMODE
 70
     1
  9
$TEXTSIZE
 40
2.5
  9
$TRACEWID
 40
1.0
  9
$TEXTSTYLE
  7
STYLE3
  9
$CLAYER
  8
文字
  9
$CELTYPE
  6
BYLAYER
  9
$CECOLOR
 62
   256
  9
$CELTSCALE
 40
1.0
  9
$DISPSILH
 70
     0
  9
$DIMSCALE
 40
1.0
  9
$DIMASZ
 40
2.5
  9
$DIMEXO
 40
0.0
  9
$DIMDLI
 40
3.75
  9
$DIMRND
 40
0.0
  9
$DIMDLE
 40
0.0
  9
$DIMEXE
 40
1.25
  9
$DIMTP
 40
0.0
  9
$DIMTM
 40
0.0
  9
$DIMTXT
 40
2.5
  9
$DIMCEN
 40
2.5
  9
$DIMTSZ
 40
0.0
  9
$DIMTOL
 70
     0
  9
$DIMLIM
 70
     0
  9
$DIMTIH
 70
     0
  9
$DIMTOH
 70
     0
  9
$DIMSE1
 70
     0
  9
$DIMSE2
 70
     0
  9
$DIMTAD
 70
     1
  9
$DIMZIN
 70
     8
  9
$DIMBLK
  1

  9
$DIMASO
 70
     1
  9
$DIMSHO
 70
     1
  9
$DIMPOST
  1

  9
$DIMAPOST
  1

  9
$DIMALT
 70
     0
  9
$DIMALTD
 70
     4
  9
$DIMALTF
 40
0.0394
  9
$DIMLFAC
 40
1.0
  9
$DIMTOFL
 70
     1
  9
$DIMTVP
 40
0.0
  9
$DIMTIX
 70
     0
  9
$DIMSOXD
 70
     0
  9
$DIMSAH
 70
     1
  9
$DIMBLK1
  1
OPEN
  9
$DIMBLK2
  1
OPEN
  9
$DIMSTYLE
  2
STYLE3
  9
$DIMCLRD
 70
     2
  9
$DIMCLRE
 70
     2
  9
$DIMCLRT
 70
     6
  9
$DIMTFAC
 40
1.0
  9
$DIMGAP
 40
0.625
  9
$DIMJUST
 70
     0
  9
$DIMSD1
 70
     0
  9
$DIMSD2
 70
     0
  9
$DIMTOLJ
 70
     1
  9
$DIMTZIN
 70
     0
  9
$DIMALTZ
 70
     0
  9
$DIMALTTZ
 70
     0
  9
$DIMUPT
 70
     0
  9
$DIMDEC
 70
     2
  9
$DIMTDEC
 70
     4
  9
$DIMALTU
 70
     8
  9
$DIMALTTD
 70
     4
  9
$DIMTXSTY
  7
STYLE3
  9
$DIMAUNIT
 70
     0
  9
$DIMADEC
 70
     0
  9
$DIMALTRND
 40
0.0
  9
$DIMAZIN
 70
     0
  9
$DIMDSEP
 70
    46
  9
$DIMATFIT
 70
     3
  9
$DIMFRAC
 70
     0
  9
$DIMLDRBLK
  1

  9
$DIMLUNIT
 70
     2
  9
$DIMLWD
 70
    -2
  9
$DIMLWE
 70
    -2
  9
$DIMTMOVE
 70
     0
  9
$LUNITS
 70
     2
  9
$LUPREC
 70
     4
  9
$SKETCHINC
 40
1.0
  9
$FILLETRAD
 40
0.0
  9
$AUNITS
 70
     0
  9
$AUPREC
 70
     0
  9
$MENU
  1
.
  9
$ELEVATION
 40
0.0
  9
$PELEVATION
 40
0.0
  9
$THICKNESS
 40
0.0
  9
$LIMCHECK
 70
     0
  9
$CHAMFERA
 40
0.35
  9
$CHAMFERB
 40
0.35
  9
$CHAMFERC
 40
20.0
  9
$CHAMFERD
 40
0.0
  9
$SKPOLY
 70
     0
  9
$TDCREATE
 40
2451066.662483449
  9
$TDUCREATE
 40
2451066.287483449
  9
$TDUPDATE
 40
2455363.369965811
  9
$TDUUPDATE
 40
2455362.994965811
  9
$TDINDWG
 40
0.6124593056
  9
$TDUSRTIMER
 40
0.6124593056
  9
$USRTIMER
 70
     1
  9
$ANGBASE
 50
0.0
  9
$ANGDIR
 70
     0
  9
$PDMODE
 70
     0
  9
$PDSIZE
 40
0.0
  9
$PLINEWID
 40
0.0
  9
$SPLFRAME
 70
     0
  9
$SPLINETYPE
 70
     6
  9
$SPLINESEGS
 70
     8
  9
$HANDSEED
  5
2342
  9
$SURFTAB1
 70
     6
  9
$SURFTAB2
 70
     6
  9
$SURFTYPE
 70
     6
  9
$SURFU
 70
     6
  9
$SURFV
 70
     6
  9
$UCSBASE
  2

  9
$UCSNAME
  2

  9
$UCSORG
 10
0.0
 20
0.0
 30
0.0
  9
$UCSXDIR
 10
1.0
 20
0.0
 30
0.0
  9
$UCSYDIR
 10
0.0
 20
1.0
 30
0.0
  9
$UCSORTHOREF
  2

  9
$UCSORTHOVIEW
 70
     0
  9
$UCSORGTOP
 10
0.0
 20
0.0
 30
0.0
  9
$UCSORGBOTTOM
 10
0.0
 20
0.0
 30
0.0
  9
$UCSORGLEFT
 10
0.0
 20
0.0
 30
0.0
  9
$UCSORGRIGHT
 10
0.0
 20
0.0
 30
0.0
  9
$UCSORGFRONT
 10
0.0
 20
0.0
 30
0.0
  9
$UCSORGBACK
 10
0.0
 20
0.0
 30
0.0
  9
$PUCSBASE
  2

  9
$PUCSNAME
  2

  9
$PUCSORG
 10
0.0
 20
0.0
 30
0.0
  9
$PUCSXDIR
 10
1.0
 20
0.0
 30
0.0
  9
$PUCSYDIR
 10
0.0
 20
1.0
 30
0.0
  9
$PUCSORTHOREF
  2

  9
$PUCSORTHOVIEW
 70
     0
  9
$PUCSORGTOP
 10
0.0
 20
0.0
 30
0.0
  9
$PUCSORGBOTTOM
 10
0.0
 20
0.0
 30
0.0
  9
$PUCSORGLEFT
 10
0.0
 20
0.0
 30
0.0
  9
$PUCSORGRIGHT
 10
0.0
 20
0.0
 30
0.0
  9
$PUCSORGFRONT
 10
0.0
 20
0.0
 30
0.0
  9
$PUCSORGBACK
 10
0.0
 20
0.0
 30
0.0
  9
$USERI1
 70
     0
  9
$USERI2
 70
     0
  9
$USERI3
 70
     0
  9
$USERI4
 70
     0
  9
$USERI5
 70
     0
  9
$USERR1
 40
0.0
  9
$USERR2
 40
0.0
  9
$USERR3
 40
0.0
  9
$USERR4
 40
0.0
  9
$USERR5
 40
0.0
  9
$WORLDVIEW
 70
     1
  9
$SHADEDGE
 70
     3
  9
$SHADEDIF
 70
    70
  9
$TILEMODE
 70
     1
  9
$MAXACTVP
 70
    48
  9
$PINSBASE
 10
0.0
 20
0.0
 30
0.0
  9
$PLIMCHECK
 70
     0
  9
$PEXTMIN
 10
1.000000000000000E+20
 20
1.000000000000000E+20
 30
1.000000000000000E+20
  9
$PEXTMAX
 10
-1.000000000000000E+20
 20
-1.000000000000000E+20
 30
-1.000000000000000E+20
  9
$PLIMMIN
 10
0.0
 20
0.0
  9
$PLIMMAX
 10
420.0
 20
297.0
  9
$UNITMODE
 70
     0
  9
$VISRETAIN
 70
     1
  9
$PLINEGEN
 70
     0
  9
$PSLTSCALE
 70
     1
  9
$TREEDEPTH
 70
  3020
  9
$CMLSTYLE
  2
STANDARD
  9
$CMLJUST
 70
     0
  9
$CMLSCALE
 40
20.0
  9
$PROXYGRAPHICS
 70
     1
  9
$MEASUREMENT
 70
     1
  9
$CELWEIGHT
370
    -1
  9
$ENDCAPS
280
     0
  9
$JOINSTYLE
280
     0
  9
$LWDISPLAY
290
     0
  9
$INSUNITS
 70
     0
  9
$HYPERLINKBASE
  1

  9
$STYLESHEET
  1
AutoCAD LT 98.ctb
  9
$XEDIT
290
     1
  9
$CEPSNTYPE
380
     0
  9
$PSTYLEMODE
290
     1
  9
$FINGERPRINTGUID
  2
{2DC3F041-B523-491D-A391-806AE9206DFC}
  9
$VERSIONGUID
  2
{FE1FCE11-F8CC-4424-AF4E-CCEDE5E3C84A}
  9
$EXTNAMES
290
     1
  9
$PSVPSCALE
 40
0.0
  9
$OLESTARTUP
290
     0
  9
$SORTENTS
280
    96
  9
$INDEXCTL
280
     0
  9
$HIDETEXT
280
     0
  9
$XCLIPFRAME
290
     0
  9
$HALOGAP
280
     0
  9
$OBSCOLOR
 70
   257
  9
$OBSLTYPE
280
     0
  9
$INTERSECTIONDISPLAY
280
     0
  9
$INTERSECTIONCOLOR
 70
   257
  9
$DIMASSOC
280
     1
  9
$PROJECTNAME
  1

  0
ENDSEC
  0
SECTION
  2
CLASSES
  0
CLASS
  1
HATCH
  2
AcDbHatch
  3
ObjectDBX Classes
 90
        0
 91
       12
280
     0
281
     1
  0
CLASS
  1
LWPOLYLINE
  2
AcDbPolyline
  3
ObjectDBX Classes
 90
        0
 91
        1
280
     0
281
     1
  0
CLASS
  1
IMAGEDEF
  2
AcDbRasterImageDef
  3
ISM
 90
        0
 91
        1
280
     0
281
     0
  0
CLASS
  1
DICTIONARYVAR
  2
AcDbDictionaryVar
  3
ObjectDBX Classes
 90
        0
 91
        2
280
     0
281
     0
  0
CLASS
  1
ACDBDICTIONARYWDFLT
  2
AcDbDictionaryWithDefault
  3
ObjectDBX Classes
 90
        0
 91
        1
280
     0
281
     0
  0
CLASS
  1
TABLESTYLE
  2
AcDbTableStyle
  3
ObjectDBX Classes
 90
     2047
 91
        1
280
     0
281
     0
  0
CLASS
  1
SORTENTSTABLE
  2
AcDbSortentsTable
  3
ObjectDBX Classes
 90
        0
 91
        2
280
     0
281
     0
  0
ENDSEC
  0
SECTION
  2
TABLES
  0
TABLE
  2
VPORT
  5
8
330
0
100
AcDbSymbolTable
 70
     2
  0
VPORT
  5
2341
330
8
100
AcDbSymbolTableRecord
100
AcDbViewportTableRecord
  2
*Active
 70
     0
 10
0.0
 20
0.0
 11
1.0
 21
1.0
 12
364.1899559918097
 22
269.3506659190583
 13
0.0
 23
0.0
 14
10.0
 24
10.0
 15
10.0
 25
10.0
 16
0.0
 26
0.0
 36
1.0
 17
0.0
 27
0.0
 37
0.0
 40
196.9300935618867
 41
1.530456852791878
 42
50.0
 43
0.0
 44
0.0
 50
0.0
 51
0.0
 71
     0
 72
   100
 73
     1
 74
     1
 75
     0
 76
     0
 77
     0
 78
     0
281
     0
 65
     1
110
0.0
120
0.0
130
0.0
111
1.0
121
0.0
131
0.0
112
0.0
122
1.0
132
0.0
 79
     0
146
0.0
  0
ENDTAB
  0
TABLE
  2
LTYPE
  5
5
330
0
100
AcDbSymbolTable
 70
     3
  0
LTYPE
  5
12
330
5
100
AcDbSymbolTableRecord
100
AcDbLinetypeTableRecord
  2
BYBLOCK
 70
     0
  3

 72
    65
 73
     0
 40
0.0
  0
LTYPE
  5
13
330
5
100
AcDbSymbolTableRecord
100
AcDbLinetypeTableRecord
  2
BYLAYER
 70
     0
  3

 72
    65
 73
     0
 40
0.0
  0
LTYPE
  5
14
330
5
100
AcDbSymbolTableRecord
100
AcDbLinetypeTableRecord
  2
CONTINUOUS
 70
     0
  3
Solid line
 72
    65
 73
     0
 40
0.0
  0
LTYPE
  5
22
330
5
100
AcDbSymbolTableRecord
100
AcDbLinetypeTableRecord
  2
CENTER2
 70
     0
  3
Center (.5x) ___ _ ___ _ ___ _ ___ _ ___ _ ___
 72
    65
 73
     4
 40
28.575
 49
19.05
 74
     0
 49
-3.174999999999999
 74
     0
 49
3.174999999999999
 74
     0
 49
-3.174999999999999
 74
     0
  0
LTYPE
  5
23
330
5
100
AcDbSymbolTableRecord
100
AcDbLinetypeTableRecord
  2
HIDDEN2
 70
     0
  3
Hidden (.5x) _ _ _ _ _ _ _ _ _ _ _ _ _ _ _ _ _
 72
    65
 73
     2
 40
4.762499999999999
 49
3.174999999999999
 74
     0
 49
-1.587499999999999
 74
     0
  0
ENDTAB
  0
TABLE
  2
LAYER
  5
2
330
0
100
AcDbSymbolTable
 70
    11
  0
LAYER
  5
E
330
2
100
AcDbSymbolTableRecord
100
AcDbLayerTableRecord
  2
0
 70
     0
 62
     7
  6
CONTINUOUS
370
    -3
390
1BF5
  0
LAYER
  5
25
330
2
100
AcDbSymbolTableRecord
100
AcDbLayerTableRecord
  2
外形線
 70
     0
 62
     7
  6
CONTINUOUS
370
    -3
390
1BF5
  0
LAYER
  5
26
330
2
100
AcDbSymbolTableRecord
100
AcDbLayerTableRecord
  2
寸法線
 70
     0
 62
     2
  6
CONTINUOUS
370
    -3
390
1BF5
  0
LAYER
  5
27
330
2
100
AcDbSymbolTableRecord
100
AcDbLayerTableRecord
  2
中心線
 70
     0
 62
     4
  6
CENTER2
370
    -3
390
1BF5
  0
LAYER
  5
28
330
2
100
AcDbSymbolTableRecord
100
AcDbLayerTableRecord
  2
隠れ線
 70
     0
 62
     6
  6
HIDDEN2
370
    -3
390
1BF5
  0
LAYER
  5
2B
330
2
100
AcDbSymbolTableRecord
100
AcDbLayerTableRecord
  2
文字
 70
     0
 62
     6
  6
CONTINUOUS
370
    -3
390
1BF5
  0
LAYER
  5
2C
330
2
100
AcDbSymbolTableRecord
100
AcDbLayerTableRecord
  2
目盛
 70
     0
 62
    70
  6
CONTINUOUS
370
    -3
390
1BF5
  0
LAYER
  5
2D
330
2
100
AcDbSymbolTableRecord
100
AcDbLayerTableRecord
  2
針
 70
     0
 62
     5
  6
CONTINUOUS
370
    -3
390
1BF5
  0
LAYER
  5
53
330
2
100
AcDbSymbolTableRecord
100
AcDbLayerTableRecord
  2
DEFPOINTS
 70
     0
 62
     7
  6
CONTINUOUS
290
     0
370
    -3
390
1BF5
  0
LAYER
  5
A5
330
2
100
AcDbSymbolTableRecord
100
AcDbLayerTableRecord
  2
C
 70
     0
 62
     7
  6
CONTINUOUS
370
    -3
390
1BF5
  0
LAYER
  5
AD4
330
2
100
AcDbSymbolTableRecord
100
AcDbLayerTableRecord
  2
ROGO
 70
     0
 62
     6
  6
CONTINUOUS
370
    -3
390
1BF5
  0
ENDTAB
  0
TABLE
  2
STYLE
  5
3
330
0
100
AcDbSymbolTable
 70
     3
  0
STYLE
  5
F
330
3
100
AcDbSymbolTableRecord
100
AcDbTextStyleTableRecord
  2
STANDARD
 70
     0
 40
0.0
 41
1.0
 50
0.0
 71
     0
 42
2.5
  3
txt
  4

  0
STYLE
  5
3F
330
3
100
AcDbSymbolTableRecord
100
AcDbTextStyleTableRecord
  2
STYLE3
 70
     0
 40
0.0
 41
1.0
 50
0.0
 71
     0
 42
2.5
  3
romans.shx
  4
bigfont.shx
  0
ENDTAB
  0
TABLE
  2
VIEW
  5
6
330
0
100
AcDbSymbolTable
 70
     0
  0
ENDTAB
  0
TABLE
  2
UCS
  5
7
330
0
100
AcDbSymbolTable
 70
     0
  0
ENDTAB
  0
TABLE
  2
APPID
  5
9
330
0
100
AcDbSymbolTable
 70
     2
  0
APPID
  5
10
330
9
100
AcDbSymbolTableRecord
100
AcDbRegAppTableRecord
  2
ACAD
 70
     0
  0
APPID
  5
22B3
330
9
100
AcDbSymbolTableRecord
100
AcDbRegAppTableRecord
  2
ACAD_PSEXT
 70
     0
  0
ENDTAB
  0
TABLE
  2
DIMSTYLE
  5
A
330
0
100
AcDbSymbolTable
 70
     3
100
AcDbDimStyleTable
 71
     1
340
8F
  0
DIMSTYLE
105
1D
330
A
100
AcDbSymbolTableRecord
100
AcDbDimStyleTableRecord
  2
STANDARD
 70
     0
 41
2.5
 42
0.625
 43
3.75
 44
1.25
 73
     0
 74
     0
 77
     1
 78
     8
140
2.5
141
2.5
143
0.0394
147
0.625
171
     4
172
     1
273
     8
274
     4
277
     6
340
F
  0
DIMSTYLE
105
8F
330
A
100
AcDbSymbolTableRecord
100
AcDbDimStyleTableRecord
  2
STYLE3
 70
     0
 41
2.5
 42
0.0
 43
3.75
 44
1.25
 73
     0
 74
     0
 77
     1
 78
     8
140
2.5
141
2.5
143
0.0394
147
0.625
171
     4
172
     1
173
     1
176
     2
177
     2
178
     6
271
     1
273
     8
274
     4
340
3F
341
45
343
45
344
45
  0
ENDTAB
  0
TABLE
  2
BLOCK_RECORD
  5
1
330
0
100
AcDbSymbolTable
 70
     7
  0
BLOCK_RECORD
  5
18
330
1
100
AcDbSymbolTableRecord
100
AcDbBlockTableRecord
  2
*MODEL_SPACE
340
1BFC
  0
BLOCK_RECORD
  5
15
330
1
100
AcDbSymbolTableRecord
100
AcDbBlockTableRecord
  2
*PAPER_SPACE
340
1BFD
  0
BLOCK_RECORD
  5
45
330
1
100
AcDbSymbolTableRecord
100
AcDbBlockTableRecord
  2
_OPEN
340
0
102
{BLKREFS
331
1637
331
1638
331
1654
331
1669
331
166A
331
168B
331
168C
331
1B1F
331
1B20
331
1B28
331
1B29
331
1B31
331
1B32
331
1B3A
331
1B3B
331
1B43
331
1B44
331
1B4C
331
1B4D
331
1B55
331
1B56
331
1BB2
331
1BB3
331
1BBB
331
1BBC
331
1BCC
331
1BCD
331
1BD8
331
1BD9
331
1BE1
331
1BE2
102
}
  0
BLOCK_RECORD
  5
ADD
330
1
100
AcDbSymbolTableRecord
100
AcDbBlockTableRecord
  2
ROGO1
340
0
102
{BLKREFS
331
B43
331
B44
331
FCB
331
FCC
102
}
  0
BLOCK_RECORD
  5
1C02
102
{ACAD_XDICTIONARY
360
1C03
102
}
330
1
100
AcDbSymbolTableRecord
100
AcDbBlockTableRecord
  2
PC_PCN針
340
0
102
{BLKREFS
331
22A6
102
}
  0
ENDTAB
  0
ENDSEC
  0
SECTION
  2
BLOCKS
  0
BLOCK
  5
19
330
18
100
AcDbEntity
  8
0
100
AcDbBlockBegin
  2
*MODEL_SPACE
 70
     0
 10
0.0
 20
0.0
 30
0.0
  3
*MODEL_SPACE
  1

  0
ENDBLK
  5
1A
330
18
100
AcDbEntity
  8
0
100
AcDbBlockEnd
  0
BLOCK
  5
16
330
15
100
AcDbEntity
 67
     1
  8
0
100
AcDbBlockBegin
  2
*PAPER_SPACE
 70
     0
 10
0.0
 20
0.0
 30
0.0
  3
*PAPER_SPACE
  1

  0
ENDBLK
  5
17
330
15
100
AcDbEntity
 67
     1
  8
0
100
AcDbBlockEnd
  0
BLOCK
  5
46
330
45
100
AcDbEntity
  8
0
100
AcDbBlockBegin
  2
_OPEN
 70
     0
 10
0.0
 20
0.0
 30
0.0
  3
_OPEN
  1

  0
LINE
  5
47
330
45
100
AcDbEntity
  8
0
  6
ByBlock
 62
     0
100
AcDbLine
 10
-1.0
 20
0.1666666666666666
 30
0.0
 11
0.0
 21
0.0
 31
0.0
  0
LINE
  5
48
330
45
100
AcDbEntity
  8
0
  6
ByBlock
 62
     0
100
AcDbLine
 10
0.0
 20
0.0
 30
0.0
 11
-1.0
 21
-0.1666666666666666
 31
0.0
  0
LINE
  5
49
330
45
100
AcDbEntity
  8
0
  6
ByBlock
 62
     0
100
AcDbLine
 10
0.0
 20
0.0
 30
0.0
 11
-1.0
 21
0.0
 31
0.0
  0
ENDBLK
  5
4A
330
45
100
AcDbEntity
  8
0
100
AcDbBlockEnd
  0
BLOCK
  5
B2A
330
ADD
100
AcDbEntity
  8
0
100
AcDbBlockBegin
  2
ROGO1
 70
     0
 10
0.0
 20
0.0
 30
0.0
  3
ROGO1
  1

  0
MTEXT
  5
B42
330
ADD
100
AcDbEntity
  8
DEFPOINTS
  6
Continuous
100
AcDbMText
 10
1039.786461861274
 20
160.9640365185991
 30
0.0
 40
1.0
 41
0.0
 71
     4
 72
     1
  1
\A1;
 73
     1
 44
1.0
  0
ENDBLK
  5
B2B
330
ADD
100
AcDbEntity
  8
0
100
AcDbBlockEnd
  0
BLOCK
  5
1C05
330
1C02
100
AcDbEntity
  8
0
100
AcDbBlockBegin
  2
PC_PCN針
 70
     0
 10
0.0
 20
0.0
 30
0.0
  3
PC_PCN針
  1

  0
HATCH
  5
1C06
330
1C02
100
AcDbEntity
  8
針
 62
     5
100
AcDbHatch
 10
0.0
 20
0.0
 30
0.0
210
0.0
220
0.0
230
1.0
  2
SOLID
 70
     1
 71
     1
 91
        2
 92
        7
 72
     1
 73
     1
 93
        7
 10
-2.023904563850578
 20
-0.2645931338153105
 42
-0.1640812035095904
 10
-1.421638696153195
 20
-0.4784803210162636
 42
-0.0813437861988258
 10
-1.5
 20
0.0
 42
-0.0813437861988211
 10
-1.421638696153195
 20
0.4784803210162352
 42
-0.1640812035095877
 10
-2.023904563850578
 20
0.2645931338153105
 42
0.0
 10
-14.19999999999993
 20
0.07000000000005
 42
0.0
 10
-14.20000000000004
 20
-0.0700000000000216
 42
0.0
 97
        6
330
1C0A
330
1C0C
330
1C07
330
1C0D
330
1C0B
330
1C13
 92
        7
 72
     1
 73
     1
 93
        9
 10
1.601307174430758
 20
0.4866168858272318
 42
-0.1053331282509662
 10
1.399713151580613
 20
0.5392616185973793
 42
-0.0921949713546931
 10
1.5
 20
0.0
 42
-0.0921949713546883
 10
1.399713151580613
 20
-0.5392616185973509
 42
-0.1053331282510194
 10
1.601307174430871
 20
-0.4866168858272318
 42
0.0
 10
6.657469727507077
 20
-0.256172195646343
 42
-0.2863987309427536
 10
6.842033426437637
 20
-0.359972204586029
 42
3.911320250910649
 10
6.842033426437637
 20
0.3599722045860858
 42
-0.2863987309427981
 10
6.657469727507077
 20
0.256172195646343
 42
0.0
 97
        8
330
1C11
330
1C0E
330
1C09
330
1C13
330
1C08
330
1C0F
330
1C12
330
1C10
 75
     0
 76
     1
 47
0.0259966004614645
 98
        2
 10
-6.998752094249084
 20
-0.0094903483859525
 10
3.014397170732763
 20
0.0944959703959967
450
        0
451
        0
460
0.0
461
0.0
452
        1
462
1.0
453
        2
463
0.0
 63
     5
421
      255
463
1.0
 63
    51
421
 16777113
470
LINEAR
  0
LINE
  5
1C07
102
{ACAD_REACTORS
330
1C06
102
}
330
1C02
100
AcDbEntity
  8
針
100
AcDbLine
 10
-14.20000000000004
 20
0.0700000000000216
 30
0.0
 11
-14.20000000000004
 21
-0.0699999999999932
 31
0.0
  0
ARC
  5
1C08
102
{ACAD_REACTORS
330
1C06
102
}
330
1C02
100
AcDbEntity
  8
針
100
AcDbCircle
 10
1.624072039381871
 20
-0.9860983779005323
 30
0.0
 40
0.5
100
AcDbArc
 50
92.60956348104661
 51
116.6614474826241
  0
ARC
  5
1C09
102
{ACAD_REACTORS
330
1C06
102
}
330
1C02
100
AcDbEntity
  8
針
100
AcDbCircle
 10
1.624072039381871
 20
0.9860983779005323
 30
0.0
 40
0.5
100
AcDbArc
 50
243.3385525173759
 51
267.3904365189533
  0
ARC
  5
1C0A
102
{ACAD_REACTORS
330
1C06
102
}
330
1C02
100
AcDbEntity
  8
針
100
AcDbCircle
 10
-2.039884094318267
 20
1.264465452967101
 30
0.0
 40
1.0
100
AcDbArc
 50
270.9155986228672
 51
308.1881170613605
  0
ARC
  5
1C0B
102
{ACAD_REACTORS
330
1C06
102
}
330
1C02
100
AcDbEntity
  8
針
100
AcDbCircle
 10
-2.039884094318267
 20
-1.264465452967101
 30
0.0
 40
1.0
100
AcDbArc
 50
51.8118829386395
 51
89.08440137713276
  0
LINE
  5
1C0C
102
{ACAD_REACTORS
330
1C06
102
}
330
1C02
100
AcDbEntity
  8
針
100
AcDbLine
 10
-14.20000000000004
 20
0.0700000000000216
 30
0.0
 11
-2.023904563850578
 21
0.2645931338153105
 31
0.0
  0
LINE
  5
1C0D
102
{ACAD_REACTORS
330
1C06
102
}
330
1C02
100
AcDbEntity
  8
針
100
AcDbLine
 10
-2.023904563850578
 20
-0.2645931338153105
 30
0.0
 11
-14.20000000000004
 21
-0.0699999999999932
 31
0.0
  0
LINE
  5
1C0E
102
{ACAD_REACTORS
330
1C06
102
}
330
1C02
100
AcDbEntity
  8
針
100
AcDbLine
 10
1.601307174430758
 20
0.4866168858272318
 30
0.0
 11
6.657469727507077
 21
0.256172195646343
 31
0.0
  0
LINE
  5
1C0F
102
{ACAD_REACTORS
330
1C06
102
}
330
1C02
100
AcDbEntity
  8
針
100
AcDbLine
 10
1.601307174430758
 20
-0.4866168858272318
 30
0.0
 11
6.657469727507077
 21
-0.256172195646343
 31
0.0
  0
ARC
  5
1C10
102
{ACAD_REACTORS
330
1C06
102
}
330
1C02
100
AcDbEntity
  8
針
100
AcDbCircle
 10
7.5
 20
0.0
 30
0.0
 40
0.75
100
AcDbArc
 50
208.6829815593726
 51
151.3170184406274
  0
ARC
  5
1C11
102
{ACAD_REACTORS
330
1C06
102
}
330
1C02
100
AcDbEntity
  8
針
100
AcDbCircle
 10
6.666575673487614
 20
0.4559647924756405
 30
0.0
 40
0.2
100
AcDbArc
 50
267.3904365189468
 51
331.3170184406275
  0
ARC
  5
1C12
102
{ACAD_REACTORS
330
1C06
102
}
330
1C02
100
AcDbEntity
  8
針
100
AcDbCircle
 10
6.666575673487614
 20
-0.4559647924756405
 30
0.0
 40
0.2
100
AcDbArc
 50
28.68298155937256
 51
92.60956348105315
  0
CIRCLE
  5
1C13
102
{ACAD_REACTORS
330
1C06
102
}
330
1C02
100
AcDbEntity
  8
外形線
100
AcDbCircle
 10
0.0
 20
0.0
 30
0.0
 40
1.5
  0
CIRCLE
  5
1C14
330
1C02
100
AcDbEntity
  8
外形線
 62
     4
100
AcDbCircle
 10
0.0
 20
0.0
 30
0.0
 40
0.25
  0
ENDBLK
  5
1C15
330
1C02
100
AcDbEntity
  8
0
100
AcDbBlockEnd
  0
ENDSEC
  0
SECTION
  2
ENTITIES
  0
LWPOLYLINE
  5
10B
330
18
100
AcDbEntity
  8
C
100
AcDbPolyline
 90
        5
 70
     0
 43
0.4
 10
236.6915604445414
 20
366.8501752555372
 10
491.6915604445414
 20
366.8501752555372
 10
491.6915604445414
 20
171.8501752555372
 10
236.6915604445414
 20
171.8501752555372
 10
236.6915604445414
 20
366.8501752555372
  0
LINE
  5
16B
330
18
100
AcDbEntity
  8
中心線
 48
0.5
100
AcDbLine
 10
417.9906585811072
 20
243.1162542263164
 30
0.0
 11
417.9906585811072
 21
224.3746871654701
 31
0.0
  0
LINE
  5
16C
330
18
100
AcDbEntity
  8
外形線
100
AcDbLine
 10
414.7406585811072
 20
315.7224380180887
 30
0.0
 11
420.7406585811072
 21
315.7224380180887
 31
0.0
  0
LINE
  5
16E
330
18
100
AcDbEntity
  8
外形線
100
AcDbLine
 10
420.7406585811072
 20
315.7224380180887
 30
0.0
 11
420.7406585811072
 21
300.576285595382
 31
0.0
  0
LINE
  5
16F
330
18
100
AcDbEntity
  8
外形線
100
AcDbLine
 10
414.7406585811072
 20
315.7224380180887
 30
0.0
 11
414.7406585811073
 21
300.576285595382
 31
0.0
  0
ARC
  5
170
330
18
100
AcDbEntity
  8
外形線
100
AcDbCircle
 10
417.7406585811072
 20
310.526285595382
 30
0.0
 40
6.0
100
AcDbArc
 50
60.0
 51
120.0
  0
LINE
  5
305
330
18
100
AcDbEntity
  8
中心線
 48
0.5
100
AcDbLine
 10
401.4298800954355
 20
276.4262855953821
 30
0.0
 11
424.7559450461147
 21
276.4262855953821
 31
0.0
  0
INSERT
  5
B43
330
18
100
AcDbEntity
  8
文字
100
AcDbBlockReference
  2
ROGO1
 10
301.1334577592202
 20
275.1168679656769
 30
0.0
  0
INSERT
  5
B44
330
18
100
AcDbEntity
  8
文字
100
AcDbBlockReference
  2
ROGO1
 10
301.1095809474122
 20
275.1436630917189
 30
0.0
  0
LINE
  5
BF9
330
18
100
AcDbEntity
  8
外形線
100
AcDbLine
 10
419.2406585811073
 20
235.7262855953821
 30
0.0
 11
416.7406585811072
 21
235.7262855953821
 31
0.0
  0
LINE
  5
C4D
330
18
100
AcDbEntity
  8
中心線
 48
0.5
100
AcDbLine
 10
410.6211331052396
 20
238.926285595382
 30
0.0
 11
424.9400509145498
 21
238.926285595382
 31
0.0
  0
LINE
  5
C56
330
18
100
AcDbEntity
  8
外形線
100
AcDbLine
 10
419.7519210243775
 20
298.9262855953821
 30
0.0
 11
420.7406585811074
 21
300.576285595382
 31
0.0
  0
LINE
  5
C57
330
18
100
AcDbEntity
  8
外形線
100
AcDbLine
 10
415.7293961378372
 20
298.9262855953822
 30
0.0
 11
414.740658581107
 21
300.576285595382
 31
0.0
  0
LINE
  5
C88
330
18
100
AcDbEntity
  8
外形線
100
AcDbLine
 10
421.2906585811072
 20
235.4262855953821
 30
0.0
 11
419.5906585811072
 21
235.4262855953821
 31
0.0
  0
LINE
  5
CAF
330
18
100
AcDbEntity
  8
外形線
100
AcDbLine
 10
416.2406585811072
 20
241.9032551960905
 30
0.0
 11
416.2406585811072
 21
236.2262855953821
 31
0.0
  0
LINE
  5
CB0
330
18
100
AcDbEntity
  8
外形線
100
AcDbLine
 10
416.7406585811072
 20
241.926285595382
 30
0.0
 11
416.7406585811072
 21
235.726285595382
 31
0.0
  0
LINE
  5
CB2
330
18
100
AcDbEntity
  8
外形線
100
AcDbLine
 10
416.2406585811072
 20
236.2262855953821
 30
0.0
 11
416.7406585811072
 21
236.226285595382
 31
0.0
  0
INSERT
  5
FCB
330
18
100
AcDbEntity
  8
文字
100
AcDbBlockReference
  2
ROGO1
 10
579.0605083803766
 20
282.754069537204
 30
0.0
  0
INSERT
  5
FCC
330
18
100
AcDbEntity
  8
文字
100
AcDbBlockReference
  2
ROGO1
 10
579.0366315685687
 20
282.780864663246
 30
0.0
  0
LINE
  5
1249
330
18
100
AcDbEntity
  8
外形線
100
AcDbLine
 10
349.3129405031585
 20
315.7724380180887
 30
0.0
 11
349.3129405031585
 21
300.576285595382
 31
0.0
  0
LINE
  5
124A
330
18
100
AcDbEntity
  8
外形線
100
AcDbLine
 10
343.3129405031585
 20
315.7724380180887
 30
0.0
 11
343.3129405031585
 21
300.576285595382
 31
0.0
  0
LINE
  5
1253
330
18
100
AcDbEntity
  8
外形線
100
AcDbLine
 10
343.3129405031585
 20
300.576285595382
 30
0.0
 11
349.3129405031585
 21
300.576285595382
 31
0.0
  0
LINE
  5
1259
330
18
100
AcDbEntity
  8
外形線
100
AcDbLine
 10
343.3129405031585
 20
315.7724380180887
 30
0.0
 11
349.3129405031585
 21
315.7724380180887
 31
0.0
  0
ARC
  5
125A
330
18
100
AcDbEntity
  8
外形線
100
AcDbCircle
 10
346.3129405031585
 20
310.5762855953821
 30
0.0
 40
6.0
100
AcDbArc
 50
60.0
 51
120.0
  0
LINE
  5
12CA
330
18
100
AcDbEntity
  8
外形線
100
AcDbLine
 10
407.0544005497001
 20
293.9262855953821
 30
0.0
 11
410.2044005497
 21
293.9262855953821
 31
0.0
  0
LINE
  5
12CC
330
18
100
AcDbEntity
  8
外形線
100
AcDbLine
 10
406.8544005497001
 20
293.7262855953822
 30
0.0
 11
406.8544005496999
 21
259.1262855953823
 31
0.0
  0
LINE
  5
12CD
330
18
100
AcDbEntity
  8
外形線
100
AcDbLine
 10
410.5544005497001
 20
293.5762855953821
 30
0.0
 11
410.5544005497
 21
259.2762855953822
 31
0.0
  0
LINE
  5
12CE
330
18
100
AcDbEntity
  8
外形線
100
AcDbLine
 10
411.5544005497
 20
293.5762855953821
 30
0.0
 11
411.5544005497
 21
259.2762855953822
 31
0.0
  0
LINE
  5
12CF
330
18
100
AcDbEntity
  8
外形線
 48
0.5
100
AcDbLine
 10
406.8544005497001
 20
293.7262855953822
 30
0.0
 11
407.0544005497001
 21
293.9262855953821
 31
0.0
  0
LINE
  5
12D0
330
18
100
AcDbEntity
  8
外形線
100
AcDbLine
 10
410.2044005497
 20
293.9262855953821
 30
0.0
 11
410.5544005497
 21
293.5762855953821
 31
0.0
  0
LINE
  5
12EF
330
18
100
AcDbEntity
  8
外形線
100
AcDbLine
 10
410.2044005497
 20
258.9262855953821
 30
0.0
 11
410.5544005497
 21
259.2762855953822
 31
0.0
  0
LINE
  5
12F0
330
18
100
AcDbEntity
  8
外形線
 48
0.5
100
AcDbLine
 10
406.8544005497001
 20
259.1262855953821
 30
0.0
 11
407.0544005497001
 21
258.9262855953821
 31
0.0
  0
LINE
  5
12F1
330
18
100
AcDbEntity
  8
外形線
100
AcDbLine
 10
407.0544005497001
 20
258.9262855953821
 30
0.0
 11
410.2044005497
 21
258.9262855953821
 31
0.0
  0
LINE
  5
12F5
330
18
100
AcDbEntity
  8
外形線
100
AcDbLine
 10
406.3544005497
 20
292.9262855953821
 30
0.0
 11
406.3544005497
 21
259.9262855953822
 31
0.0
  0
LINE
  5
12FF
330
18
100
AcDbEntity
  8
外形線
100
AcDbLine
 10
410.5544005497
 20
293.5762855953821
 30
0.0
 11
411.5544005497
 21
293.5762855953821
 31
0.0
  0
LINE
  5
1300
330
18
100
AcDbEntity
  8
外形線
100
AcDbLine
 10
410.5544005497
 20
259.2762855953822
 30
0.0
 11
411.5544005497
 21
259.2762855953822
 31
0.0
  0
LINE
  5
1308
330
18
100
AcDbEntity
  8
外形線
100
AcDbLine
 10
406.3544005497
 20
292.9262855953821
 30
0.0
 11
406.8544005497001
 21
293.4262855953821
 31
0.0
  0
LINE
  5
1309
330
18
100
AcDbEntity
  8
外形線
100
AcDbLine
 10
406.3544005497
 20
259.9262855953821
 30
0.0
 11
406.8544005497001
 21
259.4262855953821
 31
0.0
  0
LINE
  5
1312
330
18
100
AcDbEntity
  8
外形線
100
AcDbLine
 10
406.8544005497002
 20
293.2262855953821
 30
0.0
 11
410.5544005497
 21
293.2262855953821
 31
0.0
  0
LINE
  5
1313
330
18
100
AcDbEntity
  8
外形線
100
AcDbLine
 10
406.8544005497002
 20
292.5262855953821
 30
0.0
 11
410.5544005497
 21
292.5262855953821
 31
0.0
  0
LINE
  5
1314
330
18
100
AcDbEntity
  8
外形線
100
AcDbLine
 10
406.8544005497002
 20
291.7262855953822
 30
0.0
 11
410.5544005497
 21
291.7262855953821
 31
0.0
  0
LINE
  5
1315
330
18
100
AcDbEntity
  8
外形線
100
AcDbLine
 10
406.8544005497002
 20
290.9262855953821
 30
0.0
 11
410.5544005497
 21
290.9262855953821
 31
0.0
  0
LINE
  5
1316
330
18
100
AcDbEntity
  8
外形線
100
AcDbLine
 10
406.8544005497002
 20
290.0262855953822
 30
0.0
 11
410.5544005497
 21
290.0262855953822
 31
0.0
  0
LINE
  5
1328
330
18
100
AcDbEntity
  8
外形線
100
AcDbLine
 10
406.8544005497001
 20
277.1262855953821
 30
0.0
 11
410.5544005497
 21
277.1262855953821
 31
0.0
  0
LINE
  5
1329
330
18
100
AcDbEntity
  8
外形線
100
AcDbLine
 10
406.8544005497001
 20
275.7262855953821
 30
0.0
 11
410.5544005497
 21
275.7262855953821
 31
0.0
  0
LINE
  5
132A
330
18
100
AcDbEntity
  8
外形線
100
AcDbLine
 10
406.8544005497001
 20
277.9262855953821
 30
0.0
 11
410.5544005497
 21
277.9262855953821
 31
0.0
  0
LINE
  5
132B
330
18
100
AcDbEntity
  8
外形線
100
AcDbLine
 10
406.8544005497001
 20
274.9262855953821
 30
0.0
 11
410.5544005497
 21
274.9262855953821
 31
0.0
  0
LINE
  5
132C
330
18
100
AcDbEntity
  8
外形線
100
AcDbLine
 10
406.8544005497
 20
276.4262855953821
 30
0.0
 11
410.5544005497
 21
276.4262855953821
 31
0.0
  0
LINE
  5
132D
330
18
100
AcDbEntity
  8
外形線
100
AcDbLine
 10
406.8544005497002
 20
262.8262855953821
 30
0.0
 11
410.5544005497
 21
262.8262855953821
 31
0.0
  0
LINE
  5
132E
330
18
100
AcDbEntity
  8
外形線
100
AcDbLine
 10
406.8544005497002
 20
261.9262855953821
 30
0.0
 11
410.5544005497
 21
261.9262855953821
 31
0.0
  0
LINE
  5
132F
330
18
100
AcDbEntity
  8
外形線
100
AcDbLine
 10
406.8544005497002
 20
261.1262855953821
 30
0.0
 11
410.5544005497
 21
261.1262855953822
 31
0.0
  0
LINE
  5
1330
330
18
100
AcDbEntity
  8
外形線
100
AcDbLine
 10
406.8544005497002
 20
260.3262855953821
 30
0.0
 11
410.5544005497
 21
260.3262855953821
 31
0.0
  0
LINE
  5
1331
330
18
100
AcDbEntity
  8
外形線
100
AcDbLine
 10
406.8544005497002
 20
259.6262855953821
 30
0.0
 11
410.5544005497
 21
259.6262855953821
 31
0.0
  0
LINE
  5
1336
330
18
100
AcDbEntity
  8
外形線
100
AcDbLine
 10
411.5544005497
 20
291.4262855953822
 30
0.0
 11
412.0544005497
 21
291.4262855953822
 31
0.0
  0
ARC
  5
1337
330
18
100
AcDbEntity
  8
外形線
100
AcDbCircle
 10
412.0544005497
 20
290.4262855953821
 30
0.0
 40
1.0
100
AcDbArc
 50
20.5676516053971
 51
90.0
  0
ARC
  5
1338
330
18
100
AcDbEntity
  8
外形線
100
AcDbCircle
 10
412.0544005497
 20
262.4262855953821
 30
0.0
 40
1.0
100
AcDbArc
 50
270.0
 51
339.4323483946029
  0
LINE
  5
1339
330
18
100
AcDbEntity
  8
外形線
100
AcDbLine
 10
411.5544005497
 20
261.4262855953821
 30
0.0
 11
412.0544005497
 21
261.4262855953821
 31
0.0
  0
ARC
  5
133C
330
18
100
AcDbEntity
  8
外形線
100
AcDbCircle
 10
466.3696901656843
 20
276.4262855953821
 30
0.0
 40
62.37903158457702
100
AcDbArc
 50
166.4545064755762
 51
193.5454935244236
  0
LINE
  5
1343
330
18
100
AcDbEntity
  8
外形線
100
AcDbLine
 10
406.2118699118109
 20
291.419429220825
 30
0.0
 11
406.3544005497
 21
291.419429220825
 31
0.0
  0
ARC
  5
1345
330
18
100
AcDbEntity
  8
外形線
100
AcDbCircle
 10
406.2118699118108
 20
290.9194292208249
 30
0.0
 40
0.5
100
AcDbArc
 50
89.99999999999349
 51
166.4545064755751
  0
ARC
  5
1346
330
18
100
AcDbEntity
  8
外形線
100
AcDbCircle
 10
406.2118699118108
 20
261.9331419699394
 30
0.0
 40
0.5
100
AcDbArc
 50
193.5454935244249
 51
270.0000000000065
  0
LINE
  5
1347
330
18
100
AcDbEntity
  8
外形線
100
AcDbLine
 10
406.2118699118109
 20
261.4331419699393
 30
0.0
 11
406.3544005497
 21
261.4331419699393
 31
0.0
  0
LINE
  5
1348
330
18
100
AcDbEntity
  8
外形線
100
AcDbLine
 10
415.8906585811072
 20
239.4262855953821
 30
0.0
 11
416.2406585811072
 21
239.426285595382
 31
0.0
  0
LINE
  5
1349
330
18
100
AcDbEntity
  8
外形線
100
AcDbLine
 10
415.8906585811072
 20
238.426285595382
 30
0.0
 11
416.2406585811073
 21
238.426285595382
 31
0.0
  0
LINE
  5
134A
330
18
100
AcDbEntity
  8
外形線
100
AcDbLine
 10
419.2406585811073
 20
239.4262855953821
 30
0.0
 11
419.5906585811071
 21
239.4262855953821
 31
0.0
  0
LINE
  5
134B
330
18
100
AcDbEntity
  8
外形線
100
AcDbLine
 10
419.2406585811072
 20
238.426285595382
 30
0.0
 11
419.5906585811071
 21
238.426285595382
 31
0.0
  0
LINE
  5
138E
330
18
100
AcDbEntity
  8
外形線
100
AcDbLine
 10
422.2406585811072
 20
241.926285595382
 30
0.0
 11
422.2406585811072
 21
235.9262855953821
 31
0.0
  0
LINE
  5
138F
330
18
100
AcDbEntity
  8
外形線
100
AcDbLine
 10
422.7406585811072
 20
240.926285595382
 30
0.0
 11
422.7406585811072
 21
236.926285595382
 31
0.0
  0
LINE
  5
1390
330
18
100
AcDbEntity
  8
外形線
100
AcDbLine
 10
421.2906585811073
 20
235.926285595382
 30
0.0
 11
422.2406585811072
 21
235.9262855953821
 31
0.0
  0
LINE
  5
1391
330
18
100
AcDbEntity
  8
外形線
100
AcDbLine
 10
422.2406585811072
 20
236.926285595382
 30
0.0
 11
422.7406585811072
 21
236.926285595382
 31
0.0
  0
LINE
  5
1392
330
18
100
AcDbEntity
  8
外形線
100
AcDbLine
 10
421.2906585811073
 20
241.9262855953821
 30
0.0
 11
422.2406585811072
 21
241.926285595382
 31
0.0
  0
LINE
  5
1393
330
18
100
AcDbEntity
  8
外形線
100
AcDbLine
 10
422.2406585811072
 20
240.926285595382
 30
0.0
 11
422.7406585811072
 21
240.926285595382
 31
0.0
  0
TEXT
  5
14EC
330
18
100
AcDbEntity
  8
寸法線
 62
     6
100
AcDbText
 10
361.2949362545927
 20
260.6776778348701
 30
0.0
 40
2.5
  1
C
  7
STYLE3
100
AcDbText
  0
CIRCLE
  5
14EE
102
{ACAD_REACTORS
330
14F1
102
}
330
18
100
AcDbEntity
  8
外形線
100
AcDbCircle
 10
353.0799315485651
 20
249.8956625452451
 30
0.0
 40
0.222687898198611
  0
HATCH
  5
14F1
330
18
100
AcDbEntity
  8
外形線
100
AcDbHatch
 10
0.0
 20
0.0
 30
0.0
210
0.0
220
0.0
230
1.0
  2
SOLID
 70
     1
 71
     1
 91
        1
 92
        7
 72
     1
 73
     1
 93
        2
 10
353.3026194467637
 20
249.8956625452451
 42
1.0
 10
352.8572436503665
 20
249.8956625452451
 42
1.0
 97
        1
330
14EE
 75
     0
 76
     1
 47
0.0200805185115556
 98
        1
 10
353.2044476519808
 20
249.7788761172669
450
        0
451
        0
460
0.0
461
0.0
452
        0
462
0.0
453
        0
470

  0
CIRCLE
  5
14F8
102
{ACAD_REACTORS
330
151F
102
}
330
18
100
AcDbEntity
  8
外形線
100
AcDbCircle
 10
341.0624267461539
 20
299.5202453478994
 30
0.0
 40
0.222687898198611
  0
HATCH
  5
151F
330
18
100
AcDbEntity
  8
外形線
100
AcDbHatch
 10
0.0
 20
0.0
 30
0.0
210
0.0
220
0.0
230
1.0
  2
SOLID
 70
     1
 71
     1
 91
        1
 92
        7
 72
     1
 73
     1
 93
        2
 10
341.2851146443525
 20
299.5202453478994
 42
1.0
 10
340.8397388479553
 20
299.5202453478994
 42
1.0
 97
        1
330
14F8
 75
     0
 76
     1
 47
0.0431140550968677
 98
        1
 10
341.1796768607391
 20
299.4109101771359
450
        0
451
        0
460
0.0
461
0.0
452
        0
462
0.0
453
        0
470

  0
LINE
  5
157C
330
18
100
AcDbEntity
  8
外形線
100
AcDbLine
 10
276.4270624153513
 20
262.1035636682909
 30
0.0
 11
289.3074557352631
 21
262.103563668291
 31
0.0
  0
LINE
  5
157F
330
18
100
AcDbEntity
  8
外形線
100
AcDbLine
 10
265.6323183036769
 20
265.403563668291
 30
0.0
 11
278.332318303677
 21
265.4035636682909
 31
0.0
  0
LINE
  5
1584
330
18
100
AcDbEntity
  8
外形線
100
AcDbLine
 10
276.4270624153513
 20
262.1035636682909
 30
0.0
 11
278.332318303677
 21
265.4035636682909
 31
0.0
  0
LINE
  5
1585
330
18
100
AcDbEntity
  8
外形線
100
AcDbLine
 10
267.5375741920027
 20
262.1035636682909
 30
0.0
 11
265.6323183036769
 21
265.403563668291
 31
0.0
  0
LINE
  5
1586
330
18
100
AcDbEntity
  8
外形線
100
AcDbLine
 10
267.5375741920027
 20
262.1035636682909
 30
0.0
 11
254.6571808720909
 21
262.1035636682909
 31
0.0
  0
CIRCLE
  5
1588
330
18
100
AcDbEntity
  8
外形線
100
AcDbCircle
 10
264.9423183036769
 20
263.6035636682909
 30
0.0
 40
1.5
  0
CIRCLE
  5
1589
330
18
100
AcDbEntity
  8
外形線
100
AcDbCircle
 10
279.022318303677
 20
263.6035636682909
 30
0.0
 40
1.5
  0
LINE
  5
158C
330
18
100
AcDbEntity
  8
中心線
100
AcDbLine
 10
262.0055127991278
 20
263.6035636682909
 30
0.0
 11
268.0825769796396
 21
263.6035636682909
 31
0.0
  0
LINE
  5
158D
330
18
100
AcDbEntity
  8
中心線
100
AcDbLine
 10
279.022318303677
 20
267.0199857824324
 30
0.0
 11
279.022318303677
 21
259.8793360986006
 31
0.0
  0
LINE
  5
158E
330
18
100
AcDbEntity
  8
中心線
100
AcDbLine
 10
264.9423183036769
 20
267.0199857824324
 30
0.0
 11
264.9423183036769
 21
259.8793360986006
 31
0.0
  0
LINE
  5
1591
330
18
100
AcDbEntity
  8
中心線
100
AcDbLine
 10
276.1138400215705
 20
263.603563668291
 30
0.0
 11
282.3470599638554
 21
263.6035636682909
 31
0.0
  0
LINE
  5
15A3
330
18
100
AcDbEntity
  8
寸法線
100
AcDbLine
 10
254.6571808720909
 20
259.9348075340495
 30
0.0
 11
256.8259370063323
 21
262.1035636682909
 31
0.0
  0
LINE
  5
15A4
330
18
100
AcDbEntity
  8
寸法線
100
AcDbLine
 10
254.6571808720909
 20
255.4446794735148
 30
0.0
 11
261.3160650668669
 21
262.1035636682909
 31
0.0
  0
LINE
  5
15A5
330
18
100
AcDbEntity
  8
寸法線
100
AcDbLine
 10
257.711866205205
 20
254.0092367460944
 30
0.0
 11
265.8061931274016
 21
262.103563668291
 31
0.0
  0
LINE
  5
15A6
330
18
100
AcDbEntity
  8
寸法線
100
AcDbLine
 10
266.9038447387273
 20
263.2012152796168
 30
0.0
 11
269.1061931274015
 21
265.403563668291
 31
0.0
  0
LINE
  5
15A7
330
18
100
AcDbEntity
  8
寸法線
100
AcDbLine
 10
262.2019942657395
 20
254.0092367460943
 30
0.0
 11
273.5963211879363
 21
265.403563668291
 31
0.0
  0
LINE
  5
15A8
330
18
100
AcDbEntity
  8
寸法線
100
AcDbLine
 10
266.6921223262741
 20
254.0092367460943
 30
0.0
 11
278.0864492484708
 21
265.403563668291
 31
0.0
  0
LINE
  5
15A9
330
18
100
AcDbEntity
  8
寸法線
100
AcDbLine
 10
271.1822503868086
 20
254.0092367460943
 30
0.0
 11
279.2765773090053
 21
262.103563668291
 31
0.0
  0
LINE
  5
15AA
330
18
100
AcDbEntity
  8
寸法線
100
AcDbLine
 10
275.6723784473434
 20
254.0092367460943
 30
0.0
 11
283.7667053695398
 21
262.103563668291
 31
0.0
  0
LINE
  5
15AB
330
18
100
AcDbEntity
  8
寸法線
100
AcDbLine
 10
280.1625065078777
 20
254.0092367460943
 30
0.0
 11
288.2568334300744
 21
262.103563668291
 31
0.0
  0
LINE
  5
15AC
330
18
100
AcDbEntity
  8
寸法線
100
AcDbLine
 10
284.6526345684125
 20
254.0092367460945
 30
0.0
 11
289.3074557352631
 21
258.6640579129451
 31
0.0
  0
LINE
  5
1634
330
18
100
AcDbEntity
  8
0
  6
ByBlock
 62
     2
100
AcDbLine
 10
278.332318303677
 20
265.4035636682909
 30
0.0
 11
289.9522120126792
 21
285.5298099508336
 31
0.0
  0
LINE
  5
1635
330
18
100
AcDbEntity
  8
0
  6
ByBlock
 62
     2
100
AcDbLine
 10
265.6323183036769
 20
265.403563668291
 30
0.0
 11
254.0124245946746
 21
285.5298099508334
 31
0.0
  0
ARC
  5
1636
330
18
100
AcDbEntity
  8
0
  6
ByBlock
 62
     2
100
AcDbCircle
 10
271.982318303677
 20
254.4050410402281
 30
0.0
 40
34.6897874180055
100
AcDbArc
 50
64.13004734756665
 51
115.869952652434
  0
INSERT
  5
1637
330
18
100
AcDbEntity
  8
0
  6
ByBlock
 62
     2
100
AcDbBlockReference
  2
_OPEN
 10
289.3272120126792
 20
284.4472781961031
 30
0.0
 41
2.5
 42
2.5
 43
2.5
 50
332.0650236737839
  0
INSERT
  5
1638
330
18
100
AcDbEntity
  8
0
  6
ByBlock
 62
     2
100
AcDbBlockReference
  2
_OPEN
 10
254.6374245946746
 20
284.4472781961028
 30
0.0
 41
2.5
 42
2.5
 43
2.5
 50
207.9349763262168
  0
MTEXT
  5
1639
330
18
100
AcDbEntity
  8
0
  6
ByBlock
 62
     6
100
AcDbMText
 10
273.4767794019002
 20
290.9698284582336
 30
0.0
 40
2.5
 41
0.0
 71
     5
 72
     1
  1
\A1;60°
  7
STYLE3
 73
     1
 44
1.0
  0
POINT
  5
163A
330
18
100
AcDbEntity
  8
DEFPOINTS
  6
ByBlock
 62
     0
100
AcDbPoint
 10
278.0061366724666
 20
288.5678126398253
 30
0.0
  0
POINT
  5
163B
330
18
100
AcDbEntity
  8
DEFPOINTS
  6
ByBlock
 62
     0
100
AcDbPoint
 10
267.5375741920027
 20
262.1035636682909
 30
0.0
  0
POINT
  5
163C
330
18
100
AcDbEntity
  8
DEFPOINTS
  6
ByBlock
 62
     0
100
AcDbPoint
 10
276.4270624153513
 20
262.1035636682909
 30
0.0
  0
POINT
  5
163D
330
18
100
AcDbEntity
  8
DEFPOINTS
  6
ByBlock
 62
     0
100
AcDbPoint
 10
278.332318303677
 20
265.4035636682909
 30
0.0
  0
POINT
  5
163E
330
18
100
AcDbEntity
  8
DEFPOINTS
  6
ByBlock
 62
     0
100
AcDbPoint
 10
265.6323183036769
 20
265.403563668291
 30
0.0
  0
LINE
  5
164E
330
18
100
AcDbEntity
  8
0
  6
ByBlock
 62
     2
100
AcDbLine
 10
262.7099233533896
 20
270.4653002019716
 30
0.0
 11
254.0124245946747
 21
285.5298099508335
 31
0.0
  0
LINE
  5
164F
330
18
100
AcDbEntity
  8
0
  6
ByBlock
 62
     2
100
AcDbLine
 10
263.6432801980001
 20
262.8535636682909
 30
0.0
 11
251.4164636255918
 21
284.0310311865277
 31
0.0
  0
LINE
  5
1651
330
18
100
AcDbEntity
  8
0
  6
ByBlock
 62
     2
100
AcDbLine
 10
249.8764001161307
 20
281.6984994317972
 30
0.0
 11
247.7113366066696
 21
280.4484994317972
 31
0.0
  0
LINE
  5
1652
330
18
100
AcDbEntity
  8
0
  6
ByBlock
 62
     2
100
AcDbLine
 10
254.6374245946746
 20
284.4472781961029
 30
0.0
 11
252.0414636255918
 21
282.9484994317971
 31
0.0
  0
INSERT
  5
1654
330
18
100
AcDbEntity
  8
0
  6
ByBlock
 62
     2
100
AcDbBlockReference
  2
_OPEN
 10
252.0414636255918
 20
282.9484994317971
 30
0.0
 41
2.5
 42
2.5
 43
2.5
 50
29.99999999999951
  0
MTEXT
  5
1655
330
18
100
AcDbEntity
  8
0
  6
ByBlock
 62
     6
100
AcDbMText
 10
250.0931922015004
 20
285.3216864460459
 30
0.0
 40
2.5
 41
0.0
 71
     5
 72
     1
  1
φ1.5
  7
STYLE3
 11
0.8660254037844429
 21
0.4999999999999926
 31
0.0
 73
     1
 44
1.0
  0
POINT
  5
1656
330
18
100
AcDbEntity
  8
DEFPOINTS
  6
ByBlock
 62
     0
100
AcDbPoint
 10
262.7099233533896
 20
270.4653002019716
 30
0.0
 50
60.00000000000049
  0
POINT
  5
1657
330
18
100
AcDbEntity
  8
DEFPOINTS
  6
ByBlock
 62
     0
100
AcDbPoint
 10
263.6432801980001
 20
262.8535636682909
 30
0.0
 50
60.00000000000049
  0
POINT
  5
1658
330
18
100
AcDbEntity
  8
DEFPOINTS
  6
ByBlock
 62
     0
100
AcDbPoint
 10
252.0414636255918
 20
282.9484994317971
 30
0.0
 50
60.00000000000049
  0
LINE
  5
1664
330
18
100
AcDbEntity
  8
0
  6
ByBlock
 62
     2
100
AcDbLine
 10
278.332318303677
 20
265.4035636682909
 30
0.0
 11
296.088468057403
 21
265.4035636682909
 31
0.0
  0
LINE
  5
1665
330
18
100
AcDbEntity
  8
0
  6
ByBlock
 62
     2
100
AcDbLine
 10
289.3074557352631
 20
262.103563668291
 30
0.0
 11
296.088468057403
 21
262.103563668291
 31
0.0
  0
LINE
  5
1666
330
18
100
AcDbEntity
  8
0
  6
ByBlock
 62
     2
100
AcDbLine
 10
294.838468057403
 20
267.9035636682909
 30
0.0
 11
294.838468057403
 21
270.4035636682909
 31
0.0
  0
LINE
  5
1667
330
18
100
AcDbEntity
  8
0
  6
ByBlock
 62
     2
100
AcDbLine
 10
294.838468057403
 20
259.603563668291
 30
0.0
 11
294.838468057403
 21
251.2306316262952
 31
0.0
  0
LINE
  5
1668
330
18
100
AcDbEntity
  8
0
  6
ByBlock
 62
     2
100
AcDbLine
 10
294.838468057403
 20
265.4035636682909
 30
0.0
 11
294.838468057403
 21
262.103563668291
 31
0.0
  0
INSERT
  5
1669
330
18
100
AcDbEntity
  8
0
  6
ByBlock
 62
     2
100
AcDbBlockReference
  2
_OPEN
 10
294.838468057403
 20
265.4035636682909
 30
0.0
 41
2.5
 42
2.5
 43
2.5
 50
270.0
  0
INSERT
  5
166A
330
18
100
AcDbEntity
  8
0
  6
ByBlock
 62
     2
100
AcDbBlockReference
  2
_OPEN
 10
294.838468057403
 20
262.103563668291
 30
0.0
 41
2.5
 42
2.5
 43
2.5
 50
90.0
  0
MTEXT
  5
166B
330
18
100
AcDbEntity
  8
0
  6
ByBlock
 62
     6
100
AcDbMText
 10
292.963468057403
 20
255.0907383495123
 30
0.0
 40
2.5
 41
0.0
 71
     5
 72
     1
  1
\A1;1.65
  7
STYLE3
 11
0.0000000000000001
 21
1.0
 31
0.0
 73
     1
 44
1.0
  0
POINT
  5
166C
330
18
100
AcDbEntity
  8
DEFPOINTS
  6
ByBlock
 62
     0
100
AcDbPoint
 10
278.332318303677
 20
265.4035636682909
 30
0.0
  0
POINT
  5
166D
330
18
100
AcDbEntity
  8
DEFPOINTS
  6
ByBlock
 62
     0
100
AcDbPoint
 10
289.3074557352631
 20
262.103563668291
 30
0.0
  0
POINT
  5
166E
330
18
100
AcDbEntity
  8
DEFPOINTS
  6
ByBlock
 62
     0
100
AcDbPoint
 10
294.838468057403
 20
262.103563668291
 30
0.0
  0
TEXT
  5
166F
330
18
100
AcDbEntity
  8
文字
100
AcDbText
 10
250.1061588149604
 20
240.5377830076282
 30
0.0
 40
4.0
  1
A.B.C 断面図 
  7
STYLE3
100
AcDbText
  0
TEXT
  5
1670
330
18
100
AcDbEntity
  8
文字
100
AcDbText
 10
284.24890571789
 20
240.6500073835072
 30
0.0
 40
3.0
  1
S=2／1
  7
STYLE3
100
AcDbText
  0
LINE
  5
1671
330
18
100
AcDbEntity
  8
外形線
100
AcDbLine
 10
249.7692234777318
 20
239.8644367523545
 30
0.0
 11
299.6356040494995
 21
239.8644367523545
 31
0.0
  0
LINE
  5
1686
330
18
100
AcDbEntity
  8
0
  6
ByBlock
 62
     2
100
AcDbLine
 10
343.3129405031585
 20
315.7724380180887
 30
0.0
 11
343.3129405031585
 21
328.4192441364737
 31
0.0
  0
LINE
  5
1687
330
18
100
AcDbEntity
  8
0
  6
ByBlock
 62
     2
100
AcDbLine
 10
349.3129405031585
 20
315.7724380180887
 30
0.0
 11
349.3129405031585
 21
328.4192441364737
 31
0.0
  0
LINE
  5
1688
330
18
100
AcDbEntity
  8
0
  6
ByBlock
 62
     2
100
AcDbLine
 10
340.8129405031585
 20
327.1692441364737
 30
0.0
 11
338.3129405031585
 21
327.1692441364737
 31
0.0
  0
LINE
  5
1689
330
18
100
AcDbEntity
  8
0
  6
ByBlock
 62
     2
100
AcDbLine
 10
351.8129405031585
 20
327.1692441364737
 30
0.0
 11
354.3129405031585
 21
327.1692441364737
 31
0.0
  0
LINE
  5
168A
330
18
100
AcDbEntity
  8
0
  6
ByBlock
 62
     2
100
AcDbLine
 10
343.3129405031585
 20
327.1692441364737
 30
0.0
 11
349.3129405031585
 21
327.1692441364737
 31
0.0
  0
INSERT
  5
168B
330
18
100
AcDbEntity
  8
0
  6
ByBlock
 62
     2
100
AcDbBlockReference
  2
_OPEN
 10
343.3129405031585
 20
327.1692441364737
 30
0.0
 41
2.5
 42
2.5
 43
2.5
  0
INSERT
  5
168C
330
18
100
AcDbEntity
  8
0
  6
ByBlock
 62
     2
100
AcDbBlockReference
  2
_OPEN
 10
349.3129405031585
 20
327.1692441364737
 30
0.0
 41
2.5
 42
2.5
 43
2.5
 50
180.0
  0
MTEXT
  5
168D
330
18
100
AcDbEntity
  8
0
  6
ByBlock
 62
     6
100
AcDbMText
 10
345.7881413605684
 20
330.5514757772014
 30
0.0
 40
2.5
 41
0.0
 71
     5
 72
     1
  1
\A1;φ6.0
  7
STYLE3
 73
     1
 44
1.0
  0
POINT
  5
168E
330
18
100
AcDbEntity
  8
DEFPOINTS
  6
ByBlock
 62
     0
100
AcDbPoint
 10
414.7406585811072
 20
315.7224380180887
 30
0.0
  0
POINT
  5
168F
330
18
100
AcDbEntity
  8
DEFPOINTS
  6
ByBlock
 62
     0
100
AcDbPoint
 10
420.7406585811072
 20
315.7224380180887
 30
0.0
  0
POINT
  5
1690
330
18
100
AcDbEntity
  8
DEFPOINTS
  6
ByBlock
 62
     0
100
AcDbPoint
 10
349.3129405031585
 20
327.1692441364737
 30
0.0
  0
LINE
  5
16CC
330
18
100
AcDbEntity
  8
中心線
 48
0.5
100
AcDbLine
 10
325.3286892403175
 20
276.4262855953821
 30
0.0
 11
368.2619846451315
 21
276.4262855953821
 31
0.0
  0
LINE
  5
16CD
330
18
100
AcDbEntity
  8
中心線
 48
0.5
100
AcDbLine
 10
346.3129405031585
 20
318.3986872011084
 30
0.0
 11
346.3129405031585
 21
223.3960101895923
 31
0.0
  0
LINE
  5
16DF
330
18
100
AcDbEntity
  8
中心線
 48
0.4
100
AcDbLine
 10
339.9438222367825
 20
238.9262855953821
 30
0.0
 11
352.4777052951717
 21
238.9262855953821
 31
0.0
  0
ARC
  5
16E1
330
18
100
AcDbEntity
  8
外形線
100
AcDbCircle
 10
346.3129405031585
 20
238.9262855953821
 30
0.0
 40
3.5
100
AcDbArc
 50
190.3876411553972
 51
349.6123588445924
  0
LINE
  5
16E2
330
18
100
AcDbEntity
  8
外形線
100
AcDbLine
 10
353.3129405031585
 20
300.576285595382
 30
0.0
 11
353.3129405031585
 21
292.4653005277275
 31
0.0
  0
LINE
  5
16E3
330
18
100
AcDbEntity
  8
外形線
100
AcDbLine
 10
339.3129405031585
 20
300.576285595382
 30
0.0
 11
339.3129405031584
 21
292.4653005277275
 31
0.0
  0
LINE
  5
16E4
330
18
100
AcDbEntity
  8
外形線
100
AcDbLine
 10
339.3129405031585
 20
298.9262855953821
 30
0.0
 11
353.3129405031585
 21
298.9262855953821
 31
0.0
  0
LINE
  5
16E5
330
18
100
AcDbEntity
  8
外形線
100
AcDbLine
 10
339.3129405031585
 20
300.576285595382
 30
0.0
 11
353.3129405031585
 21
300.576285595382
 31
0.0
  0
LINE
  5
16E7
330
18
100
AcDbEntity
  8
外形線
100
AcDbLine
 10
353.3129405031585
 20
253.9262855953821
 30
0.0
 11
349.7555768554458
 21
238.2952111576888
 31
0.0
  0
LINE
  5
16EF
330
18
100
AcDbEntity
  8
外形線
100
AcDbLine
 10
354.9218018366614
 20
253.5601364323909
 30
0.0
 11
352.2741375180341
 21
241.9262855953821
 31
0.0
  0
LINE
  5
16F0
330
18
100
AcDbEntity
  8
外形線
100
AcDbLine
 10
353.3129405031585
 20
253.9262855953821
 30
0.0
 11
354.9218018366614
 21
253.5601364323909
 31
0.0
  0
LINE
  5
16F1
330
18
100
AcDbEntity
  8
外形線
100
AcDbLine
 10
350.581946933733
 20
241.9262855953821
 30
0.0
 11
352.2741375180341
 21
241.9262855953821
 31
0.0
  0
LINE
  5
16F2
330
18
100
AcDbEntity
  8
外形線
100
AcDbLine
 10
337.7040791696555
 20
253.5601364323909
 30
0.0
 11
340.3517434882828
 21
241.9262855953821
 31
0.0
  0
LINE
  5
16F3
330
18
100
AcDbEntity
  8
外形線
100
AcDbLine
 10
342.0439340725839
 20
241.9262855953821
 30
0.0
 11
340.3517434882828
 21
241.9262855953821
 31
0.0
  0
LINE
  5
16F4
330
18
100
AcDbEntity
  8
外形線
100
AcDbLine
 10
339.3129405031585
 20
253.9262855953821
 30
0.0
 11
337.7040791696555
 21
253.5601364323909
 31
0.0
  0
LINE
  5
16F5
330
18
100
AcDbEntity
  8
外形線
100
AcDbLine
 10
339.3129405031585
 20
253.9262855953821
 30
0.0
 11
342.8703041508712
 21
238.2952111576888
 31
0.0
  0
CIRCLE
  5
172C
330
18
100
AcDbEntity
  8
外形線
100
AcDbCircle
 10
346.3129405031585
 20
238.9262855953822
 30
0.0
 40
2.0
  0
LINE
  5
172D
330
18
100
AcDbEntity
  8
外形線
100
AcDbLine
 10
344.8987269407854
 20
237.5120720330091
 30
0.0
 11
347.7271540655316
 21
240.3404991577553
 31
0.0
  0
ARC
  5
172E
330
18
100
AcDbEntity
  8
外形線
100
AcDbCircle
 10
346.3129405031585
 20
238.9262855953821
 30
0.0
 40
3.0
100
AcDbArc
 50
234.5940682268605
 51
35.4059317731395
  0
ARC
  5
172F
330
18
100
AcDbEntity
  8
外形線
100
AcDbCircle
 10
346.3129405031585
 20
238.9262855953821
 30
0.0
 40
3.0
100
AcDbArc
 50
54.59406822686052
 51
215.4059317731395
  0
LINE
  5
1739
330
18
100
AcDbEntity
  8
外形線
100
AcDbLine
 10
344.1916201595988
 20
237.5120720330091
 30
0.0
 11
343.8677370462299
 21
237.1881889196402
 31
0.0
  0
LINE
  5
173A
330
18
100
AcDbEntity
  8
外形線
100
AcDbLine
 10
344.8987269407854
 20
236.8049652518225
 30
0.0
 11
344.5748438274166
 21
236.4810821384537
 31
0.0
  0
LINE
  5
173B
330
18
100
AcDbEntity
  8
外形線
100
AcDbLine
 10
344.8987269407854
 20
236.8049652518225
 30
0.0
 11
344.1916201595988
 21
237.5120720330091
 31
0.0
  0
POINT
  5
1741
330
18
100
AcDbEntity
  8
DEFPOINTS
  6
ByBlock
 62
     0
100
AcDbPoint
 10
346.3129405031585
 20
238.9262855953822
 30
0.0
  0
POINT
  5
1742
330
18
100
AcDbEntity
  8
DEFPOINTS
  6
ByBlock
 62
     0
100
AcDbPoint
 10
346.3129405031585
 20
238.9262855953822
 30
0.0
  0
LINE
  5
1743
330
18
100
AcDbEntity
  8
外形線
100
AcDbLine
 10
347.7271540655316
 20
241.0476059389417
 30
0.0
 11
348.0510371789003
 21
241.3714890523106
 31
0.0
  0
LINE
  5
1744
330
18
100
AcDbEntity
  8
外形線
100
AcDbLine
 10
348.434260846718
 20
240.3404991577552
 30
0.0
 11
347.7271540655316
 21
241.0476059389417
 31
0.0
  0
LINE
  5
1745
330
18
100
AcDbEntity
  8
外形線
100
AcDbLine
 10
348.434260846718
 20
240.3404991577552
 30
0.0
 11
348.7581439600869
 21
240.6643822711241
 31
0.0
  0
LINE
  5
1746
330
18
100
AcDbEntity
  8
外形線
100
AcDbLine
 10
340.428096210674
 20
249.0262855953821
 30
0.0
 11
352.197784795643
 21
249.0262855953821
 31
0.0
  0
LINE
  5
1765
330
18
100
AcDbEntity
  8
中心線
100
AcDbLine
 10
348.6690831688445
 20
254.9262855953821
 30
0.0
 11
353.6438980503715
 21
254.9262855953821
 31
0.0
  0
LINE
  5
1766
330
18
100
AcDbEntity
  8
中心線
100
AcDbLine
 10
351.0629405031585
 20
257.3182506119437
 30
0.0
 11
351.0629405031585
 21
252.4092850477321
 31
0.0
  0
CIRCLE
  5
1769
330
18
100
AcDbEntity
  8
外形線
100
AcDbCircle
 10
346.3129405031585
 20
276.4262855953821
 30
0.0
 40
17.5
  0
LINE
  5
176A
330
18
100
AcDbEntity
  8
外形線
100
AcDbLine
 10
353.3129405031585
 20
260.3872706630367
 30
0.0
 11
353.3129405031585
 21
253.9262855953822
 31
0.0
  0
LINE
  5
176B
330
18
100
AcDbEntity
  8
外形線
100
AcDbLine
 10
339.3129405031584
 20
260.3872706630367
 30
0.0
 11
339.3129405031584
 21
253.926285595382
 31
0.0
  0
CIRCLE
  5
176C
330
18
100
AcDbEntity
  8
外形線
100
AcDbCircle
 10
351.0629405031585
 20
254.9262855953821
 30
0.0
 40
1.5
  0
LINE
  5
176D
330
18
100
AcDbEntity
  8
外形線
100
AcDbLine
 10
350.4191656181766
 20
254.3860943268327
 30
0.0
 11
351.7067153881403
 21
255.4664768639316
 31
0.0
  0
LINE
  5
176E
330
18
100
AcDbEntity
  8
外形線
100
AcDbLine
 10
351.6031317717079
 20
254.2825107104003
 30
0.0
 11
350.522749234609
 21
255.5700604803639
 31
0.0
  0
LINE
  5
176F
330
18
100
AcDbEntity
  8
中心線
100
AcDbLine
 10
343.9567978374725
 20
254.9262855953821
 30
0.0
 11
338.9819829559454
 21
254.9262855953821
 31
0.0
  0
CIRCLE
  5
1770
330
18
100
AcDbEntity
  8
外形線
100
AcDbCircle
 10
341.5629405031585
 20
254.9262855953821
 30
0.0
 40
1.5
  0
LINE
  5
1771
330
18
100
AcDbEntity
  8
中心線
100
AcDbLine
 10
341.5629405031585
 20
257.3182506119437
 30
0.0
 11
341.5629405031585
 21
252.4092850477321
 31
0.0
  0
LINE
  5
1772
330
18
100
AcDbEntity
  8
外形線
100
AcDbLine
 10
341.0227492346091
 20
254.2825107104003
 30
0.0
 11
342.103131771708
 21
255.5700604803639
 31
0.0
  0
LINE
  5
1773
330
18
100
AcDbEntity
  8
外形線
100
AcDbLine
 10
342.2067153881404
 20
254.3860943268327
 30
0.0
 11
340.9191656181767
 21
255.4664768639316
 31
0.0
  0
LINE
  5
1775
330
18
100
AcDbEntity
  8
外形線
100
AcDbLine
 10
342.2067153881404
 20
295.4664768639315
 30
0.0
 11
340.9191656181767
 21
294.3860943268326
 31
0.0
  0
CIRCLE
  5
1776
330
18
100
AcDbEntity
  8
外形線
100
AcDbCircle
 10
341.5629405031585
 20
294.9262855953821
 30
0.0
 40
1.5
  0
LINE
  5
1777
330
18
100
AcDbEntity
  8
中心線
100
AcDbLine
 10
343.9567978374725
 20
294.9262855953821
 30
0.0
 11
338.9819829559454
 21
294.9262855953821
 31
0.0
  0
LINE
  5
1778
330
18
100
AcDbEntity
  8
外形線
100
AcDbLine
 10
341.0227492346091
 20
295.5700604803638
 30
0.0
 11
342.103131771708
 21
294.2825107104002
 31
0.0
  0
LINE
  5
1779
330
18
100
AcDbEntity
  8
中心線
100
AcDbLine
 10
341.5629405031585
 20
292.5343205788205
 30
0.0
 11
341.5629405031585
 21
297.4432861430321
 31
0.0
  0
CIRCLE
  5
177A
330
18
100
AcDbEntity
  8
外形線
100
AcDbCircle
 10
351.0629405031585
 20
294.9262855953821
 30
0.0
 40
1.5
  0
LINE
  5
177B
330
18
100
AcDbEntity
  8
中心線
100
AcDbLine
 10
351.0629405031585
 20
292.5343205788205
 30
0.0
 11
351.0629405031585
 21
297.4432861430321
 31
0.0
  0
LINE
  5
177C
330
18
100
AcDbEntity
  8
外形線
100
AcDbLine
 10
351.6031317717079
 20
295.5700604803638
 30
0.0
 11
350.522749234609
 21
294.2825107104002
 31
0.0
  0
LINE
  5
177D
330
18
100
AcDbEntity
  8
外形線
100
AcDbLine
 10
350.4191656181766
 20
295.4664768639315
 30
0.0
 11
351.7067153881403
 21
294.3860943268326
 31
0.0
  0
LINE
  5
177E
330
18
100
AcDbEntity
  8
中心線
100
AcDbLine
 10
348.6690831688445
 20
294.9262855953821
 30
0.0
 11
353.6438980503715
 21
294.9262855953821
 31
0.0
  0
LINE
  5
17AB
330
18
100
AcDbEntity
  8
外形線
100
AcDbLine
 10
421.2906585811073
 20
298.9262855953821
 30
0.0
 11
421.2906585811072
 21
235.4262855953821
 31
0.0
  0
LINE
  5
17AC
330
18
100
AcDbEntity
  8
外形線
100
AcDbLine
 10
419.5906585811072
 20
241.4262855953821
 30
0.0
 11
419.5906585811072
 21
235.4262855953821
 31
0.0
  0
LINE
  5
17AD
330
18
100
AcDbEntity
  8
外形線
100
AcDbLine
 10
419.2406585811071
 20
241.9032551960905
 30
0.0
 11
419.2406585811073
 21
235.7262855953821
 31
0.0
  0
LINE
  5
17AE
330
18
100
AcDbEntity
  8
外形線
100
AcDbLine
 10
412.7406585811072
 20
240.926285595382
 30
0.0
 11
412.7406585811072
 21
236.926285595382
 31
0.0
  0
LINE
  5
17AF
330
18
100
AcDbEntity
  8
外形線
100
AcDbLine
 10
413.2406585811072
 20
241.926285595382
 30
0.0
 11
413.2406585811072
 21
235.9262855953821
 31
0.0
  0
LINE
  5
17B0
330
18
100
AcDbEntity
  8
外形線
100
AcDbLine
 10
414.1906585811072
 20
235.926285595382
 30
0.0
 11
413.2406585811072
 21
235.9262855953821
 31
0.0
  0
LINE
  5
17B1
330
18
100
AcDbEntity
  8
外形線
100
AcDbLine
 10
413.2406585811072
 20
236.926285595382
 30
0.0
 11
412.7406585811072
 21
236.926285595382
 31
0.0
  0
LINE
  5
17B2
330
18
100
AcDbEntity
  8
外形線
100
AcDbLine
 10
414.1906585811072
 20
241.9262855953821
 30
0.0
 11
413.2406585811072
 21
241.926285595382
 31
0.0
  0
LINE
  5
17B3
330
18
100
AcDbEntity
  8
外形線
100
AcDbLine
 10
413.2406585811072
 20
240.926285595382
 30
0.0
 11
412.7406585811072
 21
240.926285595382
 31
0.0
  0
LINE
  5
17B4
330
18
100
AcDbEntity
  8
外形線
100
AcDbLine
 10
414.1906585811072
 20
298.9262855953821
 30
0.0
 11
414.1906585811072
 21
289.426285595382
 31
0.0
  0
LINE
  5
17B5
330
18
100
AcDbEntity
  8
外形線
100
AcDbLine
 10
415.8906585811072
 20
241.4262855953821
 30
0.0
 11
415.8906585811072
 21
235.4262855953821
 31
0.0
  0
LINE
  5
17B6
330
18
100
AcDbEntity
  8
外形線
100
AcDbLine
 10
414.1906585811072
 20
235.4262855953821
 30
0.0
 11
415.8906585811072
 21
235.4262855953821
 31
0.0
  0
LINE
  5
17C8
330
18
100
AcDbEntity
  8
外形線
100
AcDbLine
 10
414.7406585811072
 20
241.9262855953821
 30
0.0
 11
420.7406585811073
 21
241.9262855953821
 31
0.0
  0
ARC
  5
17C9
330
18
100
AcDbEntity
  8
外形線
100
AcDbCircle
 10
419.0906585811072
 20
241.4262855953821
 30
0.0
 40
0.5
100
AcDbArc
 50
360.0
 51
90.0
  0
ARC
  5
17CB
330
18
100
AcDbEntity
  8
外形線
100
AcDbCircle
 10
416.3906585811073
 20
241.4262855953821
 30
0.0
 40
0.5
100
AcDbArc
 50
90.0
 51
180.0
  0
LINE
  5
17CE
330
18
100
AcDbEntity
  8
中心線
 48
0.5
100
AcDbLine
 10
417.7406585811072
 20
317.6404394292703
 30
0.0
 11
417.7406585811072
 21
295.8399566443
 31
0.0
  0
LINE
  5
17CF
330
18
100
AcDbEntity
  8
外形線
100
AcDbLine
 10
420.7406585811073
 20
253.9262855953821
 30
0.0
 11
420.7406585811073
 21
241.9262855953821
 31
0.0
  0
LINE
  5
17D0
330
18
100
AcDbEntity
  8
外形線
100
AcDbLine
 10
414.7406585811072
 20
253.9262855953821
 30
0.0
 11
414.7406585811072
 21
241.9262855953821
 31
0.0
  0
LINE
  5
17D1
330
18
100
AcDbEntity
  8
外形線
100
AcDbLine
 10
414.1906585811072
 20
253.9262855953821
 30
0.0
 11
420.7406585811073
 21
253.9262855953821
 31
0.0
  0
LINE
  5
17D2
330
18
100
AcDbEntity
  8
外形線
100
AcDbLine
 10
414.7406585811072
 20
253.5601364323909
 30
0.0
 11
420.7406585811073
 21
253.5601364323909
 31
0.0
  0
LINE
  5
17D3
330
18
100
AcDbEntity
  8
外形線
100
AcDbLine
 10
420.7406585811073
 20
253.9262855953821
 30
0.0
 11
421.2906585811072
 21
253.9262855953821
 31
0.0
  0
LINE
  5
17D4
330
18
100
AcDbEntity
  8
外形線
100
AcDbLine
 10
414.1906585811072
 20
249.0262855953821
 30
0.0
 11
414.7406585811072
 21
249.0262855953821
 31
0.0
  0
LINE
  5
17D5
330
18
100
AcDbEntity
  8
外形線
100
AcDbLine
 10
414.1906585811072
 20
298.9262855953821
 30
0.0
 11
415.7906585811073
 21
298.9262855953823
 31
0.0
  0
LINE
  5
17D6
330
18
100
AcDbEntity
  8
外形線
100
AcDbLine
 10
414.7406585811073
 20
300.576285595382
 30
0.0
 11
420.7406585811072
 21
300.576285595382
 31
0.0
  0
LINE
  5
17D7
330
18
100
AcDbEntity
  8
外形線
100
AcDbLine
 10
419.7519210243775
 20
298.9262855953821
 30
0.0
 11
421.2906585811073
 21
298.9262855953821
 31
0.0
  0
LINE
  5
17D9
330
18
100
AcDbEntity
  8
外形線
100
AcDbLine
 10
415.7906585811073
 20
298.9262855953823
 30
0.0
 11
415.7906585811073
 21
253.9262855953821
 31
0.0
  0
LINE
  5
17EC
330
18
100
AcDbEntity
  8
中心線
100
AcDbLine
 10
412.6531106466376
 20
294.9262855953821
 30
0.0
 11
417.6279255281646
 21
294.9262855953821
 31
0.0
  0
LINE
  5
17EE
330
18
100
AcDbEntity
  8
外形線
 48
0.5
100
AcDbLine
 10
413.4906585811072
 20
291.426285595382
 30
0.0
 11
414.1906585811072
 21
291.426285595382
 31
0.0
  0
LINE
  5
17EF
330
18
100
AcDbEntity
  8
外形線
100
AcDbLine
 10
412.9906585811072
 20
290.9262855953821
 30
0.0
 11
412.9906585811072
 21
261.9262855953821
 31
0.0
  0
ARC
  5
17F0
330
18
100
AcDbEntity
  8
外形線
 48
0.5
100
AcDbCircle
 10
413.4906585811072
 20
290.9262855953821
 30
0.0
 40
0.5
100
AcDbArc
 50
90.0
 51
180.0
  0
LINE
  5
17F1
330
18
100
AcDbEntity
  8
外形線
 48
0.5
100
AcDbLine
 10
412.9906585811072
 20
289.4262855953821
 30
0.0
 11
414.1906585811072
 21
289.426285595382
 31
0.0
  0
LINE
  5
17F2
330
18
100
AcDbEntity
  8
外形線
 48
0.5
100
AcDbLine
 10
412.9906585811072
 20
263.4262855953821
 30
0.0
 11
414.1906585811072
 21
263.4262855953821
 31
0.0
  0
LINE
  5
17F3
330
18
100
AcDbEntity
  8
外形線
 48
0.5
100
AcDbLine
 10
413.4906585811072
 20
261.4262855953821
 30
0.0
 11
414.1906585811072
 21
261.4262855953821
 31
0.0
  0
ARC
  5
17F4
330
18
100
AcDbEntity
  8
外形線
 48
0.5
100
AcDbCircle
 10
413.4906585811072
 20
261.9262855953821
 30
0.0
 40
0.5
100
AcDbArc
 50
180.0
 51
270.0
  0
LINE
  5
17F5
330
18
100
AcDbEntity
  8
外形線
100
AcDbLine
 10
414.1906585811073
 20
235.4262855953821
 30
0.0
 11
414.1906585811072
 21
263.4262855953821
 31
0.0
  0
LINE
  5
17F6
330
18
100
AcDbEntity
  8
中心線
100
AcDbLine
 10
412.6531106466376
 20
257.9262855953821
 30
0.0
 11
417.6279255281646
 21
257.9262855953821
 31
0.0
  0
HATCH
  5
1823
330
18
100
AcDbEntity
  8
外形線
100
AcDbHatch
 10
0.0
 20
0.0
 30
0.0
210
0.0
220
0.0
230
1.0
  2
SOLID
 70
     1
 71
     1
 91
        1
 92
        7
 72
     1
 73
     1
 93
        2
 10
339.7686373559505
 20
249.8956625452451
 42
1.0
 10
339.3232615595533
 20
249.8956625452451
 42
1.0
 97
        1
330
1824
 75
     0
 76
     1
 47
0.0200805185115556
 98
        1
 10
339.4214333543362
 20
249.7788761172669
450
        0
451
        0
460
0.0
461
0.0
452
        0
462
0.0
453
        0
470

  0
CIRCLE
  5
1824
102
{ACAD_REACTORS
330
1823
102
}
330
18
100
AcDbEntity
  8
外形線
100
AcDbCircle
 10
339.5459494577519
 20
249.8956625452451
 30
0.0
 40
0.222687898198611
  0
TEXT
  5
1826
330
18
100
AcDbEntity
  8
寸法線
 62
     6
100
AcDbText
 10
328.9992644751498
 20
260.6776778348701
 30
0.0
 40
2.5
  1
B
  7
STYLE3
100
AcDbText
  0
POINT
  5
18B8
330
18
100
AcDbEntity
  8
DEFPOINTS
  6
ByBlock
 62
     0
100
AcDbPoint
 10
346.3129405031585
 20
238.9262855953821
 30
0.0
  0
POINT
  5
18B9
330
18
100
AcDbEntity
  8
DEFPOINTS
  6
ByBlock
 62
     0
100
AcDbPoint
 10
346.3129405031585
 20
238.9262855953821
 30
0.0
  0
LINE
  5
18F2
330
18
100
AcDbEntity
  8
中心線
 48
0.5
100
AcDbLine
 10
415.0467159457892
 20
226.9262855953821
 30
0.0
 11
420.5778627044736
 21
226.9262855953821
 31
0.0
  0
POINT
  5
1934
330
18
100
AcDbEntity
  8
DEFPOINTS
  6
ByBlock
 62
     0
100
AcDbPoint
 10
417.9906585811072
 20
226.9262855953821
 30
0.0
  0
POINT
  5
1935
330
18
100
AcDbEntity
  8
DEFPOINTS
  6
ByBlock
 62
     0
100
AcDbPoint
 10
418.5147765296476
 20
226.0746399084806
 30
0.0
  0
LINE
  5
1936
330
18
100
AcDbEntity
  8
隠れ線
 62
     4
 48
0.3
100
AcDbLine
 10
417.9906585811072
 20
227.926285595382
 30
0.0
 11
417.3895219211861
 21
227.7262855953821
 31
0.0
  0
LINE
  5
1937
330
18
100
AcDbEntity
  8
隠れ線
 62
     4
 48
0.3
100
AcDbLine
 10
417.9906585811072
 20
227.926285595382
 30
0.0
 11
418.5917952410283
 21
227.7262855953821
 31
0.0
  0
ARC
  5
1938
330
18
100
AcDbEntity
  8
外形線
100
AcDbCircle
 10
417.9906585811072
 20
226.9262855953821
 30
0.0
 40
1.0
100
AcDbArc
 50
126.869897645842
 51
53.13010235415791
  0
LINE
  5
1939
330
18
100
AcDbEntity
  8
外形線
100
AcDbLine
 10
418.5917952410283
 20
227.7262855953821
 30
0.0
 11
417.389521921186
 21
227.7262855953821
 31
0.0
  0
LINE
  5
193A
330
18
100
AcDbEntity
  8
外形線
100
AcDbLine
 10
419.0906585811072
 20
233.2262855953821
 30
0.0
 11
418.5917952410283
 21
227.7262855953821
 31
0.0
  0
LINE
  5
193B
330
18
100
AcDbEntity
  8
外形線
100
AcDbLine
 10
416.8906585811073
 20
233.2262855953821
 30
0.0
 11
417.3895219211861
 21
227.7262855953821
 31
0.0
  0
LINE
  5
193C
330
18
100
AcDbEntity
  8
外形線
100
AcDbLine
 10
416.8906585811072
 20
233.726285595382
 30
0.0
 11
416.8906585811073
 21
233.2262855953821
 31
0.0
  0
LINE
  5
193D
330
18
100
AcDbEntity
  8
外形線
100
AcDbLine
 10
416.8906585811072
 20
233.726285595382
 30
0.0
 11
419.0906585811072
 21
233.726285595382
 31
0.0
  0
LINE
  5
193E
330
18
100
AcDbEntity
  8
外形線
100
AcDbLine
 10
419.0906585811072
 20
233.726285595382
 30
0.0
 11
419.0906585811072
 21
233.2262855953821
 31
0.0
  0
LINE
  5
193F
330
18
100
AcDbEntity
  8
外形線
100
AcDbLine
 10
416.8906585811072
 20
234.2262855953821
 30
0.0
 11
417.3406585811072
 21
233.976285595382
 31
0.0
  0
LINE
  5
1940
330
18
100
AcDbEntity
  8
外形線
100
AcDbLine
 10
416.8906585811072
 20
233.726285595382
 30
0.0
 11
417.3406585811072
 21
233.976285595382
 31
0.0
  0
LINE
  5
1941
330
18
100
AcDbEntity
  8
外形線
100
AcDbLine
 10
419.0906585811072
 20
233.726285595382
 30
0.0
 11
418.6406585811072
 21
233.976285595382
 31
0.0
  0
LINE
  5
1942
330
18
100
AcDbEntity
  8
外形線
 62
     4
100
AcDbLine
 10
418.6406585811071
 20
233.976285595382
 30
0.0
 11
417.3406585811072
 21
233.976285595382
 31
0.0
  0
LINE
  5
1943
330
18
100
AcDbEntity
  8
外形線
100
AcDbLine
 10
419.0906585811072
 20
234.2262855953821
 30
0.0
 11
418.6406585811072
 21
233.976285595382
 31
0.0
  0
LINE
  5
1944
330
18
100
AcDbEntity
  8
外形線
100
AcDbLine
 10
419.0906585811072
 20
233.2262855953821
 30
0.0
 11
416.8906585811073
 21
233.2262855953821
 31
0.0
  0
LINE
  5
1945
330
18
100
AcDbEntity
  8
外形線
100
AcDbLine
 10
419.0906585811072
 20
234.226285595382
 30
0.0
 11
416.8906585811071
 21
234.226285595382
 31
0.0
  0
LINE
  5
1946
330
18
100
AcDbEntity
  8
外形線
100
AcDbLine
 10
416.9906585811071
 20
235.7262855953822
 30
0.0
 11
416.8906585811072
 21
235.6262855953821
 31
0.0
  0
LINE
  5
1947
330
18
100
AcDbEntity
  8
外形線
100
AcDbLine
 10
416.8906585811072
 20
235.6262855953821
 30
0.0
 11
416.8906585811072
 21
234.226285595382
 31
0.0
  0
LINE
  5
1948
330
18
100
AcDbEntity
  8
外形線
100
AcDbLine
 10
418.9906585811073
 20
235.7262855953822
 30
0.0
 11
419.0906585811072
 21
235.6262855953821
 31
0.0
  0
LINE
  5
1949
330
18
100
AcDbEntity
  8
外形線
100
AcDbLine
 10
419.0906585811072
 20
235.6262855953821
 30
0.0
 11
419.0906585811072
 21
234.226285595382
 31
0.0
  0
LINE
  5
194A
330
18
100
AcDbEntity
  8
外形線
 62
     4
100
AcDbLine
 10
419.0906585811072
 20
235.6262855953821
 30
0.0
 11
416.8906585811071
 21
235.626285595382
 31
0.0
  0
TEXT
  5
1A0C
330
18
100
AcDbEntity
  8
文字
100
AcDbText
 10
353.3448406189557
 20
281.9581953173549
 30
0.0
 40
1.8
  1
40
 41
0.9
  7
STYLE3
100
AcDbText
  0
LINE
  5
1A0D
330
18
100
AcDbEntity
  8
目盛
100
AcDbLine
 10
359.8274735216949
 20
282.9345416821454
 30
0.0
 11
357.5750513519388
 21
281.8498323343515
 31
0.0
  0
LINE
  5
1A0E
330
18
100
AcDbEntity
  8
目盛
100
AcDbLine
 10
332.7984074846221
 20
282.9345416821454
 30
0.0
 11
335.0508296543782
 21
281.8498323343515
 31
0.0
  0
CIRCLE
  5
1A10
330
18
100
AcDbEntity
  8
外形線
100
AcDbCircle
 10
346.3129405031585
 20
276.4262855953821
 30
0.0
 40
15.0
  0
TEXT
  5
1A11
330
18
100
AcDbEntity
  8
文字
100
AcDbText
 10
352.5678313965399
 20
268.9256827328469
 30
0.0
 40
1.8
  1
100
 41
0.9
  7
STYLE3
100
AcDbText
  0
LINE
  5
1A12
330
18
100
AcDbEntity
  8
目盛
100
AcDbLine
 10
354.57639522494
 20
263.9076867895625
 30
0.0
 11
353.7500497527619
 21
265.1595466701444
 31
0.0
  0
LINE
  5
1A13
330
18
100
AcDbEntity
  8
目盛
100
AcDbLine
 10
354.006429664247
 20
263.549553691354
 30
0.0
 11
353.2370807481381
 21
264.8372268817568
 31
0.0
  0
TEXT
  5
1A14
330
18
100
AcDbEntity
  8
文字
100
AcDbText
 10
348.7467246544391
 20
276.016945810807
 30
0.0
 40
0.8
  1
0.002mm
  7
STYLE3
100
AcDbText
  0
TEXT
  5
1A15
330
18
100
AcDbEntity
  8
文字
100
AcDbText
 10
334.363619244228
 20
278.0207134133359
 30
0.0
 40
1.8
  1
60
 41
0.9
  7
STYLE3
100
AcDbText
  0
TEXT
  5
1A16
330
18
100
AcDbEntity
  8
文字
100
AcDbText
 10
334.4746205617161
 20
272.8077076515297
 30
0.0
 40
1.8
  1
80
 41
0.9
  7
STYLE3
100
AcDbText
  0
LINE
  5
1A17
330
18
100
AcDbEntity
  8
目盛
100
AcDbLine
 10
334.1776855875342
 20
267.609506810995
 30
0.0
 11
335.3912110790967
 21
268.4911846894337
 31
0.0
  0
LINE
  5
1A18
330
18
100
AcDbEntity
  8
目盛
100
AcDbLine
 10
333.7943416973389
 20
268.1628308736005
 30
0.0
 11
335.0462015779209
 21
268.9891763457787
 31
0.0
  0
LINE
  5
1A19
330
18
100
AcDbEntity
  8
目盛
100
AcDbLine
 10
334.585468266138
 20
267.073938567501
 30
0.0
 11
336.5400469723081
 21
268.6326630721479
 31
0.0
  0
LINE
  5
1A1A
330
18
100
AcDbEntity
  8
目盛
100
AcDbLine
 10
332.7984074846221
 20
269.9180295086187
 30
0.0
 11
335.0508296543782
 21
271.0027388564126
 31
0.0
  0
LINE
  5
1A1B
330
18
100
AcDbEntity
  8
目盛
100
AcDbLine
 10
333.4362085991305
 20
268.7327964342935
 30
0.0
 11
334.7238817895333
 21
269.5021453504024
 31
0.0
  0
LINE
  5
1A1C
330
18
100
AcDbEntity
  8
目盛
100
AcDbLine
 10
333.1040075253074
 20
269.3182556582871
 30
0.0
 11
334.4249008230925
 21
270.0290586519966
 31
0.0
  0
LINE
  5
1A1D
330
18
100
AcDbEntity
  8
目盛
100
AcDbLine
 10
332.5200239148867
 20
270.5309101205732
 30
0.0
 11
333.8993155737139
 21
271.1204476680541
 31
0.0
  0
LINE
  5
1A1E
330
18
100
AcDbEntity
  8
目盛
100
AcDbLine
 10
332.2694174435625
 20
271.1556632341619
 30
0.0
 11
333.673769749522
 21
271.6827254702839
 31
0.0
  0
LINE
  5
1A1F
330
18
100
AcDbEntity
  8
目盛
100
AcDbLine
 10
332.0470927587312
 20
271.7910306797579
 30
0.0
 11
333.4736775331739
 21
272.2545561713203
 31
0.0
  0
LINE
  5
1A20
330
18
100
AcDbEntity
  8
目盛
100
AcDbLine
 10
331.8534975927207
 20
272.4357329118819
 30
0.0
 11
333.2994418837645
 21
272.834788180232
 31
0.0
  0
LINE
  5
1A21
330
18
100
AcDbEntity
  8
目盛
100
AcDbLine
 10
331.5539966741791
 20
273.7479321734026
 30
0.0
 11
333.0298910570771
 21
274.0157675156005
 31
0.0
  0
LINE
  5
1A22
330
18
100
AcDbEntity
  8
目盛
100
AcDbLine
 10
331.4486940766395
 20
274.4127866081172
 30
0.0
 11
332.9351187192914
 21
274.6141365068437
 31
0.0
  0
LINE
  5
1A23
330
18
100
AcDbEntity
  8
目盛
100
AcDbLine
 10
331.37332609323
 20
275.0816959618306
 30
0.0
 11
332.8672875342228
 21
275.2161549251858
 31
0.0
  0
LINE
  5
1A24
330
18
100
AcDbEntity
  8
目盛
100
AcDbLine
 10
331.6890218204312
 20
273.0884715860374
 30
0.0
 11
334.1263416008857
 21
273.6447739209282
 31
0.0
  0
LINE
  5
1A25
330
18
100
AcDbEntity
  8
目盛
100
AcDbLine
 10
331.3280445050388
 20
275.7533131401244
 30
0.0
 11
332.8265341048508
 21
275.8206103856502
 31
0.0
  0
LINE
  5
1A26
330
18
100
AcDbEntity
  8
目盛
100
AcDbLine
 10
331.3280445050389
 20
277.0992580506398
 30
0.0
 11
332.8265341048508
 21
277.0319608051141
 31
0.0
  0
LINE
  5
1A27
330
18
100
AcDbEntity
  8
目盛
100
AcDbLine
 10
331.37332609323
 20
277.7708752289335
 30
0.0
 11
332.8672875342228
 21
277.6364162655784
 31
0.0
  0
LINE
  5
1A28
330
18
100
AcDbEntity
  8
目盛
100
AcDbLine
 10
331.4486940766395
 20
278.4397845826469
 30
0.0
 11
332.9351187192914
 21
278.2384346839204
 31
0.0
  0
LINE
  5
1A29
330
18
100
AcDbEntity
  8
目盛
100
AcDbLine
 10
331.5539966741791
 20
279.1046390173616
 30
0.0
 11
333.0298910570771
 21
278.8368036751638
 31
0.0
  0
LINE
  5
1A2A
330
18
100
AcDbEntity
  8
目盛
100
AcDbLine
 10
331.3129405031585
 20
276.4262855953821
 30
0.0
 11
333.8129405031585
 21
276.4262855953821
 31
0.0
  0
LINE
  5
1A2B
330
18
100
AcDbEntity
  8
目盛
100
AcDbLine
 10
331.8534975927207
 20
280.4168382788822
 30
0.0
 11
333.2994418837645
 21
280.0177830105322
 31
0.0
  0
LINE
  5
1A2C
330
18
100
AcDbEntity
  8
目盛
100
AcDbLine
 10
332.0470927587312
 20
281.0615405110062
 30
0.0
 11
333.4736775331738
 21
280.5980150194439
 31
0.0
  0
LINE
  5
1A2D
330
18
100
AcDbEntity
  8
目盛
100
AcDbLine
 10
332.2694174435624
 20
281.6969079566021
 30
0.0
 11
333.673769749522
 21
281.1698457204802
 31
0.0
  0
LINE
  5
1A2E
330
18
100
AcDbEntity
  8
目盛
100
AcDbLine
 10
332.5200239148867
 20
282.3216610701909
 30
0.0
 11
333.8993155737139
 21
281.73212352271
 31
0.0
  0
LINE
  5
1A2F
330
18
100
AcDbEntity
  8
目盛
100
AcDbLine
 10
331.6890218204311
 20
279.7640996047268
 30
0.0
 11
334.1263416008856
 21
279.2077972698359
 31
0.0
  0
TEXT
  5
1A30
330
18
100
AcDbEntity
  8
文字
100
AcDbText
 10
343.7987296644203
 20
264.4890825007796
 30
0.0
 40
1.8
  1
140
 41
0.9
  7
STYLE3
100
AcDbText
  0
LINE
  5
1A31
330
18
100
AcDbEntity
  8
目盛
100
AcDbLine
 10
344.2994415158936
 20
261.5620391688631
 30
0.0
 11
344.50079141462
 21
263.048463811515
 31
0.0
  0
TEXT
  5
1A32
330
18
100
AcDbEntity
  8
文字
100
AcDbText
 10
338.74817050186
 20
265.8755203292391
 30
0.0
 40
1.8
  1
120
 41
0.9
  7
STYLE3
100
AcDbText
  0
LINE
  5
1A33
330
18
100
AcDbEntity
  8
目盛
100
AcDbLine
 10
339.2049105660634
 20
263.217352617531
 30
0.0
 11
339.9157135597729
 21
264.5382459153162
 31
0.0
  0
LINE
  5
1A34
330
18
100
AcDbEntity
  8
目盛
100
AcDbLine
 10
338.6194513420698
 20
263.549553691354
 30
0.0
 11
339.3888002581787
 21
264.8372268817569
 31
0.0
  0
LINE
  5
1A35
330
18
100
AcDbEntity
  8
目盛
100
AcDbLine
 10
338.0494857813769
 20
263.9076867895625
 30
0.0
 11
338.875831253555
 21
265.1595466701445
 31
0.0
  0
LINE
  5
1A36
330
18
100
AcDbEntity
  8
目盛
100
AcDbLine
 10
337.4961617187712
 20
264.2910306797579
 30
0.0
 11
338.37783959721
 21
265.5045561713202
 31
0.0
  0
LINE
  5
1A37
330
18
100
AcDbEntity
  8
目盛
100
AcDbLine
 10
336.4438596140628
 20
265.130213605328
 30
0.0
 11
337.4307677029723
 21
266.2598208043334
 31
0.0
  0
LINE
  5
1A38
330
18
100
AcDbEntity
  8
目盛
100
AcDbLine
 10
335.9470007683555
 20
265.5843626379712
 30
0.0
 11
336.9835947418358
 21
266.6685549337123
 31
0.0
  0
LINE
  5
1A39
330
18
100
AcDbEntity
  8
目盛
100
AcDbLine
 10
335.4710175457475
 20
266.0603458605791
 30
0.0
 11
336.5552098414887
 21
267.0969398340594
 31
0.0
  0
LINE
  5
1A3A
330
18
100
AcDbEntity
  8
目盛
100
AcDbLine
 10
335.0168685131043
 20
266.5572047062864
 30
0.0
 11
336.1464757121096
 21
267.544112795196
 31
0.0
  0
LINE
  5
1A3B
330
18
100
AcDbEntity
  8
目盛
100
AcDbLine
 10
336.9605934752773
 20
264.6988133583616
 30
0.0
 11
338.5193179799242
 21
266.6533920645317
 31
0.0
  0
LINE
  5
1A3C
330
18
100
AcDbEntity
  8
目盛
100
AcDbLine
 10
343.6345870811788
 20
261.6673417664027
 30
0.0
 11
343.9024224233768
 21
263.1432361493006
 31
0.0
  0
LINE
  5
1A3D
330
18
100
AcDbEntity
  8
目盛
100
AcDbLine
 10
342.3223878196583
 20
261.9668426849444
 30
0.0
 11
342.7214430880083
 21
263.4127869759881
 31
0.0
  0
LINE
  5
1A3E
330
18
100
AcDbEntity
  8
目盛
100
AcDbLine
 10
341.6776855875343
 20
262.1604378509549
 30
0.0
 11
342.1412110790967
 21
263.5870226253975
 31
0.0
  0
LINE
  5
1A3F
330
18
100
AcDbEntity
  8
目盛
100
AcDbLine
 10
341.0423181419383
 20
262.3827625357861
 30
0.0
 11
341.5693803780603
 21
263.7871148417457
 31
0.0
  0
LINE
  5
1A40
330
18
100
AcDbEntity
  8
目盛
100
AcDbLine
 10
340.4175650283496
 20
262.6333690071103
 30
0.0
 11
341.0071025758304
 21
264.0126606659376
 31
0.0
  0
LINE
  5
1A41
330
18
100
AcDbEntity
  8
目盛
100
AcDbLine
 10
342.9751264938137
 20
261.8023669126547
 30
0.0
 11
343.5314288287045
 21
264.2396866931093
 31
0.0
  0
LINE
  5
1A42
330
18
100
AcDbEntity
  8
目盛
100
AcDbLine
 10
339.8046844163951
 20
262.9117525768458
 30
0.0
 11
340.8893937641889
 21
265.1641747466019
 31
0.0
  0
LINE
  5
1A43
330
18
100
AcDbEntity
  8
目盛
100
AcDbLine
 10
349.6507545125032
 20
261.8023669126547
 30
0.0
 11
349.0944521776124
 21
264.2396866931093
 31
0.0
  0
LINE
  5
1A44
330
18
100
AcDbEntity
  8
目盛
100
AcDbLine
 10
348.991293925138
 20
261.6673417664026
 30
0.0
 11
348.72345858294
 21
263.1432361493006
 31
0.0
  0
LINE
  5
1A45
330
18
100
AcDbEntity
  8
目盛
100
AcDbLine
 10
348.3264394904234
 20
261.5620391688631
 30
0.0
 11
348.1250895916968
 21
263.0484638115149
 31
0.0
  0
LINE
  5
1A46
330
18
100
AcDbEntity
  8
目盛
100
AcDbLine
 10
347.65753013671
 20
261.4866711854535
 30
0.0
 11
347.5230711733548
 21
262.9806326264463
 31
0.0
  0
LINE
  5
1A47
330
18
100
AcDbEntity
  8
目盛
100
AcDbLine
 10
346.9859129584163
 20
261.4413895972623
 30
0.0
 11
346.9186157128904
 21
262.9398791970743
 31
0.0
  0
LINE
  5
1A48
330
18
100
AcDbEntity
  8
目盛
100
AcDbLine
 10
345.6399680479007
 20
261.4413895972624
 30
0.0
 11
345.7072652934265
 21
262.9398791970744
 31
0.0
  0
LINE
  5
1A49
330
18
100
AcDbEntity
  8
目盛
100
AcDbLine
 10
344.9683508696069
 20
261.4866711854535
 30
0.0
 11
345.1028098329621
 21
262.9806326264464
 31
0.0
  0
LINE
  5
1A4A
330
18
100
AcDbEntity
  8
目盛
100
AcDbLine
 10
346.3129405031584
 20
261.4262855953821
 30
0.0
 11
346.3129405031584
 21
263.9262855953821
 31
0.0
  0
TEXT
  5
1A4B
330
18
100
AcDbEntity
  8
文字
100
AcDbText
 10
349.0712906788119
 20
265.7646049935611
 30
0.0
 40
1.8
  1
120
 41
0.9
  7
STYLE3
100
AcDbText
  0
LINE
  5
1A4C
330
18
100
AcDbEntity
  8
目盛
100
AcDbLine
 10
353.4209704402535
 20
263.217352617531
 30
0.0
 11
352.7101674465439
 21
264.538245915316
 31
0.0
  0
LINE
  5
1A4D
330
18
100
AcDbEntity
  8
目盛
100
AcDbLine
 10
352.2083159779674
 20
262.6333690071103
 30
0.0
 11
351.6187784304865
 21
264.0126606659375
 31
0.0
  0
LINE
  5
1A4E
330
18
100
AcDbEntity
  8
目盛
100
AcDbLine
 10
351.5835628643787
 20
262.382762535786
 30
0.0
 11
351.0565006282566
 21
263.7871148417456
 31
0.0
  0
LINE
  5
1A4F
330
18
100
AcDbEntity
  8
目盛
100
AcDbLine
 10
350.9481954187827
 20
262.1604378509548
 30
0.0
 11
350.4846699272202
 21
263.5870226253975
 31
0.0
  0
LINE
  5
1A50
330
18
100
AcDbEntity
  8
目盛
100
AcDbLine
 10
350.3034931866586
 20
261.9668426849443
 30
0.0
 11
349.9044379183086
 21
263.4127869759881
 31
0.0
  0
LINE
  5
1A51
330
18
100
AcDbEntity
  8
目盛
100
AcDbLine
 10
352.8211965899219
 20
262.9117525768458
 30
0.0
 11
351.736487242128
 21
265.1641747466018
 31
0.0
  0
TEXT
  5
1A52
330
18
100
AcDbEntity
  8
文字
100
AcDbText
 10
342.8689330952257
 20
279.4399176512174
 30
0.0
 40
1.0
  1
PIC-TEST
  7
STYLE3
100
AcDbText
  0
TEXT
  5
1A53
330
18
100
AcDbEntity
  8
文字
100
AcDbText
 10
344.0091887223317
 20
271.3941692530012
 30
0.0
 40
1.0
  1
PC-4
  7
STYLE3
100
AcDbText
  0
TEXT
  5
1A54
330
18
100
AcDbEntity
  8
文字
100
AcDbText
 10
335.251629784132
 20
269.1475124941992
 30
0.0
 40
1.8
  1
100
 41
0.9
  7
STYLE3
100
AcDbText
  0
TEXT
  5
1A55
330
18
100
AcDbEntity
  8
文字
100
AcDbText
 10
339.3725060184161
 20
276.0522345461327
 30
0.0
 40
0.8
  1
Jeweled
  7
STYLE3
100
AcDbText
  0
LINE
  5
1A5E
330
18
100
AcDbEntity
  8
目盛
100
AcDbLine
 10
358.4481954187828
 20
267.609506810995
 30
0.0
 11
357.2346699272202
 21
268.4911846894336
 31
0.0
  0
LINE
  5
1A5F
330
18
100
AcDbEntity
  8
目盛
100
AcDbLine
 10
358.0404127401789
 20
267.073938567501
 30
0.0
 11
356.0858340340088
 21
268.6326630721479
 31
0.0
  0
LINE
  5
1A60
330
18
100
AcDbEntity
  8
目盛
100
AcDbLine
 10
357.6090124932127
 20
266.5572047062864
 30
0.0
 11
356.4794052942072
 21
267.5441127951959
 31
0.0
  0
LINE
  5
1A61
330
18
100
AcDbEntity
  8
目盛
100
AcDbLine
 10
357.1548634605694
 20
266.0603458605791
 30
0.0
 11
356.0706711648283
 21
267.0969398340593
 31
0.0
  0
LINE
  5
1A62
330
18
100
AcDbEntity
  8
目盛
100
AcDbLine
 10
356.6788802379615
 20
265.5843626379712
 30
0.0
 11
355.6422862644811
 21
266.6685549337122
 31
0.0
  0
LINE
  5
1A63
330
18
100
AcDbEntity
  8
目盛
100
AcDbLine
 10
356.1820213922542
 20
265.1302136053279
 30
0.0
 11
355.1951133033446
 21
266.2598208043333
 31
0.0
  0
LINE
  5
1A64
330
18
100
AcDbEntity
  8
目盛
100
AcDbLine
 10
355.1297192875455
 20
264.2910306797578
 30
0.0
 11
354.2480414091069
 21
265.5045561713202
 31
0.0
  0
LINE
  5
1A65
330
18
100
AcDbEntity
  8
目盛
100
AcDbLine
 10
355.6652875310394
 20
264.6988133583616
 30
0.0
 11
354.1065630263926
 21
266.6533920645317
 31
0.0
  0
LINE
  5
1A66
330
18
100
AcDbEntity
  8
目盛
100
AcDbLine
 10
360.1058570914302
 20
270.5309101205732
 30
0.0
 11
358.7265654326031
 21
271.1204476680541
 31
0.0
  0
LINE
  5
1A67
330
18
100
AcDbEntity
  8
目盛
100
AcDbLine
 10
359.5218734810095
 20
269.3182556582871
 30
0.0
 11
358.2009801832244
 21
270.0290586519966
 31
0.0
  0
LINE
  5
1A68
330
18
100
AcDbEntity
  8
目盛
100
AcDbLine
 10
359.1896724071864
 20
268.7327964342935
 30
0.0
 11
357.9019992167836
 21
269.5021453504023
 31
0.0
  0
LINE
  5
1A69
330
18
100
AcDbEntity
  8
目盛
100
AcDbLine
 10
358.831539308978
 20
268.1628308736005
 30
0.0
 11
357.579679428396
 21
268.9891763457787
 31
0.0
  0
LINE
  5
1A6A
330
18
100
AcDbEntity
  8
目盛
100
AcDbLine
 10
360.9368591858858
 20
273.0884715860374
 30
0.0
 11
358.4995394054313
 21
273.6447739209281
 31
0.0
  0
LINE
  5
1A6B
330
18
100
AcDbEntity
  8
目盛
100
AcDbLine
 10
359.8274735216947
 20
269.9180295086186
 30
0.0
 11
357.5750513519387
 21
271.0027388564125
 31
0.0
  0
TEXT
  5
1A6C
330
18
100
AcDbEntity
  8
文字
100
AcDbText
 10
355.0653610400201
 20
272.9740804275457
 30
0.0
 40
1.8
  1
80
 41
0.9
  7
STYLE3
100
AcDbText
  0
LINE
  5
1A6D
330
18
100
AcDbEntity
  8
目盛
100
AcDbLine
 10
361.252554913087
 20
275.0816959618306
 30
0.0
 11
359.7585934720942
 21
275.2161549251857
 31
0.0
  0
LINE
  5
1A6E
330
18
100
AcDbEntity
  8
目盛
100
AcDbLine
 10
361.1771869296775
 20
274.4127866081172
 30
0.0
 11
359.6907622870256
 21
274.6141365068437
 31
0.0
  0
LINE
  5
1A6F
330
18
100
AcDbEntity
  8
目盛
100
AcDbLine
 10
361.0718843321379
 20
273.7479321734026
 30
0.0
 11
359.5959899492399
 21
274.0157675156004
 31
0.0
  0
LINE
  5
1A70
330
18
100
AcDbEntity
  8
目盛
100
AcDbLine
 10
360.7723834135963
 20
272.4357329118819
 30
0.0
 11
359.3264391225525
 21
272.8347881802319
 31
0.0
  0
LINE
  5
1A71
330
18
100
AcDbEntity
  8
目盛
100
AcDbLine
 10
360.5787882475858
 20
271.7910306797579
 30
0.0
 11
359.152203473143
 21
272.2545561713202
 31
0.0
  0
LINE
  5
1A72
330
18
100
AcDbEntity
  8
目盛
100
AcDbLine
 10
360.3564635627545
 20
271.1556632341619
 30
0.0
 11
358.9521112567949
 21
271.6827254702839
 31
0.0
  0
LINE
  5
1A73
330
18
100
AcDbEntity
  8
目盛
100
AcDbLine
 10
360.1058570914302
 20
282.3216610701909
 30
0.0
 11
358.726565432603
 21
281.73212352271
 31
0.0
  0
LINE
  5
1A74
330
18
100
AcDbEntity
  8
目盛
100
AcDbLine
 10
360.9368591858858
 20
279.7640996047268
 30
0.0
 11
358.4995394054313
 21
279.207797269836
 31
0.0
  0
TEXT
  5
1A75
330
18
100
AcDbEntity
  8
文字
100
AcDbText
 10
355.231863016252
 20
277.9097980776579
 30
0.0
 40
1.8
  1
60
 41
0.9
  7
STYLE3
100
AcDbText
  0
LINE
  5
1A76
330
18
100
AcDbEntity
  8
目盛
100
AcDbLine
 10
360.3564635627545
 20
281.6969079566022
 30
0.0
 11
358.9521112567949
 21
281.1698457204802
 31
0.0
  0
LINE
  5
1A77
330
18
100
AcDbEntity
  8
目盛
100
AcDbLine
 10
360.5787882475858
 20
281.0615405110064
 30
0.0
 11
359.152203473143
 21
280.5980150194439
 31
0.0
  0
LINE
  5
1A78
330
18
100
AcDbEntity
  8
目盛
100
AcDbLine
 10
360.7723834135963
 20
280.4168382788823
 30
0.0
 11
359.3264391225525
 21
280.0177830105322
 31
0.0
  0
LINE
  5
1A79
330
18
100
AcDbEntity
  8
目盛
100
AcDbLine
 10
361.0718843321379
 20
279.1046390173616
 30
0.0
 11
359.5959899492399
 21
278.8368036751637
 31
0.0
  0
LINE
  5
1A7A
330
18
100
AcDbEntity
  8
目盛
100
AcDbLine
 10
361.1771869296775
 20
278.4397845826469
 30
0.0
 11
359.6907622870256
 21
278.2384346839204
 31
0.0
  0
LINE
  5
1A7B
330
18
100
AcDbEntity
  8
目盛
100
AcDbLine
 10
361.252554913087
 20
277.7708752289336
 30
0.0
 11
359.7585934720942
 21
277.6364162655784
 31
0.0
  0
LINE
  5
1A7C
330
18
100
AcDbEntity
  8
目盛
100
AcDbLine
 10
361.2978365012783
 20
277.0992580506398
 30
0.0
 11
359.7993469014662
 21
277.031960805114
 31
0.0
  0
LINE
  5
1A7D
330
18
100
AcDbEntity
  8
目盛
100
AcDbLine
 10
361.2978365012781
 20
275.7533131401243
 30
0.0
 11
359.7993469014662
 21
275.8206103856501
 31
0.0
  0
LINE
  5
1A7E
330
18
100
AcDbEntity
  8
目盛
100
AcDbLine
 10
361.3129405031585
 20
276.4262855953821
 30
0.0
 11
358.8129405031585
 21
276.4262855953821
 31
0.0
  0
LINE
  5
1A7F
330
18
100
AcDbEntity
  8
目盛
100
AcDbLine
 10
354.0064296642471
 20
289.3030174994101
 30
0.0
 11
353.2370807481382
 21
288.0153443090072
 31
0.0
  0
LINE
  5
1A80
330
18
100
AcDbEntity
  8
目盛
100
AcDbLine
 10
354.57639522494
 20
288.9448844012015
 30
0.0
 11
353.7500497527619
 21
287.6930245206196
 31
0.0
  0
LINE
  5
1A81
330
18
100
AcDbEntity
  8
目盛
100
AcDbLine
 10
333.7943416973389
 20
284.6897403171636
 30
0.0
 11
335.0462015779209
 21
283.8633948449855
 31
0.0
  0
LINE
  5
1A82
330
18
100
AcDbEntity
  8
目盛
100
AcDbLine
 10
334.1776855875342
 20
285.2430643797691
 30
0.0
 11
335.3912110790967
 21
284.3613865013304
 31
0.0
  0
LINE
  5
1A83
330
18
100
AcDbEntity
  8
目盛
100
AcDbLine
 10
334.585468266138
 20
285.7786326232631
 30
0.0
 11
336.5400469723081
 21
284.2199081186162
 31
0.0
  0
LINE
  5
1A84
330
18
100
AcDbEntity
  8
目盛
100
AcDbLine
 10
333.1040075253075
 20
283.534315532477
 30
0.0
 11
334.4249008230925
 21
282.8235125387676
 31
0.0
  0
LINE
  5
1A85
330
18
100
AcDbEntity
  8
目盛
100
AcDbLine
 10
333.4362085991305
 20
284.1197747564706
 30
0.0
 11
334.7238817895333
 21
283.3504258403618
 31
0.0
  0
LINE
  5
1A86
330
18
100
AcDbEntity
  8
目盛
100
AcDbLine
 10
344.2994415158936
 20
291.2905320219011
 30
0.0
 11
344.5007914146201
 21
289.8041073792492
 31
0.0
  0
LINE
  5
1A87
330
18
100
AcDbEntity
  8
目盛
100
AcDbLine
 10
340.4175650283496
 20
290.2192021836538
 30
0.0
 11
341.0071025758305
 21
288.8399105248267
 31
0.0
  0
LINE
  5
1A88
330
18
100
AcDbEntity
  8
目盛
100
AcDbLine
 10
341.0423181419383
 20
290.4698086549781
 30
0.0
 11
341.5693803780603
 21
289.0654563490186
 31
0.0
  0
LINE
  5
1A89
330
18
100
AcDbEntity
  8
目盛
100
AcDbLine
 10
341.6776855875343
 20
290.6921333398094
 30
0.0
 11
342.1412110790968
 21
289.2655485653667
 31
0.0
  0
LINE
  5
1A8A
330
18
100
AcDbEntity
  8
目盛
100
AcDbLine
 10
342.3223878196584
 20
290.88572850582
 30
0.0
 11
342.7214430880084
 21
289.4397842147761
 31
0.0
  0
LINE
  5
1A8B
330
18
100
AcDbEntity
  8
目盛
100
AcDbLine
 10
339.8046844163951
 20
289.9408186139184
 30
0.0
 11
340.889393764189
 21
287.6883964441623
 31
0.0
  0
LINE
  5
1A8C
330
18
100
AcDbEntity
  8
目盛
100
AcDbLine
 10
342.9751264938138
 20
291.0502042781095
 30
0.0
 11
343.5314288287046
 21
288.6128844976549
 31
0.0
  0
LINE
  5
1A8D
330
18
100
AcDbEntity
  8
目盛
100
AcDbLine
 10
339.2049105660634
 20
289.6352185732331
 30
0.0
 11
339.915713559773
 21
288.3143252754481
 31
0.0
  0
TEXT
  5
1A8E
330
18
100
AcDbEntity
  8
文字
100
AcDbText
 10
336.1951409827802
 20
282.6236855114156
 30
0.0
 40
1.8
  1
40
 41
0.9
  7
STYLE3
100
AcDbText
  0
LINE
  5
1A8F
330
18
100
AcDbEntity
  8
目盛
100
AcDbLine
 10
335.0168685131043
 20
286.2953664844777
 30
0.0
 11
336.1464757121098
 21
285.3084583955682
 31
0.0
  0
LINE
  5
1A90
330
18
100
AcDbEntity
  8
目盛
100
AcDbLine
 10
335.4710175457475
 20
286.7922253301851
 30
0.0
 11
336.5552098414887
 21
285.7556313567048
 31
0.0
  0
LINE
  5
1A91
330
18
100
AcDbEntity
  8
目盛
100
AcDbLine
 10
335.9470007683555
 20
287.268208552793
 30
0.0
 11
336.9835947418359
 21
286.184016257052
 31
0.0
  0
LINE
  5
1A92
330
18
100
AcDbEntity
  8
目盛
100
AcDbLine
 10
336.4438596140628
 20
287.7223575854363
 30
0.0
 11
337.4307677029723
 21
286.5927503864309
 31
0.0
  0
LINE
  5
1A93
330
18
100
AcDbEntity
  8
目盛
100
AcDbLine
 10
337.4961617187714
 20
288.5615405110063
 30
0.0
 11
338.3778395972101
 21
287.3480150194439
 31
0.0
  0
LINE
  5
1A94
330
18
100
AcDbEntity
  8
目盛
100
AcDbLine
 10
338.0494857813769
 20
288.9448844012016
 30
0.0
 11
338.8758312535551
 21
287.6930245206197
 31
0.0
  0
LINE
  5
1A95
330
18
100
AcDbEntity
  8
目盛
100
AcDbLine
 10
338.6194513420699
 20
289.3030174994101
 30
0.0
 11
339.3888002581788
 21
288.0153443090073
 31
0.0
  0
LINE
  5
1A96
330
18
100
AcDbEntity
  8
目盛
100
AcDbLine
 10
336.9605934752775
 20
288.1537578324026
 30
0.0
 11
338.5193179799243
 21
286.1991791262326
 31
0.0
  0
TEXT
  5
1A97
330
18
100
AcDbEntity
  8
文字
100
AcDbText
 10
340.0246856529721
 20
285.3411028179931
 30
0.0
 40
1.8
  1
20
 41
0.9
  7
STYLE3
100
AcDbText
  0
LINE
  5
1A99
330
18
100
AcDbEntity
  8
目盛
100
AcDbLine
 10
343.6345870811789
 20
291.1852294243615
 30
0.0
 11
343.9024224233769
 21
289.7093350414635
 31
0.0
  0
LINE
  5
1A9A
330
18
100
AcDbEntity
  8
目盛
100
AcDbLine
 10
352.8211965899219
 20
289.9408186139183
 30
0.0
 11
351.736487242128
 21
287.6883964441623
 31
0.0
  0
LINE
  5
1A9B
330
18
100
AcDbEntity
  8
目盛
100
AcDbLine
 10
349.6507545125032
 20
291.0502042781094
 30
0.0
 11
349.0944521776124
 21
288.6128844976549
 31
0.0
  0
LINE
  5
1A9C
330
18
100
AcDbEntity
  8
目盛
100
AcDbLine
 10
350.3034931866586
 20
290.8857285058198
 30
0.0
 11
349.9044379183086
 21
289.439784214776
 31
0.0
  0
LINE
  5
1A9D
330
18
100
AcDbEntity
  8
目盛
100
AcDbLine
 10
350.9481954187827
 20
290.6921333398094
 30
0.0
 11
350.4846699272202
 21
289.2655485653667
 31
0.0
  0
LINE
  5
1A9E
330
18
100
AcDbEntity
  8
目盛
100
AcDbLine
 10
351.5835628643786
 20
290.4698086549781
 30
0.0
 11
351.0565006282566
 21
289.0654563490185
 31
0.0
  0
LINE
  5
1A9F
330
18
100
AcDbEntity
  8
目盛
100
AcDbLine
 10
352.2083159779673
 20
290.2192021836539
 30
0.0
 11
351.6187784304865
 21
288.8399105248266
 31
0.0
  0
LINE
  5
1AA0
330
18
100
AcDbEntity
  8
目盛
100
AcDbLine
 10
346.3129405031585
 20
291.426285595382
 30
0.0
 11
346.3129405031585
 21
288.9262855953821
 31
0.0
  0
TEXT
  5
1AA1
330
18
100
AcDbEntity
  8
文字
100
AcDbText
 10
345.4082479848519
 20
286.7275406464526
 30
0.0
 40
1.8
  1
0
 41
0.9
  7
STYLE3
100
AcDbText
  0
TEXT
  5
1AA2
330
18
100
AcDbEntity
  8
文字
100
AcDbText
 10
349.7372993668842
 20
285.2856453776548
 30
0.0
 40
1.8
  1
20
 41
0.9
  7
STYLE3
100
AcDbText
  0
LINE
  5
1AA3
330
18
100
AcDbEntity
  8
目盛
100
AcDbLine
 10
353.4209704402536
 20
289.6352185732331
 30
0.0
 11
352.710167446544
 21
288.314325275448
 31
0.0
  0
LINE
  5
1AA4
330
18
100
AcDbEntity
  8
目盛
100
AcDbLine
 10
344.968350869607
 20
291.3659000053107
 30
0.0
 11
345.1028098329621
 21
289.8719385643178
 31
0.0
  0
LINE
  5
1AA5
330
18
100
AcDbEntity
  8
目盛
100
AcDbLine
 10
345.6399680479007
 20
291.4111815935019
 30
0.0
 11
345.7072652934266
 21
289.9126919936898
 31
0.0
  0
LINE
  5
1AA6
330
18
100
AcDbEntity
  8
目盛
100
AcDbLine
 10
346.9859129584162
 20
291.4111815935018
 30
0.0
 11
346.9186157128904
 21
289.9126919936898
 31
0.0
  0
LINE
  5
1AA7
330
18
100
AcDbEntity
  8
目盛
100
AcDbLine
 10
347.65753013671
 20
291.3659000053107
 30
0.0
 11
347.5230711733548
 21
289.8719385643178
 31
0.0
  0
LINE
  5
1AA8
330
18
100
AcDbEntity
  8
目盛
100
AcDbLine
 10
348.3264394904233
 20
291.2905320219011
 30
0.0
 11
348.1250895916969
 21
289.8041073792492
 31
0.0
  0
LINE
  5
1AA9
330
18
100
AcDbEntity
  8
目盛
100
AcDbLine
 10
348.9912939251381
 20
291.1852294243615
 30
0.0
 11
348.72345858294
 21
289.7093350414636
 31
0.0
  0
LINE
  5
1AAA
330
18
100
AcDbEntity
  8
目盛
100
AcDbLine
 10
358.831539308978
 20
284.6897403171637
 30
0.0
 11
357.579679428396
 21
283.8633948449855
 31
0.0
  0
LINE
  5
1AAB
330
18
100
AcDbEntity
  8
目盛
100
AcDbLine
 10
359.1896724071864
 20
284.1197747564707
 30
0.0
 11
357.9019992167837
 21
283.3504258403617
 31
0.0
  0
LINE
  5
1AAC
330
18
100
AcDbEntity
  8
目盛
100
AcDbLine
 10
359.5218734810096
 20
283.5343155324771
 30
0.0
 11
358.2009801832245
 21
282.8235125387676
 31
0.0
  0
LINE
  5
1AAD
330
18
100
AcDbEntity
  8
目盛
100
AcDbLine
 10
355.1297192875456
 20
288.5615405110062
 30
0.0
 11
354.2480414091069
 21
287.3480150194439
 31
0.0
  0
LINE
  5
1AAE
330
18
100
AcDbEntity
  8
目盛
100
AcDbLine
 10
356.1820213922542
 20
287.7223575854362
 30
0.0
 11
355.1951133033446
 21
286.5927503864308
 31
0.0
  0
LINE
  5
1AAF
330
18
100
AcDbEntity
  8
目盛
100
AcDbLine
 10
356.6788802379615
 20
287.2682085527929
 30
0.0
 11
355.6422862644812
 21
286.1840162570518
 31
0.0
  0
LINE
  5
1AB0
330
18
100
AcDbEntity
  8
目盛
100
AcDbLine
 10
357.1548634605694
 20
286.792225330185
 30
0.0
 11
356.0706711648283
 21
285.7556313567047
 31
0.0
  0
LINE
  5
1AB1
330
18
100
AcDbEntity
  8
目盛
100
AcDbLine
 10
357.6090124932127
 20
286.2953664844777
 30
0.0
 11
356.4794052942073
 21
285.3084583955681
 31
0.0
  0
LINE
  5
1AB2
330
18
100
AcDbEntity
  8
目盛
100
AcDbLine
 10
355.6652875310395
 20
288.1537578324025
 30
0.0
 11
354.1065630263927
 21
286.1991791262324
 31
0.0
  0
LINE
  5
1AB3
330
18
100
AcDbEntity
  8
目盛
100
AcDbLine
 10
358.4481954187827
 20
285.2430643797692
 30
0.0
 11
357.2346699272202
 21
284.3613865013304
 31
0.0
  0
LINE
  5
1AB4
330
18
100
AcDbEntity
  8
目盛
100
AcDbLine
 10
358.0404127401789
 20
285.7786326232631
 30
0.0
 11
356.0858340340088
 21
284.2199081186162
 31
0.0
  0
LINE
  5
1ACF
330
18
100
AcDbEntity
  8
中心線
 48
0.5
100
AcDbLine
 10
343.3689978678404
 20
226.9262855953821
 30
0.0
 11
348.9001446265249
 21
226.9262855953821
 31
0.0
  0
LINE
  5
1AD0
330
18
100
AcDbEntity
  8
外形線
100
AcDbLine
 10
346.9140771630796
 20
227.7262855953821
 30
0.0
 11
345.7118038432373
 21
227.7262855953822
 31
0.0
  0
ARC
  5
1AD1
330
18
100
AcDbEntity
  8
外形線
100
AcDbCircle
 10
346.3129405031585
 20
226.9262855953821
 30
0.0
 40
1.0
100
AcDbArc
 50
126.869897645842
 51
53.13010235415791
  0
LINE
  5
1AD2
330
18
100
AcDbEntity
  8
隠れ線
 62
     4
 48
0.3
100
AcDbLine
 10
346.3129405031585
 20
227.9262855953821
 30
0.0
 11
346.9140771630796
 21
227.7262855953821
 31
0.0
  0
LINE
  5
1AD3
330
18
100
AcDbEntity
  8
隠れ線
 62
     4
 48
0.3
100
AcDbLine
 10
346.3129405031585
 20
227.9262855953821
 30
0.0
 11
345.7118038432373
 21
227.7262855953821
 31
0.0
  0
POINT
  5
1AD4
330
18
100
AcDbEntity
  8
DEFPOINTS
  6
ByBlock
 62
     0
100
AcDbPoint
 10
346.8370584516989
 20
226.0746399084807
 30
0.0
  0
POINT
  5
1AD5
330
18
100
AcDbEntity
  8
DEFPOINTS
  6
ByBlock
 62
     0
100
AcDbPoint
 10
346.3129405031584
 20
226.9262855953821
 30
0.0
  0
LINE
  5
1AD6
330
18
100
AcDbEntity
  8
外形線
100
AcDbLine
 10
347.4129405031584
 20
233.2262855953821
 30
0.0
 11
345.2129405031586
 21
233.2262855953821
 31
0.0
  0
LINE
  5
1AD7
330
18
100
AcDbEntity
  8
外形線
 62
     4
100
AcDbLine
 10
346.9629405031584
 20
233.9762855953821
 30
0.0
 11
345.6629405031585
 21
233.976285595382
 31
0.0
  0
LINE
  5
1AD8
330
18
100
AcDbEntity
  8
外形線
100
AcDbLine
 10
347.4129405031585
 20
233.726285595382
 30
0.0
 11
346.9629405031585
 21
233.9762855953821
 31
0.0
  0
LINE
  5
1AD9
330
18
100
AcDbEntity
  8
外形線
100
AcDbLine
 10
345.2129405031584
 20
233.726285595382
 30
0.0
 11
345.6629405031585
 21
233.9762855953821
 31
0.0
  0
LINE
  5
1ADA
330
18
100
AcDbEntity
  8
外形線
100
AcDbLine
 10
347.4129405031585
 20
233.726285595382
 30
0.0
 11
347.4129405031584
 21
233.2262855953821
 31
0.0
  0
LINE
  5
1ADB
330
18
100
AcDbEntity
  8
外形線
100
AcDbLine
 10
345.2129405031584
 20
233.726285595382
 30
0.0
 11
347.4129405031585
 21
233.726285595382
 31
0.0
  0
LINE
  5
1ADC
330
18
100
AcDbEntity
  8
外形線
100
AcDbLine
 10
345.2129405031584
 20
233.726285595382
 30
0.0
 11
345.2129405031586
 21
233.2262855953821
 31
0.0
  0
LINE
  5
1ADD
330
18
100
AcDbEntity
  8
外形線
100
AcDbLine
 10
345.2129405031586
 20
233.2262855953821
 30
0.0
 11
345.7118038432373
 21
227.7262855953821
 31
0.0
  0
LINE
  5
1ADE
330
18
100
AcDbEntity
  8
外形線
100
AcDbLine
 10
347.4129405031584
 20
233.2262855953821
 30
0.0
 11
346.9140771630796
 21
227.7262855953821
 31
0.0
  0
LINE
  5
1ADF
330
18
100
AcDbEntity
  8
外形線
100
AcDbLine
 10
347.4129405031585
 20
234.226285595382
 30
0.0
 11
345.2129405031584
 21
234.226285595382
 31
0.0
  0
LINE
  5
1AE0
330
18
100
AcDbEntity
  8
外形線
100
AcDbLine
 10
347.4129405031585
 20
234.2262855953821
 30
0.0
 11
346.9629405031585
 21
233.9762855953821
 31
0.0
  0
LINE
  5
1AE1
330
18
100
AcDbEntity
  8
外形線
100
AcDbLine
 10
345.2129405031584
 20
234.2262855953821
 30
0.0
 11
345.6629405031585
 21
233.9762855953821
 31
0.0
  0
LINE
  5
1AE2
330
18
100
AcDbEntity
  8
外形線
100
AcDbLine
 10
347.4129405031585
 20
235.6036360502149
 30
0.0
 11
347.4129405031585
 21
234.226285595382
 31
0.0
  0
LINE
  5
1AE3
330
18
100
AcDbEntity
  8
外形線
100
AcDbLine
 10
345.2129405031584
 20
235.6036360502149
 30
0.0
 11
345.2129405031584
 21
234.226285595382
 31
0.0
  0
LINE
  5
1B1B
330
18
100
AcDbEntity
  8
0
  6
ByBlock
 62
     2
100
AcDbLine
 10
412.7406585811072
 20
236.926285595382
 30
0.0
 11
412.7406585811072
 21
229.3698058785245
 31
0.0
  0
LINE
  5
1B1C
330
18
100
AcDbEntity
  8
0
  6
ByBlock
 62
     2
100
AcDbLine
 10
422.7406585811072
 20
236.926285595382
 30
0.0
 11
422.7406585811072
 21
229.3698058785245
 31
0.0
  0
LINE
  5
1B1D
330
18
100
AcDbEntity
  8
0
  6
ByBlock
 62
     2
100
AcDbLine
 10
415.2406585811072
 20
230.6198058785245
 30
0.0
 11
420.2406585811072
 21
230.6198058785245
 31
0.0
  0
LINE
  5
1B1E
330
18
100
AcDbEntity
  8
0
  6
ByBlock
 62
     2
100
AcDbLine
 10
422.7406585811072
 20
230.6198058785245
 30
0.0
 11
433.6335157239644
 21
230.6198058785245
 31
0.0
  0
INSERT
  5
1B1F
330
18
100
AcDbEntity
  8
0
  6
ByBlock
 62
     2
100
AcDbBlockReference
  2
_OPEN
 10
412.7406585811072
 20
230.6198058785245
 30
0.0
 41
2.5
 42
2.5
 43
2.5
 50
180.0
  0
INSERT
  5
1B20
330
18
100
AcDbEntity
  8
0
  6
ByBlock
 62
     2
100
AcDbBlockReference
  2
_OPEN
 10
422.7406585811072
 20
230.6198058785245
 30
0.0
 41
2.5
 42
2.5
 43
2.5
  0
MTEXT
  5
1B21
330
18
100
AcDbEntity
  8
0
  6
ByBlock
 62
     6
100
AcDbMText
 10
429.4370871525358
 20
233.1495677832863
 30
0.0
 40
2.5
 41
0.0
 71
     5
 72
     1
  1
\A1;(10)
  7
STYLE3
 73
     1
 44
1.0
  0
POINT
  5
1B22
330
18
100
AcDbEntity
  8
DEFPOINTS
  6
ByBlock
 62
     0
100
AcDbPoint
 10
412.7406585811072
 20
236.926285595382
 30
0.0
  0
POINT
  5
1B23
330
18
100
AcDbEntity
  8
DEFPOINTS
  6
ByBlock
 62
     0
100
AcDbPoint
 10
422.7406585811072
 20
236.926285595382
 30
0.0
  0
POINT
  5
1B24
330
18
100
AcDbEntity
  8
DEFPOINTS
  6
ByBlock
 62
     0
100
AcDbPoint
 10
422.7406585811072
 20
230.6198058785245
 30
0.0
  0
LINE
  5
1B25
330
18
100
AcDbEntity
  8
0
  6
ByBlock
 62
     2
100
AcDbLine
 10
346.3129405031585
 20
316.5762855953821
 30
0.0
 11
381.8486715468219
 21
316.5762855953821
 31
0.0
  0
LINE
  5
1B26
330
18
100
AcDbEntity
  8
0
  6
ByBlock
 62
     2
100
AcDbLine
 10
346.3129405031585
 20
225.9262855953821
 30
0.0
 11
381.8486715468219
 21
225.9262855953821
 31
0.0
  0
LINE
  5
1B27
330
18
100
AcDbEntity
  8
0
  6
ByBlock
 62
     2
100
AcDbLine
 10
380.5986715468219
 20
314.076285595382
 30
0.0
 11
380.5986715468219
 21
228.4262855953821
 31
0.0
  0
INSERT
  5
1B28
330
18
100
AcDbEntity
  8
0
  6
ByBlock
 62
     2
100
AcDbBlockReference
  2
_OPEN
 10
380.5986715468219
 20
316.5762855953821
 30
0.0
 41
2.5
 42
2.5
 43
2.5
 50
90.0
  0
INSERT
  5
1B29
330
18
100
AcDbEntity
  8
0
  6
ByBlock
 62
     2
100
AcDbBlockReference
  2
_OPEN
 10
380.5986715468219
 20
225.9262855953821
 30
0.0
 41
2.5
 42
2.5
 43
2.5
 50
270.0
  0
MTEXT
  5
1B2A
330
18
100
AcDbEntity
  8
0
  6
ByBlock
 62
     6
100
AcDbMText
 10
378.7236715468219
 20
271.251285595382
 30
0.0
 40
2.5
 41
0.0
 71
     5
 72
     1
  1
\A1;90.6
  7
STYLE3
 11
0.0000000000000001
 21
1.0
 31
0.0
 73
     1
 44
1.0
  0
POINT
  5
1B2B
330
18
100
AcDbEntity
  8
DEFPOINTS
  6
ByBlock
 62
     0
100
AcDbPoint
 10
346.3129405031585
 20
316.5762855953821
 30
0.0
  0
POINT
  5
1B2C
330
18
100
AcDbEntity
  8
DEFPOINTS
  6
ByBlock
 62
     0
100
AcDbPoint
 10
346.3129405031585
 20
225.9262855953821
 30
0.0
  0
POINT
  5
1B2D
330
18
100
AcDbEntity
  8
DEFPOINTS
  6
ByBlock
 62
     0
100
AcDbPoint
 10
380.5986715468219
 20
225.9262855953821
 30
0.0
  0
LINE
  5
1B2E
330
18
100
AcDbEntity
  8
0
  6
ByBlock
 62
     2
100
AcDbLine
 10
407.0544005497001
 20
293.9262855953821
 30
0.0
 11
395.6558869818458
 21
293.9262855953821
 31
0.0
  0
LINE
  5
1B2F
330
18
100
AcDbEntity
  8
0
  6
ByBlock
 62
     2
100
AcDbLine
 10
407.0544005497001
 20
258.9262855953821
 30
0.0
 11
395.6558869818458
 21
258.9262855953821
 31
0.0
  0
LINE
  5
1B30
330
18
100
AcDbEntity
  8
0
  6
ByBlock
 62
     2
100
AcDbLine
 10
396.9058869818458
 20
291.4262855953822
 30
0.0
 11
396.9058869818458
 21
261.4262855953821
 31
0.0
  0
INSERT
  5
1B31
330
18
100
AcDbEntity
  8
0
  6
ByBlock
 62
     2
100
AcDbBlockReference
  2
_OPEN
 10
396.9058869818458
 20
293.9262855953821
 30
0.0
 41
2.5
 42
2.5
 43
2.5
 50
90.0
  0
INSERT
  5
1B32
330
18
100
AcDbEntity
  8
0
  6
ByBlock
 62
     2
100
AcDbBlockReference
  2
_OPEN
 10
396.9058869818458
 20
258.9262855953821
 30
0.0
 41
2.5
 42
2.5
 43
2.5
 50
270.0
  0
MTEXT
  5
1B33
330
18
100
AcDbEntity
  8
0
  6
ByBlock
 62
     6
100
AcDbMText
 10
395.0308869818457
 20
276.07942589602
 30
0.0
 40
2.5
 41
0.0
 71
     5
 72
     1
  1
\A1;φ35
  7
STYLE3
 11
0.0000000000000001
 21
1.0
 31
0.0
 73
     1
 44
1.0
  0
POINT
  5
1B34
330
18
100
AcDbEntity
  8
DEFPOINTS
  6
ByBlock
 62
     0
100
AcDbPoint
 10
407.0544005497001
 20
293.9262855953821
 30
0.0
  0
POINT
  5
1B35
330
18
100
AcDbEntity
  8
DEFPOINTS
  6
ByBlock
 62
     0
100
AcDbPoint
 10
407.0544005497001
 20
258.9262855953821
 30
0.0
  0
POINT
  5
1B36
330
18
100
AcDbEntity
  8
DEFPOINTS
  6
ByBlock
 62
     0
100
AcDbPoint
 10
396.9058869818458
 20
258.9262855953821
 30
0.0
  0
LINE
  5
1B37
330
18
100
AcDbEntity
  8
0
  6
ByBlock
 62
     2
100
AcDbLine
 10
403.9906585811072
 20
276.4262855953821
 30
0.0
 11
403.9906585811072
 21
335.6463746902335
 31
0.0
  0
LINE
  5
1B38
330
18
100
AcDbEntity
  8
0
  6
ByBlock
 62
     2
100
AcDbLine
 10
421.2906585811073
 20
328.4192441364737
 30
0.0
 11
421.2906585811073
 21
335.6463746902335
 31
0.0
  0
LINE
  5
1B39
330
18
100
AcDbEntity
  8
0
  6
ByBlock
 62
     2
100
AcDbLine
 10
406.4906585811073
 20
334.3963746902335
 30
0.0
 11
418.7906585811073
 21
334.3963746902335
 31
0.0
  0
INSERT
  5
1B3A
330
18
100
AcDbEntity
  8
0
  6
ByBlock
 62
     2
100
AcDbBlockReference
  2
_OPEN
 10
403.9906585811072
 20
334.3963746902335
 30
0.0
 41
2.5
 42
2.5
 43
2.5
 50
180.0
  0
INSERT
  5
1B3B
330
18
100
AcDbEntity
  8
0
  6
ByBlock
 62
     2
100
AcDbBlockReference
  2
_OPEN
 10
421.2906585811073
 20
334.3963746902335
 30
0.0
 41
2.5
 42
2.5
 43
2.5
  0
MTEXT
  5
1B3C
330
18
100
AcDbEntity
  8
0
  6
ByBlock
 62
     6
100
AcDbMText
 10
412.6406585811073
 20
336.2713746902335
 30
0.0
 40
2.5
 41
0.0
 71
     5
 72
     1
  1
\A1;17.3
  7
STYLE3
 73
     1
 44
1.0
  0
POINT
  5
1B3D
330
18
100
AcDbEntity
  8
DEFPOINTS
  6
ByBlock
 62
     0
100
AcDbPoint
 10
403.9906585811072
 20
276.4262855953821
 30
0.0
  0
POINT
  5
1B3E
330
18
100
AcDbEntity
  8
DEFPOINTS
  6
ByBlock
 62
     0
100
AcDbPoint
 10
421.2906585811073
 20
328.4192441364737
 30
0.0
  0
POINT
  5
1B3F
330
18
100
AcDbEntity
  8
DEFPOINTS
  6
ByBlock
 62
     0
100
AcDbPoint
 10
421.2906585811073
 20
334.3963746902335
 30
0.0
  0
LINE
  5
1B40
330
18
100
AcDbEntity
  8
0
  6
ByBlock
 62
     2
100
AcDbLine
 10
352.4777052951717
 20
238.9262855953821
 30
0.0
 11
368.4683915925353
 21
238.9262855953821
 31
0.0
  0
LINE
  5
1B41
330
18
100
AcDbEntity
  8
0
  6
ByBlock
 62
     2
100
AcDbLine
 10
348.9001446265249
 20
226.9262855953821
 30
0.0
 11
368.4683915925353
 21
226.9262855953821
 31
0.0
  0
LINE
  5
1B42
330
18
100
AcDbEntity
  8
0
  6
ByBlock
 62
     2
100
AcDbLine
 10
367.2183915925353
 20
236.4262855953821
 30
0.0
 11
367.2183915925353
 21
229.4262855953821
 31
0.0
  0
INSERT
  5
1B43
330
18
100
AcDbEntity
  8
0
  6
ByBlock
 62
     2
100
AcDbBlockReference
  2
_OPEN
 10
367.2183915925353
 20
238.9262855953821
 30
0.0
 41
2.5
 42
2.5
 43
2.5
 50
90.0
  0
INSERT
  5
1B44
330
18
100
AcDbEntity
  8
0
  6
ByBlock
 62
     2
100
AcDbBlockReference
  2
_OPEN
 10
367.2183915925353
 20
226.9262855953821
 30
0.0
 41
2.5
 42
2.5
 43
2.5
 50
270.0
  0
MTEXT
  5
1B45
330
18
100
AcDbEntity
  8
0
  6
ByBlock
 62
     6
100
AcDbMText
 10
365.3433915925353
 20
232.9262855953821
 30
0.0
 40
2.5
 41
0.0
 71
     5
 72
     1
  1
\A1;12
  7
STYLE3
 11
0.0000000000000001
 21
1.0
 31
0.0
 73
     1
 44
1.0
  0
POINT
  5
1B46
330
18
100
AcDbEntity
  8
DEFPOINTS
  6
ByBlock
 62
     0
100
AcDbPoint
 10
352.4777052951717
 20
238.9262855953821
 30
0.0
  0
POINT
  5
1B47
330
18
100
AcDbEntity
  8
DEFPOINTS
  6
ByBlock
 62
     0
100
AcDbPoint
 10
348.9001446265249
 20
226.9262855953821
 30
0.0
  0
POINT
  5
1B48
330
18
100
AcDbEntity
  8
DEFPOINTS
  6
ByBlock
 62
     0
100
AcDbPoint
 10
367.2183915925353
 20
226.9262855953821
 30
0.0
  0
LINE
  5
1B49
330
18
100
AcDbEntity
  8
0
  6
ByBlock
 62
     2
100
AcDbLine
 10
265.6323183036769
 20
265.403563668291
 30
0.0
 11
265.6323183036769
 21
276.4293278970358
 31
0.0
  0
LINE
  5
1B4A
330
18
100
AcDbEntity
  8
0
  6
ByBlock
 62
     2
100
AcDbLine
 10
278.0864492484708
 20
265.403563668291
 30
0.0
 11
278.0864492484708
 21
276.4293278970358
 31
0.0
  0
LINE
  5
1B4B
330
18
100
AcDbEntity
  8
0
  6
ByBlock
 62
     2
100
AcDbLine
 10
268.1323183036769
 20
275.1793278970358
 30
0.0
 11
275.5864492484708
 21
275.1793278970358
 31
0.0
  0
INSERT
  5
1B4C
330
18
100
AcDbEntity
  8
0
  6
ByBlock
 62
     2
100
AcDbBlockReference
  2
_OPEN
 10
265.6323183036769
 20
275.1793278970358
 30
0.0
 41
2.5
 42
2.5
 43
2.5
 50
180.0
  0
INSERT
  5
1B4D
330
18
100
AcDbEntity
  8
0
  6
ByBlock
 62
     2
100
AcDbBlockReference
  2
_OPEN
 10
278.0864492484708
 20
275.1793278970358
 30
0.0
 41
2.5
 42
2.5
 43
2.5
  0
MTEXT
  5
1B4E
330
18
100
AcDbEntity
  8
0
  6
ByBlock
 62
     6
100
AcDbMText
 10
271.8593837760739
 20
277.7090898017978
 30
0.0
 40
2.5
 41
0.0
 71
     5
 72
     1
  1
\A1;(6.35)
  7
STYLE3
 73
     1
 44
1.0
  0
POINT
  5
1B4F
330
18
100
AcDbEntity
  8
DEFPOINTS
  6
ByBlock
 62
     0
100
AcDbPoint
 10
265.6323183036769
 20
265.403563668291
 30
0.0
  0
POINT
  5
1B50
330
18
100
AcDbEntity
  8
DEFPOINTS
  6
ByBlock
 62
     0
100
AcDbPoint
 10
278.0864492484708
 20
265.403563668291
 30
0.0
  0
POINT
  5
1B51
330
18
100
AcDbEntity
  8
DEFPOINTS
  6
ByBlock
 62
     0
100
AcDbPoint
 10
278.0864492484708
 20
275.1793278970358
 30
0.0
  0
LINE
  5
1B52
330
18
100
AcDbEntity
  8
0
  6
ByBlock
 62
     2
100
AcDbLine
 10
263.4423183036769
 20
263.6035636682909
 30
0.0
 11
263.4423183036769
 21
283.0293092994383
 31
0.0
  0
LINE
  5
1B53
330
18
100
AcDbEntity
  8
0
  6
ByBlock
 62
     2
100
AcDbLine
 10
280.522318303677
 20
263.6035636682909
 30
0.0
 11
280.522318303677
 21
283.0293092994383
 31
0.0
  0
LINE
  5
1B54
330
18
100
AcDbEntity
  8
0
  6
ByBlock
 62
     2
100
AcDbLine
 10
265.9423183036769
 20
281.7793092994382
 30
0.0
 11
278.022318303677
 21
281.7793092994382
 31
0.0
  0
INSERT
  5
1B55
330
18
100
AcDbEntity
  8
0
  6
ByBlock
 62
     2
100
AcDbBlockReference
  2
_OPEN
 10
263.4423183036769
 20
281.7793092994382
 30
0.0
 41
2.5
 42
2.5
 43
2.5
 50
180.0
  0
INSERT
  5
1B56
330
18
100
AcDbEntity
  8
0
  6
ByBlock
 62
     2
100
AcDbBlockReference
  2
_OPEN
 10
280.522318303677
 20
281.7793092994382
 30
0.0
 41
2.5
 42
2.5
 43
2.5
  0
MTEXT
  5
1B57
330
18
100
AcDbEntity
  8
0
  6
ByBlock
 62
     6
100
AcDbMText
 10
271.982318303677
 20
283.6543092994382
 30
0.0
 40
2.5
 41
0.0
 71
     5
 72
     1
  1
\A1;8.54
  7
STYLE3
 73
     1
 44
1.0
  0
POINT
  5
1B58
330
18
100
AcDbEntity
  8
DEFPOINTS
  6
ByBlock
 62
     0
100
AcDbPoint
 10
263.4423183036769
 20
263.6035636682909
 30
0.0
  0
POINT
  5
1B59
330
18
100
AcDbEntity
  8
DEFPOINTS
  6
ByBlock
 62
     0
100
AcDbPoint
 10
280.522318303677
 20
263.6035636682909
 30
0.0
  0
POINT
  5
1B5A
330
18
100
AcDbEntity
  8
DEFPOINTS
  6
ByBlock
 62
     0
100
AcDbPoint
 10
280.522318303677
 20
281.7793092994382
 30
0.0
  0
LINE
  5
1B5B
330
18
100
AcDbEntity
  8
寸法線
 62
     2
100
AcDbLine
 10
339.5459494577519
 20
249.8956625452451
 30
0.0
 11
332.7637989414254
 21
260.05267783487
 31
0.0
1001
ACAD
1000
DSTYLE
1002
{
1070
   271
1070
     2
1002
}
  0
LINE
  5
1B5C
330
18
100
AcDbEntity
  8
寸法線
 62
     2
100
AcDbLine
 10
332.7637989414254
 20
260.05267783487
 30
0.0
 11
327.7340370366634
 21
260.05267783487
 31
0.0
1001
ACAD
1000
DSTYLE
1002
{
1070
   271
1070
     2
1002
}
  0
HATCH
  5
1B5D
330
18
100
AcDbEntity
  8
ROGO
 62
     4
100
AcDbHatch
 10
0.0
 20
0.0
 30
0.0
210
0.0
220
0.0
230
1.0
  2
SOLID
 70
     1
 71
     1
 91
        1
 92
        7
 72
     0
 73
     1
 93
       11
 10
350.2126581023345
 20
281.426285595382
 10
350.7598327287947
 20
281.426285595382
 10
350.9530951768955
 20
281.8138706941937
 10
351.1463576249963
 20
281.426285595382
 10
351.6935202797156
 20
281.4262855953821
 10
351.3233017424352
 20
282.1687536214459
 10
352.222789577206
 20
282.9112216475098
 10
351.6756269224867
 20
282.9112216475098
 10
351.4194291422593
 20
282.7490968481664
 10
351.5002698033555
 20
282.9112216475098
 10
350.9530951768955
 20
282.9112216475098
 97
       11
330
1BAB
330
1BAE
330
1BAD
330
1BAC
330
1B62
330
1B5F
330
1BA8
330
1BA7
330
1BA9
330
1BA6
330
1BAA
 75
     0
 76
     1
 47
0.0514683685270805
 98
        1
 10
350.9060033893821
 20
282.2741551443754
450
        0
451
        0
460
0.0
461
0.0
452
        0
462
0.0
453
        0
470

  0
HATCH
  5
1B5E
330
18
100
AcDbEntity
  8
ROGO
 62
     4
100
AcDbHatch
 10
0.0
 20
0.0
 30
0.0
210
0.0
220
0.0
230
1.0
  2
SOLID
 70
     1
 71
     1
 91
        1
 92
        5
 93
        8
 72
     4
 94
        3
 73
     0
 74
     0
 95
       26
 96
       22
 40
0.0
 40
0.0
 40
0.0
 40
0.0
 40
0.1723984759424608
 40
0.2878059064036966
 40
0.3710240621887089
 40
0.4331603664333254
 40
0.5137544142125283
 40
0.572580212192407
 40
0.6788058922657624
 40
0.7652720686804436
 40
0.8240829233522806
 40
0.8817499774613361
 40
0.984905126098422
 40
1.057848128260907
 40
1.097133570529052
 40
1.152937380796412
 40
1.193234564309735
 40
1.251611879021434
 40
1.284648389624301
 40
1.356539542405996
 40
1.389365667278746
 40
1.389365667278746
 40
1.389365667278746
 40
1.389365667278746
 10
349.8023729261624
 20
282.9112216475098
 10
349.7438582197238
 20
282.9077305597814
 10
349.6461724482433
 20
282.9019024591413
 10
349.5389140654078
 20
282.8367441434386
 10
349.4603302948928
 20
282.7988639620644
 10
349.4042844450643
 20
282.7473690826653
 10
349.3632026099468
 20
282.6941786338757
 10
349.3114112444815
 20
282.6308026041454
 10
349.2691768658843
 20
282.5570037821051
 10
349.247669464458
 20
282.4756646146354
 10
349.2286184124017
 20
282.4108368262173
 10
349.2144898332646
 20
282.3385947162243
 10
349.218084543772
 20
282.2605478239864
 10
349.2232323337353
 20
282.1880618660615
 10
349.2462159641444
 20
282.1363177447393
 10
349.2723902480778
 20
282.0994794960032
 10
349.3044403002993
 20
282.0589062490845
 10
349.3395100662007
 20
282.0320347190316
 10
349.3685156251942
 20
281.9833551366173
 10
349.4192888777291
 20
281.9771432708217
 10
349.4515623769773
 20
281.9647798038948
 10
349.4616792740179
 20
281.9609041807093
 72
     1
 10
349.4616792740178
 20
281.9609041807093
 11
350.280200218207
 21
281.9609041807093
 72
     1
 10
350.280200218207
 20
281.9609041807093
 11
350.4565046149862
 21
282.3144801480951
 72
     1
 10
350.4565046149862
 20
282.3144801480951
 11
349.8488309895496
 21
282.3144801480951
 72
     4
 94
        3
 73
     0
 74
     0
 95
       16
 96
       12
 40
0.0
 40
0.0
 40
0.0
 40
0.0
 40
0.0520638816757992
 40
0.1046647644702509
 40
0.1360388269655429
 40
0.1661200957203634
 40
0.1991564750640333
 40
0.222226618446301
 40
0.2441181822786699
 40
0.2885111307736893
 40
0.3794005943324992
 40
0.3794005943324992
 40
0.3794005943324992
 40
0.3794005943324992
 10
349.8488309895496
 20
282.3144801480951
 10
349.8305014115311
 20
282.3198729787081
 10
349.7936531992119
 20
282.3307142630642
 10
349.7905693013968
 20
282.3832688268559
 10
349.7947706660073
 20
282.4207182540827
 10
349.8123659903798
 20
282.4479836240097
 10
349.8337121707119
 20
282.4678227680385
 10
349.8416603003791
 20
282.4936601511647
 10
349.865023103385
 20
282.5131706079632
 10
349.9064516130501
 20
282.5459649604122
 10
349.9522643730391
 20
282.5529494247415
 10
349.9830436673786
 20
282.5576419358114
 72
     1
 10
349.9830436673787
 20
282.5576419358114
 11
350.5777529357364
 21
282.5576419358115
 72
     1
 10
350.5777529357364
 20
282.5576419358115
 11
350.7540591995507
 21
282.9112216475098
 72
     1
 10
350.7540591995507
 20
282.9112216475098
 11
349.8023729261625
 21
282.9112216475098
 97
        8
330
1B60
330
1B84
330
1B90
330
1B89
330
1BA4
330
1BA3
330
1BA5
330
1B61
 75
     0
 76
     1
 47
0.0514683685270805
 98
        1
 10
349.9665921162403
 20
282.737215287028
450
        0
451
        0
460
0.0
461
0.0
452
        0
462
0.0
453
        0
470

  0
LINE
  5
1B5F
102
{ACAD_REACTORS
330
1B5D
330
1B68
102
}
330
18
100
AcDbEntity
  8
ROGO
 62
     4
100
AcDbLine
 10
340.7082935199905
 20
281.426285595382
 30
0.0
 11
350.7598327287947
 21
281.426285595382
 31
0.0
  0
LINE
  5
1B60
102
{ACAD_REACTORS
330
1B5E
102
}
330
18
100
AcDbEntity
  8
ROGO
 62
     4
100
AcDbLine
 10
349.8023729261627
 20
282.9112216475098
 30
0.0
 11
350.7540591995507
 21
282.9112216475098
 31
0.0
  0
LINE
  5
1B61
102
{ACAD_REACTORS
330
1B5E
102
}
330
18
100
AcDbEntity
  8
ROGO
 62
     4
100
AcDbLine
 10
350.7540591995507
 20
282.9112216475098
 30
0.0
 11
350.5777529357363
 21
282.5576419358114
 31
0.0
  0
LINE
  5
1B62
102
{ACAD_REACTORS
330
1B5D
102
}
330
18
100
AcDbEntity
  8
ROGO
 62
     4
100
AcDbLine
 10
350.9530951768955
 20
282.9112216475098
 30
0.0
 11
350.2126581023346
 21
281.426285595382
 31
0.0
  0
HATCH
  5
1B63
330
18
100
AcDbEntity
  8
ROGO
 62
     4
100
AcDbHatch
 10
0.0
 20
0.0
 30
0.0
210
0.0
220
0.0
230
1.0
  2
SOLID
 70
     1
 71
     0
 91
        1
 92
        7
 72
     0
 73
     1
 93
        4
 10
350.2868758616832
 20
281.5751282591967
 10
341.4658959059819
 20
281.5751282591967
 10
341.3985552627614
 20
281.426285595382
 10
350.2126581023346
 20
281.426285595382
 97
        0
 75
     0
 76
     1
 47
0.0514683685270805
 98
        1
 10
347.0356290152761
 20
281.5357617666923
450
        0
451
        0
460
0.0
461
0.0
452
        0
462
0.0
453
        0
470

  0
HATCH
  5
1B64
330
18
100
AcDbEntity
  8
ROGO
 62
     4
100
AcDbHatch
 10
0.0
 20
0.0
 30
0.0
210
0.0
220
0.0
230
1.0
  2
SOLID
 70
     1
 71
     1
 91
        2
 92
        7
 72
     0
 73
     1
 93
        8
 10
345.5063218735398
 20
282.9112216475097
 10
344.9570755462007
 20
282.9112216475098
 10
344.2717831516861
 20
281.9609041807092
 10
344.7980889309514
 20
281.9609041807093
 10
344.9285643628273
 20
282.141838746586
 10
345.5348330569131
 20
282.141838746586
 10
345.6653084887891
 20
281.9609041807093
 10
346.1916142680542
 20
281.9609041807093
 97
        8
330
1B66
330
1B6E
330
1B73
330
1B6F
330
1B65
330
1B87
330
1B8D
330
1B86
 92
       22
 72
     0
 73
     1
 93
        3
 10
345.3972166844483
 20
282.3326758892684
 10
345.0661807352922
 20
282.3326758892683
 10
345.2316987098702
 20
282.5622050998214
 97
        3
330
1B92
330
1B91
330
1B93
 75
     0
 76
     1
 47
0.0514683685270805
 98
        2
 10
345.570147464794
 20
282.4243367713618
 10
345.570147464794
 20
282.4243367713618
450
        0
451
        0
460
0.0
461
0.0
452
        0
462
0.0
453
        0
470

  0
LINE
  5
1B65
102
{ACAD_REACTORS
330
1B64
102
}
330
18
100
AcDbEntity
  8
ROGO
 62
     4
100
AcDbLine
 10
344.9285643628273
 20
282.141838746586
 30
0.0
 11
345.5348330569131
 21
282.141838746586
 31
0.0
  0
LINE
  5
1B66
102
{ACAD_REACTORS
330
1B64
102
}
330
18
100
AcDbEntity
  8
ROGO
 62
     4
100
AcDbLine
 10
344.9570755462006
 20
282.9112216475098
 30
0.0
 11
345.5063218735398
 21
282.9112216475098
 31
0.0
  0
LINE
  5
1B67
330
18
100
AcDbEntity
  8
ROGO
 62
     4
100
AcDbLine
 10
341.4555735094008
 20
281.5751282591969
 30
0.0
 11
350.2868758616833
 21
281.5751282591969
 31
0.0
  0
HATCH
  5
1B68
330
18
100
AcDbEntity
  8
ROGO
 62
     4
100
AcDbHatch
 10
0.0
 20
0.0
 30
0.0
210
0.0
220
0.0
230
1.0
  2
SOLID
 70
     1
 71
     1
 91
        2
 92
        5
 93
        6
 72
     1
 10
340.7082935199905
 20
281.426285595382
 11
341.3985552627615
 21
281.426285595382
 72
     1
 10
341.3985552627615
 20
281.426285595382
 11
341.6404318758966
 21
281.9609041807092
 72
     1
 10
341.6404318758966
 20
281.9609041807092
 11
342.2856850319425
 21
281.9609041807092
 72
     4
 94
        3
 73
     0
 74
     0
 95
       18
 96
       14
 40
0.108740278791501
 40
0.108740278791501
 40
0.108740278791501
 40
0.108740278791501
 40
0.6623149649549278
 40
1.384304701649787
 40
2.097394834876493
 40
2.774073369849618
 40
3.428974823686337
 40
4.005208313035923
 40
4.455173659284313
 40
4.720999734343524
 40
5.086034088486724
 40
5.569973738255373
 40
6.060470601257719
 40
6.060470601257719
 40
6.060470601257719
 40
6.060470601257719
 10
342.2856850319424
 20
281.9609041807093
 10
342.3310968830471
 20
281.9612423490142
 10
342.4357363167009
 20
281.962021567193
 10
342.5821260655855
 20
282.0402261877522
 10
342.7209453738503
 20
282.139853176432
 10
342.8327548829738
 20
282.264326704681
 10
342.9024155758376
 20
282.4066408589441
 10
342.9132057969765
 20
282.5430359038749
 10
342.9066186320684
 20
282.6509226887375
 10
342.8595500302203
 20
282.7261224561818
 10
342.810616474883
 20
282.8024425299548
 10
342.7208888810554
 20
282.8685538125764
 10
342.647370110193
 20
282.8975203818835
 10
342.6099843199426
 20
282.9112216475098
 72
     1
 10
342.6099843199427
 20
282.9112216475098
 11
341.4430260685288
 21
282.9112216475098
 72
     1
 10
341.4430260685288
 20
282.9112216475098
 11
340.7082935199905
 21
281.426285595382
 97
        6
330
1B6A
330
1B74
330
1B6B
330
1B5F
330
1B71
330
1B70
 92
       20
 93
        4
 72
     1
 10
341.789776991585
 20
282.2910008917554
 11
341.9041193327086
 21
282.5437311572495
 72
     1
 10
341.9041193327086
 20
282.5437311572495
 11
342.1979304175005
 21
282.5437311572494
 72
     4
 94
        3
 73
     0
 74
     0
 95
       15
 96
       11
 40
0.0
 40
0.0
 40
0.0
 40
0.0
 40
0.1114278057886432
 40
0.1622327562563865
 40
0.2198997572250677
 40
0.259185199493265
 40
0.3213155338880433
 40
0.3585299069784071
 40
0.4223775764185746
 40
0.4436601464819452
 40
0.4436601464819452
 40
0.4436601464819452
 40
0.4436601464819452
 10
342.1979304175006
 20
282.5437311572494
 10
342.2397805405174
 20
282.5439228531518
 10
342.3007120177069
 20
282.5442019518416
 10
342.3340315195683
 20
282.4688295383509
 10
342.3190961301547
 20
282.4203014620159
 10
342.3003211284078
 20
282.3704782527279
 10
342.2671414480642
 20
282.3366226305759
 10
342.222609457118
 20
282.304013959174
 10
342.1805245975825
 20
282.3000665334859
 10
342.1531531206394
 20
282.2928140207958
 10
342.1463102481283
 20
282.2910008917553
 72
     1
 10
342.1463102481283
 20
282.2910008917554
 11
341.789776991585
 21
282.2910008917554
 97
        4
330
1B77
330
1B75
330
1B79
330
1B76
 75
     0
 76
     1
 47
0.0514683685270805
 98
        2
 10
341.4492632793313
 20
282.4493671266003
 10
341.4492632793313
 20
282.4493671266003
450
        0
451
        0
460
0.0
461
0.0
452
        0
462
0.0
453
        0
470

  0
HATCH
  5
1B69
330
18
100
AcDbEntity
  8
ROGO
 62
     4
100
AcDbHatch
 10
0.0
 20
0.0
 30
0.0
210
0.0
220
0.0
230
1.0
  2
SOLID
 70
     1
 71
     1
 91
        1
 92
        1
 93
       12
 72
     1
 10
343.2993942997322
 20
282.9112216475098
 11
344.5847382090124
 21
282.9112216475098
 72
     1
 10
344.5847382090124
 20
282.9112216475098
 11
344.4770275271429
 21
282.6935322651278
 72
     1
 10
344.4770275271429
 20
282.6935322651278
 11
343.801483248345
 21
282.6935322651278
 72
     1
 10
343.801483248345
 20
282.6935322651278
 11
343.7172668798681
 21
282.5233262194322
 72
     1
 10
343.7172668798681
 20
282.5233262194322
 11
344.3928111586661
 21
282.5233262194322
 72
     1
 10
344.3928111586661
 20
282.5233262194322
 11
344.3064551621827
 21
282.3487958644743
 72
     1
 10
344.3064551621827
 20
282.3487958644744
 11
343.6309108833849
 21
282.3487958644743
 72
     1
 10
343.6309108833849
 20
282.3487958644743
 11
343.5466909495917
 21
282.1785826130729
 72
     1
 10
343.5466909495918
 20
282.1785826130729
 11
344.2222352283896
 21
282.1785826130729
 72
     1
 10
344.2222352283896
 20
282.1785826130729
 11
344.1145299644874
 21
281.9609041807093
 72
     1
 10
344.1145299644874
 20
281.9609041807093
 11
342.8291860552072
 21
281.9609041807093
 72
     1
 10
342.8291860552072
 20
281.9609041807093
 11
343.2993942997322
 21
282.9112216475098
 97
       12
330
1B78
330
1B7A
330
1B7C
330
1B7B
330
1B7D
330
1B80
330
1B7F
330
1B81
330
1B7E
330
1B6D
330
1B72
330
1B6C
 75
     0
 76
     1
 98
        1
 10
290.722801322699
 20
217.201021182344
450
        0
451
        0
460
0.0
461
0.0
452
        0
462
0.0
453
        0
470

  0
SPLINE
  5
1B6A
102
{ACAD_REACTORS
330
1B68
102
}
330
18
100
AcDbEntity
  8
ROGO
 62
     4
100
AcDbSpline
210
0.0
220
0.0
230
1.0
 70
     8
 71
     3
 72
    18
 73
    14
 74
     0
 42
0.0000000001
 43
0.0000000001
 40
0.1087402787915014
 40
0.1087402787915014
 40
0.1087402787915014
 40
0.1087402787915014
 40
0.5992371417938475
 40
1.083176791562496
 40
1.448211145705696
 40
1.714037220764907
 40
2.164002567013297
 40
2.740236056362883
 40
3.395137510199602
 40
4.071816045172726
 40
4.784906178399433
 40
5.506895915094292
 40
6.060470601257719
 40
6.060470601257719
 40
6.060470601257719
 40
6.060470601257719
 10
342.6099843199426
 20
282.9112216475098
 30
0.0
 10
342.647370110193
 20
282.8975203818835
 30
0.0
 10
342.7208888810554
 20
282.8685538125764
 30
0.0
 10
342.810616474883
 20
282.8024425299548
 30
0.0
 10
342.8595500302203
 20
282.7261224561818
 30
0.0
 10
342.9066186320684
 20
282.6509226887375
 30
0.0
 10
342.9132057969765
 20
282.5430359038749
 30
0.0
 10
342.9024155758376
 20
282.4066408589441
 30
0.0
 10
342.8327548829738
 20
282.264326704681
 30
0.0
 10
342.7209453738503
 20
282.139853176432
 30
0.0
 10
342.5821260655855
 20
282.0402261877522
 30
0.0
 10
342.4357363167009
 20
281.962021567193
 30
0.0
 10
342.3310968830471
 20
281.9612423490142
 30
0.0
 10
342.2856850319424
 20
281.9609041807093
 30
0.0
  0
LINE
  5
1B6B
102
{ACAD_REACTORS
330
1B68
102
}
330
18
100
AcDbEntity
  8
ROGO
 62
     4
100
AcDbLine
 10
341.4430260685289
 20
282.9112216475098
 30
0.0
 11
340.7082935199905
 21
281.426285595382
 31
0.0
  0
LINE
  5
1B6C
102
{ACAD_REACTORS
330
1B69
102
}
330
18
100
AcDbEntity
  8
ROGO
 62
     4
100
AcDbLine
 10
343.2993942997322
 20
282.9112216475098
 30
0.0
 11
342.8291860552072
 21
281.9609041807093
 31
0.0
  0
LINE
  5
1B6D
102
{ACAD_REACTORS
330
1B69
102
}
330
18
100
AcDbEntity
  8
ROGO
 62
     4
100
AcDbLine
 10
344.2222352283896
 20
282.1785826130729
 30
0.0
 11
344.1145299644874
 21
281.9609041807093
 31
0.0
  0
LINE
  5
1B6E
102
{ACAD_REACTORS
330
1B64
102
}
330
18
100
AcDbEntity
  8
ROGO
 62
     4
100
AcDbLine
 10
344.9570755462007
 20
282.9112216475098
 30
0.0
 11
344.2717831516862
 21
281.9609041807093
 31
0.0
  0
LINE
  5
1B6F
102
{ACAD_REACTORS
330
1B64
102
}
330
18
100
AcDbEntity
  8
ROGO
 62
     4
100
AcDbLine
 10
344.9285643628273
 20
282.141838746586
 30
0.0
 11
344.7980889309514
 21
281.9609041807093
 31
0.0
  0
LINE
  5
1B70
102
{ACAD_REACTORS
330
1B68
102
}
330
18
100
AcDbEntity
  8
ROGO
 62
     4
100
AcDbLine
 10
342.285685032166
 20
281.9609041807093
 30
0.0
 11
341.6404318758966
 21
281.9609041807093
 31
0.0
  0
LINE
  5
1B71
102
{ACAD_REACTORS
330
1B68
102
}
330
18
100
AcDbEntity
  8
ROGO
 62
     4
100
AcDbLine
 10
341.6404318758966
 20
281.9609041807093
 30
0.0
 11
341.3985552627615
 21
281.426285595382
 31
0.0
  0
LINE
  5
1B72
102
{ACAD_REACTORS
330
1B69
102
}
330
18
100
AcDbEntity
  8
ROGO
 62
     4
100
AcDbLine
 10
342.8291860552072
 20
281.9609041807093
 30
0.0
 11
344.1145299644874
 21
281.9609041807093
 31
0.0
  0
LINE
  5
1B73
102
{ACAD_REACTORS
330
1B64
102
}
330
18
100
AcDbEntity
  8
ROGO
 62
     4
100
AcDbLine
 10
344.2717831516862
 20
281.9609041807093
 30
0.0
 11
344.7980889309514
 21
281.9609041807093
 31
0.0
  0
LINE
  5
1B74
102
{ACAD_REACTORS
330
1B68
102
}
330
18
100
AcDbEntity
  8
ROGO
 62
     4
100
AcDbLine
 10
341.4430260685289
 20
282.9112216475098
 30
0.0
 11
342.6099843199426
 21
282.9112216475098
 31
0.0
  0
LINE
  5
1B75
102
{ACAD_REACTORS
330
1B68
102
}
330
18
100
AcDbEntity
  8
ROGO
 62
     4
100
AcDbLine
 10
342.1979304175006
 20
282.5437311572494
 30
0.0
 11
341.9041193327085
 21
282.5437311572494
 31
0.0
  0
LINE
  5
1B76
102
{ACAD_REACTORS
330
1B68
102
}
330
18
100
AcDbEntity
  8
ROGO
 62
     4
100
AcDbLine
 10
342.1463102481283
 20
282.2910008917553
 30
0.0
 11
341.789776991585
 21
282.2910008917554
 31
0.0
  0
LINE
  5
1B77
102
{ACAD_REACTORS
330
1B68
102
}
330
18
100
AcDbEntity
  8
ROGO
 62
     4
100
AcDbLine
 10
341.9041193327085
 20
282.5437311572494
 30
0.0
 11
341.789776991585
 21
282.2910008917554
 31
0.0
  0
LINE
  5
1B78
102
{ACAD_REACTORS
330
1B69
102
}
330
18
100
AcDbEntity
  8
ROGO
 62
     4
100
AcDbLine
 10
343.2993942997322
 20
282.9112216475098
 30
0.0
 11
344.5847382090124
 21
282.9112216475098
 31
0.0
  0
SPLINE
  5
1B79
102
{ACAD_REACTORS
330
1B68
102
}
330
18
100
AcDbEntity
  8
ROGO
 62
     4
100
AcDbSpline
210
0.0
220
0.0
230
1.0
 70
     8
 71
     3
 72
    15
 73
    11
 74
     9
 42
0.0000000001
 43
0.0000000001
 44
0.0000000001
 40
0.0
 40
0.0
 40
0.0
 40
0.0
 40
0.1114278057886432
 40
0.1622327562563865
 40
0.2198997572250677
 40
0.259185199493265
 40
0.3213155338880433
 40
0.3585299069784071
 40
0.4223775764185746
 40
0.4436601464819452
 40
0.4436601464819452
 40
0.4436601464819452
 40
0.4436601464819452
 10
342.1979304175006
 20
282.5437311572494
 30
0.0
 10
342.2397805405174
 20
282.5439228531518
 30
0.0
 10
342.3007120177069
 20
282.5442019518416
 30
0.0
 10
342.3340315195683
 20
282.4688295383509
 30
0.0
 10
342.3190961301547
 20
282.4203014620159
 30
0.0
 10
342.3003211284078
 20
282.3704782527279
 30
0.0
 10
342.2671414480642
 20
282.3366226305759
 30
0.0
 10
342.222609457118
 20
282.304013959174
 30
0.0
 10
342.1805245975825
 20
282.3000665334859
 30
0.0
 10
342.1531531206394
 20
282.2928140207958
 30
0.0
 10
342.1463102481283
 20
282.2910008917553
 30
0.0
 11
342.1979304175006
 21
282.5437311572494
 31
0.0
 11
342.3063328622303
 21
282.5179422860161
 31
0.0
 11
342.3269809893445
 21
282.4715224859443
 31
0.0
 11
342.3166570742005
 21
282.414787137379
 31
0.0
 11
342.3011710530715
 21
282.3786827176524
 31
0.0
 11
342.2598747988431
 21
282.3322629175805
 31
0.0
 11
342.228902756585
 21
282.3116318205939
 31
0.0
 11
342.1669583752424
 21
282.296158666002
 31
0.0
 11
342.1463102481283
 21
282.2910008917553
 31
0.0
  0
LINE
  5
1B7A
102
{ACAD_REACTORS
330
1B69
102
}
330
18
100
AcDbEntity
  8
ROGO
 62
     4
100
AcDbLine
 10
344.5847382090124
 20
282.9112216475098
 30
0.0
 11
344.4770275271429
 21
282.6935322651278
 31
0.0
  0
LINE
  5
1B7B
102
{ACAD_REACTORS
330
1B69
102
}
330
18
100
AcDbEntity
  8
ROGO
 62
     4
100
AcDbLine
 10
343.801483248345
 20
282.6935322651278
 30
0.0
 11
343.7172668798681
 21
282.5233262194322
 31
0.0
  0
LINE
  5
1B7C
102
{ACAD_REACTORS
330
1B69
102
}
330
18
100
AcDbEntity
  8
ROGO
 62
     4
100
AcDbLine
 10
343.801483248345
 20
282.6935322651278
 30
0.0
 11
344.4770275271429
 21
282.6935322651278
 31
0.0
  0
LINE
  5
1B7D
102
{ACAD_REACTORS
330
1B69
102
}
330
18
100
AcDbEntity
  8
ROGO
 62
     4
100
AcDbLine
 10
343.7172668798681
 20
282.5233262194322
 30
0.0
 11
344.3928111586661
 21
282.5233262194322
 31
0.0
  0
LINE
  5
1B7E
102
{ACAD_REACTORS
330
1B69
102
}
330
18
100
AcDbEntity
  8
ROGO
 62
     4
100
AcDbLine
 10
343.5466909495918
 20
282.1785826130729
 30
0.0
 11
344.2222352283896
 21
282.1785826130729
 31
0.0
  0
LINE
  5
1B7F
102
{ACAD_REACTORS
330
1B69
102
}
330
18
100
AcDbEntity
  8
ROGO
 62
     4
100
AcDbLine
 10
343.6309108833849
 20
282.3487958644743
 30
0.0
 11
344.3064551621827
 21
282.3487958644744
 31
0.0
  0
LINE
  5
1B80
102
{ACAD_REACTORS
330
1B69
102
}
330
18
100
AcDbEntity
  8
ROGO
 62
     4
100
AcDbLine
 10
344.3928111586661
 20
282.5233262194322
 30
0.0
 11
344.3064551621827
 21
282.3487958644743
 31
0.0
  0
LINE
  5
1B81
102
{ACAD_REACTORS
330
1B69
102
}
330
18
100
AcDbEntity
  8
ROGO
 62
     4
100
AcDbLine
 10
343.6309108833849
 20
282.3487958644743
 30
0.0
 11
343.5466909495917
 21
282.1785826130729
 31
0.0
  0
HATCH
  5
1B82
330
18
100
AcDbEntity
  8
ROGO
 62
     4
100
AcDbHatch
 10
0.0
 20
0.0
 30
0.0
210
0.0
220
0.0
230
1.0
  2
SOLID
 70
     1
 71
     1
 91
        2
 92
        7
 72
     1
 73
     1
 93
        4
 10
348.5580000105199
 20
282.9112216475098
 42
0.0
 10
348.1737260107422
 20
282.9112216475098
 42
0.9597396185048687
 10
348.1737260107419
 20
281.9609041807093
 42
0.0
 10
348.5856156362469
 20
281.9609041807093
 42
0.9713627655753143
 97
        4
330
1BA2
330
1B8A
330
1B8F
330
1B8B
 92
       22
 72
     1
 73
     1
 93
        2
 10
348.4939141640124
 20
282.3900710969596
 42
0.1034173650222558
 10
348.499573200163
 20
282.4305584290434
 42
0.0
 97
        8
330
1B9A
330
1BA0
330
1B9C
330
1B9F
330
1B9B
330
1B9E
330
1B99
330
1B9D
 75
     0
 76
     1
 47
0.0514683685270805
 98
        2
 10
348.6514162744766
 20
282.5244578560194
 10
348.6514162744766
 20
282.5244578560194
450
        0
451
        0
460
0.0
461
0.0
452
        0
462
0.0
453
        0
470

  0
HATCH
  5
1B83
330
18
100
AcDbEntity
  8
ROGO
 62
     4
100
AcDbHatch
 10
0.0
 20
0.0
 30
0.0
210
0.0
220
0.0
230
1.0
  2
SOLID
 70
     1
 71
     1
 91
        1
 92
        5
 93
        8
 72
     1
 10
347.5157455266553
 20
282.5576419358114
 11
347.6920517904698
 21
282.9112216475098
 72
     1
 10
347.6920517904698
 20
282.9112216475098
 11
346.7403655170816
 21
282.9112216475098
 72
     4
 94
        3
 73
     0
 74
     0
 95
       26
 96
       22
 40
0.0
 40
0.0
 40
0.0
 40
0.0
 40
0.1723984759425082
 40
0.2878059064037186
 40
0.3710240621887309
 40
0.4331603664333474
 40
0.5137544142125066
 40
0.572580212192465
 40
0.6788058922657929
 40
0.7652720686804741
 40
0.8240829233522561
 40
0.8817499774613677
 40
0.9849051260984536
 40
1.057848128260939
 40
1.097133570529084
 40
1.152937380796444
 40
1.19323456430973
 40
1.251611879021469
 40
1.284648389624336
 40
1.356539542406011
 40
1.38936566727878
 40
1.38936566727878
 40
1.38936566727878
 40
1.38936566727878
 10
346.7403655170814
 20
282.9112216475098
 10
346.6818508106427
 20
282.9077305597815
 10
346.5841650391622
 20
282.9019024591415
 10
346.4769066563267
 20
282.8367441434386
 10
346.3983228858118
 20
282.7988639620644
 10
346.3422770359831
 20
282.7473690826653
 10
346.3011952008657
 20
282.6941786338757
 10
346.2494038354004
 20
282.6308026041454
 10
346.2071694568033
 20
282.5570037821051
 10
346.185662055377
 20
282.4756646146354
 10
346.1666110033207
 20
282.4108368262173
 10
346.1524824241835
 20
282.3385947162242
 10
346.156077134691
 20
282.2605478239865
 10
346.1612249246542
 20
282.1880618660614
 10
346.1842085550633
 20
282.1363177447393
 10
346.2103828389968
 20
282.0994794960031
 10
346.2424328912182
 20
282.0589062490845
 10
346.2775026571197
 20
282.0320347190315
 10
346.3065082161131
 20
281.9833551366173
 10
346.3572814686482
 20
281.9771432708218
 10
346.3895549678962
 20
281.9647798038948
 10
346.3996718649369
 20
281.9609041807093
 72
     1
 10
346.3996718649369
 20
281.9609041807093
 11
347.218192809126
 21
281.9609041807093
 72
     1
 10
347.218192809126
 20
281.9609041807093
 11
347.3944972059052
 21
282.3144801480951
 72
     1
 10
347.3944972059052
 20
282.3144801480951
 11
346.7868235804685
 21
282.3144801480951
 72
     4
 94
        3
 73
     0
 74
     0
 95
       16
 96
       12
 40
0.0
 40
0.0
 40
0.0
 40
0.0
 40
0.0520638816757735
 40
0.1046647644702809
 40
0.1360388269655169
 40
0.1661200957203374
 40
0.1991564750640073
 40
0.2222266184463259
 40
0.2441181822786546
 40
0.2885111307736739
 40
0.3794005943324437
 40
0.3794005943324437
 40
0.3794005943324437
 40
0.3794005943324437
 10
346.7868235804686
 20
282.3144801480951
 10
346.7684940024501
 20
282.3198729787081
 10
346.7316457901309
 20
282.3307142630643
 10
346.7285618923157
 20
282.3832688268558
 10
346.7327632569263
 20
282.4207182540829
 10
346.7503585812988
 20
282.4479836240097
 10
346.7717047616309
 20
282.4678227680385
 10
346.779652891298
 20
282.4936601511647
 10
346.803015694304
 20
282.5131706079633
 10
346.8444442039689
 20
282.5459649604122
 10
346.890256963958
 20
282.5529494247414
 10
346.9210362582975
 20
282.5576419358114
 72
     1
 10
346.9210362582975
 20
282.5576419358114
 11
347.5157455266553
 21
282.5576419358114
 97
        8
330
1B98
330
1B85
330
1B8C
330
1B88
330
1B97
330
1B94
330
1B96
330
1B95
 75
     0
 76
     1
 47
0.0514683685270805
 98
        1
 10
347.0732054424557
 20
282.6996698382443
450
        0
451
        0
460
0.0
461
0.0
452
        0
462
0.0
453
        0
470

  0
SPLINE
  5
1B84
102
{ACAD_REACTORS
330
1B5E
102
}
330
18
100
AcDbEntity
  8
ROGO
 62
     4
100
AcDbSpline
210
0.0
220
0.0
230
1.0
 70
     8
 71
     3
 72
    26
 73
    22
 74
    20
 42
0.0000000001
 43
0.0000000001
 44
0.0000000001
 40
0.0
 40
0.0
 40
0.0
 40
0.0
 40
0.1723984759424608
 40
0.2878059064036966
 40
0.3710240621887089
 40
0.4331603664333254
 40
0.5137544142125283
 40
0.572580212192407
 40
0.6788058922657624
 40
0.7652720686804436
 40
0.8240829233522806
 40
0.8817499774613361
 40
0.984905126098422
 40
1.057848128260907
 40
1.097133570529052
 40
1.152937380796412
 40
1.193234564309735
 40
1.251611879021434
 40
1.284648389624301
 40
1.356539542405996
 40
1.389365667278746
 40
1.389365667278746
 40
1.389365667278746
 40
1.389365667278746
 10
349.8023729261624
 20
282.9112216475098
 30
0.0
 10
349.7438582197238
 20
282.9077305597814
 30
0.0
 10
349.6461724482433
 20
282.9019024591413
 30
0.0
 10
349.5389140654078
 20
282.8367441434386
 30
0.0
 10
349.4603302948928
 20
282.7988639620644
 30
0.0
 10
349.4042844450643
 20
282.7473690826653
 30
0.0
 10
349.3632026099468
 20
282.6941786338757
 30
0.0
 10
349.3114112444815
 20
282.6308026041454
 30
0.0
 10
349.2691768658843
 20
282.5570037821051
 30
0.0
 10
349.247669464458
 20
282.4756646146354
 30
0.0
 10
349.2286184124017
 20
282.4108368262173
 30
0.0
 10
349.2144898332646
 20
282.3385947162243
 30
0.0
 10
349.218084543772
 20
282.2605478239864
 30
0.0
 10
349.2232323337353
 20
282.1880618660615
 30
0.0
 10
349.2462159641444
 20
282.1363177447393
 30
0.0
 10
349.2723902480778
 20
282.0994794960032
 30
0.0
 10
349.3044403002993
 20
282.0589062490845
 30
0.0
 10
349.3395100662007
 20
282.0320347190316
 30
0.0
 10
349.3685156251942
 20
281.9833551366173
 30
0.0
 10
349.4192888777291
 20
281.9771432708217
 30
0.0
 10
349.4515623769773
 20
281.9647798038948
 30
0.0
 10
349.4616792740179
 20
281.9609041807093
 30
0.0
 11
349.8023729261624
 21
282.9112216475098
 31
0.0
 11
349.6320261000902
 21
282.8847038543439
 31
0.0
 11
349.5287854645193
 21
282.8331262800253
 31
0.0
 11
349.4565171680328
 21
282.7918642542001
 31
0.0
 11
349.4100591046456
 21
282.7506020602268
 31
0.0
 11
349.3584389352733
 21
282.6887089374149
 31
0.0
 11
349.3223047870301
 21
282.6422891373431
 31
0.0
 11
349.2706843208315
 21
282.5494493690512
 31
0.0
 11
349.2448743845585
 21
282.4669251492527
 31
0.0
 11
349.2293883634294
 21
282.4101898006874
 31
0.0
 11
349.2190641514591
 21
282.3534544521223
 31
0.0
 11
349.2190641514591
 21
282.2502993034852
 31
0.0
 11
349.2293883634294
 21
282.1780906321799
 31
0.0
 11
349.2448743845585
 21
282.1419862124533
 31
0.0
 11
349.2758464268165
 21
282.0955664123814
 31
0.0
 11
349.3016566599159
 21
282.0646197669015
 31
0.0
 11
349.3429526173179
 21
282.0233577410762
 31
0.0
 11
349.3636007444321
 21
281.9975688698429
 31
0.0
 11
349.4307072317598
 21
281.9717801667577
 31
0.0
 11
349.4616792740179
 21
281.9609041807093
 31
0.0
  0
SPLINE
  5
1B85
102
{ACAD_REACTORS
330
1B83
102
}
330
18
100
AcDbEntity
  8
ROGO
 62
     4
100
AcDbSpline
210
0.0
220
0.0
230
1.0
 70
     8
 71
     3
 72
    26
 73
    22
 74
    20
 42
0.0000000001
 43
0.0000000001
 44
0.0000000001
 40
0.0
 40
0.0
 40
0.0
 40
0.0
 40
0.1723984759425082
 40
0.2878059064037186
 40
0.3710240621887309
 40
0.4331603664333474
 40
0.5137544142125066
 40
0.572580212192465
 40
0.6788058922657929
 40
0.7652720686804741
 40
0.8240829233522561
 40
0.8817499774613677
 40
0.9849051260984536
 40
1.057848128260939
 40
1.097133570529084
 40
1.152937380796444
 40
1.19323456430973
 40
1.251611879021469
 40
1.284648389624336
 40
1.356539542406011
 40
1.38936566727878
 40
1.38936566727878
 40
1.38936566727878
 40
1.38936566727878
 10
346.7403655170814
 20
282.9112216475098
 30
0.0
 10
346.6818508106427
 20
282.9077305597815
 30
0.0
 10
346.5841650391622
 20
282.9019024591415
 30
0.0
 10
346.4769066563267
 20
282.8367441434386
 30
0.0
 10
346.3983228858118
 20
282.7988639620644
 30
0.0
 10
346.3422770359831
 20
282.7473690826653
 30
0.0
 10
346.3011952008657
 20
282.6941786338757
 30
0.0
 10
346.2494038354004
 20
282.6308026041454
 30
0.0
 10
346.2071694568033
 20
282.5570037821051
 30
0.0
 10
346.185662055377
 20
282.4756646146354
 30
0.0
 10
346.1666110033207
 20
282.4108368262173
 30
0.0
 10
346.1524824241835
 20
282.3385947162242
 30
0.0
 10
346.156077134691
 20
282.2605478239865
 30
0.0
 10
346.1612249246542
 20
282.1880618660614
 30
0.0
 10
346.1842085550633
 20
282.1363177447393
 30
0.0
 10
346.2103828389968
 20
282.0994794960031
 30
0.0
 10
346.2424328912182
 20
282.0589062490845
 30
0.0
 10
346.2775026571197
 20
282.0320347190315
 30
0.0
 10
346.3065082161131
 20
281.9833551366173
 30
0.0
 10
346.3572814686482
 20
281.9771432708218
 30
0.0
 10
346.3895549678962
 20
281.9647798038948
 30
0.0
 10
346.3996718649369
 20
281.9609041807093
 30
0.0
 11
346.7403655170814
 21
282.9112216475098
 31
0.0
 11
346.5700186910091
 21
282.8847038543439
 31
0.0
 11
346.4667780554382
 21
282.8331262800253
 31
0.0
 11
346.3945097589518
 21
282.7918642542001
 31
0.0
 11
346.3480516955645
 21
282.7506020602268
 31
0.0
 11
346.2964315261922
 21
282.688708937415
 31
0.0
 11
346.260297377949
 21
282.6422891373431
 31
0.0
 11
346.2086769117505
 21
282.5494493690512
 31
0.0
 11
346.1828669754774
 21
282.4669251492527
 31
0.0
 11
346.1673809543484
 21
282.4101898006875
 31
0.0
 11
346.1570567423781
 21
282.3534544521223
 31
0.0
 11
346.1570567423781
 21
282.2502993034852
 31
0.0
 11
346.1673809543484
 21
282.1780906321799
 31
0.0
 11
346.1828669754774
 21
282.1419862124533
 31
0.0
 11
346.2138390177355
 21
282.0955664123814
 31
0.0
 11
346.2396492508348
 21
282.0646197669015
 31
0.0
 11
346.2809452082368
 21
282.0233577410762
 31
0.0
 11
346.3015933353511
 21
281.9975688698429
 31
0.0
 11
346.3686998226787
 21
281.9717801667577
 31
0.0
 11
346.3996718649369
 21
281.9609041807093
 31
0.0
  0
LINE
  5
1B86
102
{ACAD_REACTORS
330
1B64
102
}
330
18
100
AcDbEntity
  8
ROGO
 62
     4
100
AcDbLine
 10
345.5063218735398
 20
282.9112216475098
 30
0.0
 11
346.1916142680542
 21
281.9609041807093
 31
0.0
  0
LINE
  5
1B87
102
{ACAD_REACTORS
330
1B64
102
}
330
18
100
AcDbEntity
  8
ROGO
 62
     4
100
AcDbLine
 10
345.5348330569131
 20
282.141838746586
 30
0.0
 11
345.6653084887891
 21
281.9609041807093
 31
0.0
  0
LINE
  5
1B88
102
{ACAD_REACTORS
330
1B83
102
}
330
18
100
AcDbEntity
  8
ROGO
 62
     4
100
AcDbLine
 10
347.3944972059052
 20
282.3144801480951
 30
0.0
 11
347.2181928091259
 21
281.9609041807093
 31
0.0
  0
LINE
  5
1B89
102
{ACAD_REACTORS
330
1B5E
102
}
330
18
100
AcDbEntity
  8
ROGO
 62
     4
100
AcDbLine
 10
350.4565046149863
 20
282.3144801480951
 30
0.0
 11
350.280200218207
 21
281.9609041807092
 31
0.0
  0
ARC
  5
1B8A
102
{ACAD_REACTORS
330
1B82
102
}
330
18
100
AcDbEntity
  8
ROGO
 62
     4
100
AcDbCircle
 10
348.1932573289455
 20
282.4360629141095
 30
0.0
 40
0.4755599797263065
100
AcDbArc
 50
92.3538081120337
 51
270.0
  0
ARC
  5
1B8B
102
{ACAD_REACTORS
330
1B82
102
}
330
18
100
AcDbEntity
  8
ROGO
 62
     4
100
AcDbCircle
 10
348.5580000105199
 20
282.4356616677834
 30
0.0
 40
0.4755599797263065
100
AcDbArc
 50
273.3290215232082
 51
90.0000000000006
  0
LINE
  5
1B8C
102
{ACAD_REACTORS
330
1B83
102
}
330
18
100
AcDbEntity
  8
ROGO
 62
     4
100
AcDbLine
 10
346.3996718649368
 20
281.9609041807093
 30
0.0
 11
347.218192809126
 21
281.9609041807093
 31
0.0
  0
LINE
  5
1B8D
102
{ACAD_REACTORS
330
1B64
102
}
330
18
100
AcDbEntity
  8
ROGO
 62
     4
100
AcDbLine
 10
346.1916142680542
 20
281.9609041807093
 30
0.0
 11
345.6653084887891
 21
281.9609041807093
 31
0.0
  0
LINE
  5
1B8E
330
18
100
AcDbEntity
  8
ROGO
 62
     4
100
AcDbLine
 10
348.1737260107425
 20
281.9609041807093
 30
0.0
 11
348.5856156362465
 21
281.9609041807093
 31
0.0
  0
LINE
  5
1B8F
102
{ACAD_REACTORS
330
1B82
102
}
330
18
100
AcDbEntity
  8
ROGO
 62
     4
100
AcDbLine
 10
348.1737260107422
 20
281.9609041807093
 30
0.0
 11
348.5856156362469
 21
281.9609041807093
 31
0.0
  0
LINE
  5
1B90
102
{ACAD_REACTORS
330
1B5E
102
}
330
18
100
AcDbEntity
  8
ROGO
 62
     4
100
AcDbLine
 10
349.4616792740179
 20
281.9609041807093
 30
0.0
 11
350.280200218207
 21
281.9609041807093
 31
0.0
  0
LINE
  5
1B91
102
{ACAD_REACTORS
330
1B64
102
}
330
18
100
AcDbEntity
  8
ROGO
 62
     4
100
AcDbLine
 10
345.2316987098702
 20
282.5622050998214
 30
0.0
 11
345.0661807352922
 21
282.3326758892683
 31
0.0
  0
LINE
  5
1B92
102
{ACAD_REACTORS
330
1B64
102
}
330
18
100
AcDbEntity
  8
ROGO
 62
     4
100
AcDbLine
 10
345.0661807352922
 20
282.3326758892683
 30
0.0
 11
345.3972166844483
 21
282.3326758892683
 31
0.0
  0
LINE
  5
1B93
102
{ACAD_REACTORS
330
1B64
102
}
330
18
100
AcDbEntity
  8
ROGO
 62
     4
100
AcDbLine
 10
345.2316987098702
 20
282.5622050998214
 30
0.0
 11
345.3972166844483
 21
282.3326758892683
 31
0.0
  0
SPLINE
  5
1B94
102
{ACAD_REACTORS
330
1B83
102
}
330
18
100
AcDbEntity
  8
ROGO
 62
     4
100
AcDbSpline
210
0.0
220
0.0
230
1.0
 70
     8
 71
     3
 72
    16
 73
    12
 74
    10
 42
0.0000000001
 43
0.0000000001
 44
0.0000000001
 40
0.0
 40
0.0
 40
0.0
 40
0.0
 40
0.0908894635587698
 40
0.1352824120537892
 40
0.1571739758861179
 40
0.1802441192684364
 40
0.2132804986121064
 40
0.2433617673669269
 40
0.2747358298621628
 40
0.3273367126566702
 40
0.3794005943324437
 40
0.3794005943324437
 40
0.3794005943324437
 40
0.3794005943324437
 10
346.9210362582975
 20
282.5576419358114
 30
0.0
 10
346.890256963958
 20
282.5529494247414
 30
0.0
 10
346.8444442039689
 20
282.5459649604122
 30
0.0
 10
346.803015694304
 20
282.5131706079633
 30
0.0
 10
346.779652891298
 20
282.4936601511647
 30
0.0
 10
346.7717047616309
 20
282.4678227680385
 30
0.0
 10
346.7503585812988
 20
282.4479836240097
 30
0.0
 10
346.7327632569263
 20
282.4207182540829
 30
0.0
 10
346.7285618923157
 20
282.3832688268558
 30
0.0
 10
346.7316457901309
 20
282.3307142630643
 30
0.0
 10
346.7684940024501
 20
282.3198729787081
 30
0.0
 10
346.7868235804686
 20
282.3144801480951
 30
0.0
 11
346.9210362582975
 21
282.5576419358114
 31
0.0
 11
346.833281940682
 21
282.5339760463112
 31
0.0
 11
346.7971477924388
 21
282.508187343226
 31
0.0
 11
346.7816617713098
 21
282.492714020486
 31
0.0
 11
346.7713375593395
 21
282.4720829234993
 31
0.0
 11
346.7506894322253
 21
282.4462942204141
 31
0.0
 11
346.7352034110962
 21
282.4205053491808
 31
0.0
 11
346.7300413051111
 21
282.3895588718489
 31
0.0
 11
346.7403655170814
 21
282.3379811293823
 31
0.0
 11
346.7868235804686
 21
282.3144801480951
 31
0.0
  0
LINE
  5
1B95
102
{ACAD_REACTORS
330
1B83
102
}
330
18
100
AcDbEntity
  8
ROGO
 62
     4
100
AcDbLine
 10
347.6920517904697
 20
282.9112216475098
 30
0.0
 11
347.5157455266553
 21
282.5576419358114
 31
0.0
  0
LINE
  5
1B96
102
{ACAD_REACTORS
330
1B83
102
}
330
18
100
AcDbEntity
  8
ROGO
 62
     4
100
AcDbLine
 10
346.9210362582975
 20
282.5576419358114
 30
0.0
 11
347.5157455266553
 21
282.5576419358114
 31
0.0
  0
LINE
  5
1B97
102
{ACAD_REACTORS
330
1B83
102
}
330
18
100
AcDbEntity
  8
ROGO
 62
     4
100
AcDbLine
 10
346.7868235804685
 20
282.3144801480951
 30
0.0
 11
347.3944972059052
 21
282.3144801480951
 31
0.0
  0
LINE
  5
1B98
102
{ACAD_REACTORS
330
1B83
102
}
330
18
100
AcDbEntity
  8
ROGO
 62
     4
100
AcDbLine
 10
346.7403655170817
 20
282.9112216475098
 30
0.0
 11
347.6920517904697
 21
282.9112216475098
 31
0.0
  0
LINE
  5
1B99
102
{ACAD_REACTORS
330
1B82
102
}
330
18
100
AcDbEntity
  8
ROGO
 62
     4
100
AcDbLine
 10
348.3824626436001
 20
282.5270894817585
 30
0.0
 11
348.4169015318283
 21
282.5222758547933
 31
0.0
  0
LINE
  5
1B9A
102
{ACAD_REACTORS
330
1B82
102
}
330
18
100
AcDbEntity
  8
ROGO
 62
     4
100
AcDbLine
 10
348.499573200163
 20
282.4305584290431
 30
0.0
 11
348.4869264717143
 21
282.3400779512996
 31
0.0
  0
LINE
  5
1B9B
102
{ACAD_REACTORS
330
1B82
102
}
330
18
100
AcDbEntity
  8
ROGO
 62
     4
100
AcDbLine
 10
348.2605759531718
 20
282.373521629006
 30
0.0
 11
348.2732226816206
 21
282.4640021067495
 31
0.0
  0
LINE
  5
1B9C
102
{ACAD_REACTORS
330
1B82
102
}
330
18
100
AcDbEntity
  8
ROGO
 62
     4
100
AcDbLine
 10
348.3496197692884
 20
282.2921165422939
 30
0.0
 11
348.3840586575166
 21
282.2873029153286
 31
0.0
  0
ARC
  5
1B9D
102
{ACAD_REACTORS
330
1B82
102
}
330
18
100
AcDbEntity
  8
ROGO
 62
     4
100
AcDbCircle
 10
348.3999168244094
 20
282.4238485440572
 30
0.0
 40
0.0998820093152177
100
AcDbArc
 50
3.851923331663601
 51
80.20940670206341
  0
ARC
  5
1B9E
102
{ACAD_REACTORS
330
1B82
102
}
330
18
100
AcDbEntity
  8
ROGO
 62
     4
100
AcDbCircle
 10
348.3690594617836
 20
282.4241761806986
 30
0.0
 40
0.1037824301982561
100
AcDbArc
 50
82.57970078354313
 51
157.4341870372611
  0
ARC
  5
1B9F
102
{ACAD_REACTORS
330
1B82
102
}
330
18
100
AcDbEntity
  8
ROGO
 62
     4
100
AcDbCircle
 10
348.3553475727567
 20
282.387784030149
 30
0.0
 40
0.0958388019806556
100
AcDbArc
 50
188.5583509056651
 51
266.5736774635929
  0
ARC
  5
1BA0
102
{ACAD_REACTORS
330
1B82
102
}
330
18
100
AcDbEntity
  8
ROGO
 62
     4
100
AcDbCircle
 10
348.4046722408568
 20
282.3737646574162
 30
0.0
 40
0.0888850530907803
100
AcDbArc
 50
256.5902863289752
 51
337.7287536965499
  0
LINE
  5
1BA1
330
18
100
AcDbEntity
  8
ROGO
 62
     4
100
AcDbLine
 10
348.1737260107423
 20
282.9112216475098
 30
0.0
 11
348.4430394198887
 21
282.9112216475098
 31
0.0
  0
LINE
  5
1BA2
102
{ACAD_REACTORS
330
1B82
102
}
330
18
100
AcDbEntity
  8
ROGO
 62
     4
100
AcDbLine
 10
348.1737260107422
 20
282.9112216475098
 30
0.0
 11
348.5580000105199
 21
282.9112216475098
 31
0.0
  0
SPLINE
  5
1BA3
102
{ACAD_REACTORS
330
1B5E
102
}
330
18
100
AcDbEntity
  8
ROGO
 62
     4
100
AcDbSpline
210
0.0
220
0.0
230
1.0
 70
     8
 71
     3
 72
    16
 73
    12
 74
    10
 42
0.0000000001
 43
0.0000000001
 44
0.0000000001
 40
0.0
 40
0.0
 40
0.0
 40
0.0
 40
0.0908894635588099
 40
0.1352824120538293
 40
0.1571739758861982
 40
0.1802441192684659
 40
0.2132804986121358
 40
0.2433617673669563
 40
0.2747358298622484
 40
0.3273367126567001
 40
0.3794005943324992
 40
0.3794005943324992
 40
0.3794005943324992
 40
0.3794005943324992
 10
349.9830436673786
 20
282.5576419358114
 30
0.0
 10
349.9522643730391
 20
282.5529494247415
 30
0.0
 10
349.9064516130501
 20
282.5459649604122
 30
0.0
 10
349.865023103385
 20
282.5131706079632
 30
0.0
 10
349.8416603003791
 20
282.4936601511647
 30
0.0
 10
349.8337121707119
 20
282.4678227680385
 30
0.0
 10
349.8123659903798
 20
282.4479836240097
 30
0.0
 10
349.7947706660073
 20
282.4207182540827
 30
0.0
 10
349.7905693013968
 20
282.3832688268559
 30
0.0
 10
349.7936531992119
 20
282.3307142630642
 30
0.0
 10
349.8305014115311
 20
282.3198729787081
 30
0.0
 10
349.8488309895496
 20
282.3144801480951
 30
0.0
 11
349.9830436673786
 21
282.5576419358114
 31
0.0
 11
349.8952893497631
 21
282.5339760463112
 31
0.0
 11
349.8591552015199
 21
282.508187343226
 31
0.0
 11
349.8436691803908
 21
282.4927140204859
 31
0.0
 11
349.8333449684206
 21
282.4720829234993
 31
0.0
 11
349.8126968413064
 21
282.4462942204141
 31
0.0
 11
349.7972108201773
 21
282.4205053491808
 31
0.0
 11
349.7920487141922
 21
282.3895588718489
 31
0.0
 11
349.8023729261624
 21
282.3379811293823
 31
0.0
 11
349.8488309895496
 21
282.3144801480951
 31
0.0
  0
LINE
  5
1BA4
102
{ACAD_REACTORS
330
1B5E
102
}
330
18
100
AcDbEntity
  8
ROGO
 62
     4
100
AcDbLine
 10
349.8488309895496
 20
282.3144801480951
 30
0.0
 11
350.4565046149863
 21
282.3144801480951
 31
0.0
  0
LINE
  5
1BA5
102
{ACAD_REACTORS
330
1B5E
102
}
330
18
100
AcDbEntity
  8
ROGO
 62
     4
100
AcDbLine
 10
349.9830436673786
 20
282.5576419358114
 30
0.0
 11
350.5777529357363
 21
282.5576419358114
 31
0.0
  0
LINE
  5
1BA6
102
{ACAD_REACTORS
330
1B5D
102
}
330
18
100
AcDbEntity
  8
ROGO
 62
     4
100
AcDbLine
 10
351.3233017424352
 20
282.1687536214459
 30
0.0
 11
351.6935202797156
 21
281.426285595382
 31
0.0
  0
LINE
  5
1BA7
102
{ACAD_REACTORS
330
1B5D
102
}
330
18
100
AcDbEntity
  8
ROGO
 62
     4
100
AcDbLine
 10
350.9530951768955
 20
281.8138706941937
 30
0.0
 11
351.1463576249964
 21
281.426285595382
 31
0.0
  0
LINE
  5
1BA8
102
{ACAD_REACTORS
330
1B5D
102
}
330
18
100
AcDbEntity
  8
ROGO
 62
     4
100
AcDbLine
 10
350.9530951768955
 20
281.8138706941937
 30
0.0
 11
350.7598327287947
 21
281.426285595382
 31
0.0
  0
LINE
  5
1BA9
102
{ACAD_REACTORS
330
1B5D
102
}
330
18
100
AcDbEntity
  8
ROGO
 62
     4
100
AcDbLine
 10
351.1463576249964
 20
281.426285595382
 30
0.0
 11
351.6935202797156
 21
281.426285595382
 31
0.0
  0
LINE
  5
1BAA
102
{ACAD_REACTORS
330
1B5D
102
}
330
18
100
AcDbEntity
  8
ROGO
 62
     4
100
AcDbLine
 10
351.3233017424352
 20
282.1687536214459
 30
0.0
 11
352.222789577206
 21
282.9112216475098
 31
0.0
  0
LINE
  5
1BAB
102
{ACAD_REACTORS
330
1B5D
102
}
330
18
100
AcDbEntity
  8
ROGO
 62
     4
100
AcDbLine
 10
351.6756269224867
 20
282.9112216475098
 30
0.0
 11
352.222789577206
 21
282.9112216475098
 31
0.0
  0
LINE
  5
1BAC
102
{ACAD_REACTORS
330
1B5D
102
}
330
18
100
AcDbEntity
  8
ROGO
 62
     4
100
AcDbLine
 10
350.9530951768955
 20
282.9112216475098
 30
0.0
 11
351.5002698033555
 21
282.9112216475098
 31
0.0
  0
LINE
  5
1BAD
102
{ACAD_REACTORS
330
1B5D
102
}
330
18
100
AcDbEntity
  8
ROGO
 62
     4
100
AcDbLine
 10
351.5002698033555
 20
282.9112216475098
 30
0.0
 11
351.4194291422593
 21
282.7490968481664
 31
0.0
  0
LINE
  5
1BAE
102
{ACAD_REACTORS
330
1B5D
102
}
330
18
100
AcDbEntity
  8
ROGO
 62
     4
100
AcDbLine
 10
351.4194291422593
 20
282.7490968481664
 30
0.0
 11
351.6756269224867
 21
282.9112216475098
 31
0.0
  0
LINE
  5
1BAF
330
18
100
AcDbEntity
  8
0
  6
ByBlock
 62
     2
100
AcDbLine
 10
414.1906585811073
 20
235.4262855953821
 30
0.0
 11
404.5029904647615
 21
235.4262855953821
 31
0.0
  0
LINE
  5
1BB0
330
18
100
AcDbEntity
  8
0
  6
ByBlock
 62
     2
100
AcDbLine
 10
415.0467159457892
 20
226.9262855953821
 30
0.0
 11
404.5029904647615
 21
226.9262855953821
 31
0.0
  0
LINE
  5
1BB1
330
18
100
AcDbEntity
  8
0
  6
ByBlock
 62
     2
100
AcDbLine
 10
405.7529904647616
 20
232.9262855953821
 30
0.0
 11
405.7529904647616
 21
229.426285595382
 31
0.0
  0
INSERT
  5
1BB2
330
18
100
AcDbEntity
  8
0
  6
ByBlock
 62
     2
100
AcDbBlockReference
  2
_OPEN
 10
405.7529904647616
 20
235.4262855953821
 30
0.0
 41
2.5
 42
2.5
 43
2.5
 50
90.0
  0
INSERT
  5
1BB3
330
18
100
AcDbEntity
  8
0
  6
ByBlock
 62
     2
100
AcDbBlockReference
  2
_OPEN
 10
405.7529904647616
 20
226.9262855953821
 30
0.0
 41
2.5
 42
2.5
 43
2.5
 50
270.0
  0
MTEXT
  5
1BB4
330
18
100
AcDbEntity
  8
0
  6
ByBlock
 62
     6
100
AcDbMText
 10
403.8779904647616
 20
231.1762855953821
 30
0.0
 40
2.5
 41
0.0
 71
     5
 72
     1
  1
\A1;8.5
  7
STYLE3
 11
0.0000000000000001
 21
1.0
 31
0.0
 73
     1
 44
1.0
  0
POINT
  5
1BB5
330
18
100
AcDbEntity
  8
DEFPOINTS
  6
ByBlock
 62
     0
100
AcDbPoint
 10
414.1906585811073
 20
235.4262855953821
 30
0.0
  0
POINT
  5
1BB6
330
18
100
AcDbEntity
  8
DEFPOINTS
  6
ByBlock
 62
     0
100
AcDbPoint
 10
415.0467159457892
 20
226.9262855953821
 30
0.0
  0
POINT
  5
1BB7
330
18
100
AcDbEntity
  8
DEFPOINTS
  6
ByBlock
 62
     0
100
AcDbPoint
 10
405.7529904647616
 20
226.9262855953821
 30
0.0
  0
LINE
  5
1BB8
330
18
100
AcDbEntity
  8
0
  6
ByBlock
 62
     2
100
AcDbLine
 10
368.2619846451315
 20
276.4262855953821
 30
0.0
 11
375.1585311778009
 21
276.4262855953821
 31
0.0
  0
LINE
  5
1BB9
330
18
100
AcDbEntity
  8
0
  6
ByBlock
 62
     2
100
AcDbLine
 10
368.4683915925353
 20
226.9262855953821
 30
0.0
 11
375.1585311778009
 21
226.9262855953821
 31
0.0
  0
LINE
  5
1BBA
330
18
100
AcDbEntity
  8
0
  6
ByBlock
 62
     2
100
AcDbLine
 10
373.9085311778008
 20
273.9262855953821
 30
0.0
 11
373.9085311778008
 21
229.4262855953821
 31
0.0
  0
INSERT
  5
1BBB
330
18
100
AcDbEntity
  8
0
  6
ByBlock
 62
     2
100
AcDbBlockReference
  2
_OPEN
 10
373.9085311778008
 20
276.4262855953821
 30
0.0
 41
2.5
 42
2.5
 43
2.5
 50
90.0
  0
INSERT
  5
1BBC
330
18
100
AcDbEntity
  8
0
  6
ByBlock
 62
     2
100
AcDbBlockReference
  2
_OPEN
 10
373.9085311778008
 20
226.9262855953821
 30
0.0
 41
2.5
 42
2.5
 43
2.5
 50
270.0
  0
MTEXT
  5
1BBD
330
18
100
AcDbEntity
  8
0
  6
ByBlock
 62
     6
100
AcDbMText
 10
372.0335311778009
 20
251.6762855953821
 30
0.0
 40
2.5
 41
0.0
 71
     5
 72
     1
  1
\A1;49.5
  7
STYLE3
 11
0.0000000000000001
 21
1.0
 31
0.0
 73
     1
 44
1.0
  0
POINT
  5
1BBE
330
18
100
AcDbEntity
  8
DEFPOINTS
  6
ByBlock
 62
     0
100
AcDbPoint
 10
368.2619846451315
 20
276.4262855953821
 30
0.0
  0
POINT
  5
1BBF
330
18
100
AcDbEntity
  8
DEFPOINTS
  6
ByBlock
 62
     0
100
AcDbPoint
 10
368.4683915925353
 20
226.9262855953821
 30
0.0
  0
POINT
  5
1BC0
330
18
100
AcDbEntity
  8
DEFPOINTS
  6
ByBlock
 62
     0
100
AcDbPoint
 10
373.9085311778008
 20
226.9262855953821
 30
0.0
  0
LINE
  5
1BC1
330
18
100
AcDbEntity
  8
寸法線
 62
     2
100
AcDbLine
 10
353.0799315485651
 20
249.8956625452451
 30
0.0
 11
359.8620820648916
 21
260.05267783487
 31
0.0
1001
ACAD
1000
DSTYLE
1002
{
1070
   271
1070
     2
1002
}
  0
LINE
  5
1BC2
330
18
100
AcDbEntity
  8
寸法線
 62
     2
100
AcDbLine
 10
359.8620820648916
 20
260.05267783487
 30
0.0
 11
364.8918439696535
 21
260.05267783487
 31
0.0
1001
ACAD
1000
DSTYLE
1002
{
1070
   271
1070
     2
1002
}
  0
ARC
  5
1BC3
330
18
100
AcDbEntity
  8
外形線
100
AcDbCircle
 10
353.4906585811073
 20
268.6762855953821
 30
0.0
 40
70.0
100
AcDbArc
 50
354.4664515425994
 51
5.533548457400675
  0
LINE
  5
1BC4
330
18
100
AcDbEntity
  8
中心線
 48
0.4
100
AcDbLine
 10
417.979766053028
 20
272.9262855953821
 30
0.0
 11
425.2352705562345
 21
272.9262855953821
 31
0.0
  0
LINE
  5
1BC5
330
18
100
AcDbEntity
  8
外形線
100
AcDbLine
 10
422.2906585811072
 20
270.4262855953821
 30
0.0
 11
422.2906585811073
 21
261.9262855953821
 31
0.0
  0
LINE
  5
1BC6
330
18
100
AcDbEntity
  8
外形線
100
AcDbLine
 10
422.2906585811073
 20
261.9262855953821
 30
0.0
 11
423.1644520762227
 21
261.9262855953821
 31
0.0
  0
LINE
  5
1BC7
330
18
100
AcDbEntity
  8
外形線
100
AcDbLine
 10
421.2906585811072
 20
270.4262855953821
 30
0.0
 11
422.2906585811072
 21
270.4262855953821
 31
0.0
  0
LINE
  5
1BC8
330
18
100
AcDbEntity
  8
外形線
100
AcDbLine
 10
421.2906585811072
 20
275.4262855953821
 30
0.0
 11
423.1644520762227
 21
275.4262855953821
 31
0.0
  0
LINE
  5
1BC9
330
18
100
AcDbEntity
  8
0
  6
ByBlock
 62
     2
100
AcDbLine
 10
339.3129405031585
 20
300.576285595382
 30
0.0
 11
339.3129405031585
 21
308.5564579492183
 31
0.0
  0
LINE
  5
1BCA
330
18
100
AcDbEntity
  8
0
  6
ByBlock
 62
     2
100
AcDbLine
 10
353.3129405031585
 20
300.576285595382
 30
0.0
 11
353.3129405031585
 21
308.5564579492183
 31
0.0
  0
LINE
  5
1BCB
330
18
100
AcDbEntity
  8
0
  6
ByBlock
 62
     2
100
AcDbLine
 10
341.8129405031585
 20
307.3064579492183
 30
0.0
 11
350.8129405031585
 21
307.3064579492183
 31
0.0
  0
INSERT
  5
1BCC
330
18
100
AcDbEntity
  8
0
  6
ByBlock
 62
     2
100
AcDbBlockReference
  2
_OPEN
 10
339.3129405031585
 20
307.3064579492183
 30
0.0
 41
2.5
 42
2.5
 43
2.5
 50
180.0
  0
INSERT
  5
1BCD
330
18
100
AcDbEntity
  8
0
  6
ByBlock
 62
     2
100
AcDbBlockReference
  2
_OPEN
 10
353.3129405031585
 20
307.3064579492183
 30
0.0
 41
2.5
 42
2.5
 43
2.5
  0
MTEXT
  5
1BCE
330
18
100
AcDbEntity
  8
0
  6
ByBlock
 62
     6
100
AcDbMText
 10
346.3129405031585
 20
309.1814579492183
 30
0.0
 40
2.5
 41
0.0
 71
     5
 72
     1
  1
\A1;14
  7
STYLE3
 73
     1
 44
1.0
  0
POINT
  5
1BCF
330
18
100
AcDbEntity
  8
DEFPOINTS
  6
ByBlock
 62
     0
100
AcDbPoint
 10
339.3129405031585
 20
300.576285595382
 30
0.0
  0
POINT
  5
1BD0
330
18
100
AcDbEntity
  8
DEFPOINTS
  6
ByBlock
 62
     0
100
AcDbPoint
 10
353.3129405031585
 20
300.576285595382
 30
0.0
  0
POINT
  5
1BD1
330
18
100
AcDbEntity
  8
DEFPOINTS
  6
ByBlock
 62
     0
100
AcDbPoint
 10
353.3129405031585
 20
307.3064579492183
 30
0.0
  0
LINE
  5
1BD2
330
18
100
AcDbEntity
  8
寸法線
 62
     2
100
AcDbLine
 10
341.0624267461539
 20
299.5202453478994
 30
0.0
 11
336.5396752185706
 21
307.3624463663943
 31
0.0
1001
ACAD
1000
DSTYLE
1002
{
1070
   271
1070
     2
1002
}
  0
LINE
  5
1BD3
330
18
100
AcDbEntity
  8
寸法線
 62
     2
100
AcDbLine
 10
336.5396752185706
 20
307.3624463663943
 30
0.0
 11
331.7480085519039
 21
307.3624463663943
 31
0.0
1001
ACAD
1000
DSTYLE
1002
{
1070
   271
1070
     2
1002
}
  0
TEXT
  5
1BD4
330
18
100
AcDbEntity
  8
文字
 62
     6
100
AcDbText
 10
332.7891754591437
 20
307.9874463663943
 30
0.0
 40
2.5
  1
A
  7
STYLE3
100
AcDbText
  0
LINE
  5
1BD5
330
18
100
AcDbEntity
  8
0
  6
ByBlock
 62
     2
100
AcDbLine
 10
353.3129405031585
 20
300.576285595382
 30
0.0
 11
368.4683915925353
 21
300.576285595382
 31
0.0
  0
LINE
  5
1BD6
330
18
100
AcDbEntity
  8
0
  6
ByBlock
 62
     2
100
AcDbLine
 10
365.7112588771217
 20
316.5762855953821
 30
0.0
 11
368.4683915925353
 21
316.5762855953821
 31
0.0
  0
LINE
  5
1BD7
330
18
100
AcDbEntity
  8
0
  6
ByBlock
 62
     2
100
AcDbLine
 10
367.2183915925353
 20
303.076285595382
 30
0.0
 11
367.2183915925353
 21
314.076285595382
 31
0.0
  0
INSERT
  5
1BD8
330
18
100
AcDbEntity
  8
0
  6
ByBlock
 62
     2
100
AcDbBlockReference
  2
_OPEN
 10
367.2183915925353
 20
300.576285595382
 30
0.0
 41
2.5
 42
2.5
 43
2.5
 50
270.0
  0
INSERT
  5
1BD9
330
18
100
AcDbEntity
  8
0
  6
ByBlock
 62
     2
100
AcDbBlockReference
  2
_OPEN
 10
367.2183915925353
 20
316.5762855953821
 30
0.0
 41
2.5
 42
2.5
 43
2.5
 50
90.0
  0
MTEXT
  5
1BDA
330
18
100
AcDbEntity
  8
0
  6
ByBlock
 62
     6
100
AcDbMText
 10
365.3433915925353
 20
308.5762855953821
 30
0.0
 40
2.5
 41
0.0
 71
     5
 72
     1
  1
\A1;16
  7
STYLE3
 11
0.0000000000000001
 21
1.0
 31
0.0
 73
     1
 44
1.0
  0
POINT
  5
1BDB
330
18
100
AcDbEntity
  8
DEFPOINTS
  6
ByBlock
 62
     0
100
AcDbPoint
 10
353.3129405031585
 20
300.576285595382
 30
0.0
  0
POINT
  5
1BDC
330
18
100
AcDbEntity
  8
DEFPOINTS
  6
ByBlock
 62
     0
100
AcDbPoint
 10
365.7112588771217
 20
316.5762855953821
 30
0.0
  0
POINT
  5
1BDD
330
18
100
AcDbEntity
  8
DEFPOINTS
  6
ByBlock
 62
     0
100
AcDbPoint
 10
367.2183915925353
 20
316.5762855953821
 30
0.0
  0
LINE
  5
1BDE
330
18
100
AcDbEntity
  8
0
  6
ByBlock
 62
     2
100
AcDbLine
 10
414.1906585811072
 20
298.9262855953821
 30
0.0
 11
414.1906585811072
 21
328.4192441364737
 31
0.0
  0
LINE
  5
1BDF
330
18
100
AcDbEntity
  8
0
  6
ByBlock
 62
     2
100
AcDbLine
 10
421.2906585811073
 20
298.9262855953821
 30
0.0
 11
421.2906585811073
 21
328.4192441364737
 31
0.0
  0
LINE
  5
1BE0
330
18
100
AcDbEntity
  8
0
  6
ByBlock
 62
     2
100
AcDbLine
 10
416.6906585811072
 20
327.1692441364737
 30
0.0
 11
418.7906585811073
 21
327.1692441364737
 31
0.0
  0
INSERT
  5
1BE1
330
18
100
AcDbEntity
  8
0
  6
ByBlock
 62
     2
100
AcDbBlockReference
  2
_OPEN
 10
414.1906585811072
 20
327.1692441364737
 30
0.0
 41
2.5
 42
2.5
 43
2.5
 50
180.0
  0
INSERT
  5
1BE2
330
18
100
AcDbEntity
  8
0
  6
ByBlock
 62
     2
100
AcDbBlockReference
  2
_OPEN
 10
421.2906585811073
 20
327.1692441364737
 30
0.0
 41
2.5
 42
2.5
 43
2.5
  0
MTEXT
  5
1BE3
330
18
100
AcDbEntity
  8
0
  6
ByBlock
 62
     6
100
AcDbMText
 10
417.7406585811072
 20
329.0442441364737
 30
0.0
 40
2.5
 41
0.0
 71
     5
 72
     1
  1
\A1;7.1
  7
STYLE3
 73
     1
 44
1.0
  0
POINT
  5
1BE4
330
18
100
AcDbEntity
  8
DEFPOINTS
  6
ByBlock
 62
     0
100
AcDbPoint
 10
414.1906585811072
 20
298.9262855953821
 30
0.0
  0
POINT
  5
1BE5
330
18
100
AcDbEntity
  8
DEFPOINTS
  6
ByBlock
 62
     0
100
AcDbPoint
 10
421.2906585811073
 20
298.9262855953821
 30
0.0
  0
POINT
  5
1BE6
330
18
100
AcDbEntity
  8
DEFPOINTS
  6
ByBlock
 62
     0
100
AcDbPoint
 10
421.2906585811073
 20
327.1692441364737
 30
0.0
  0
INSERT
  5
22A6
330
18
100
AcDbEntity
  8
外形線
100
AcDbBlockReference
  2
PC_PCN針
 10
346.3129405031584
 20
276.4262855953822
 30
0.0
 50
282.857142857143
  0
TEXT
  5
22A8
330
18
100
AcDbEntity
  8
文字
100
AcDbText
 10
352.5564398094394
 20
331.0345598507027
 30
0.0
 40
1.5
  1
0
  7
STYLE3
100
AcDbText
  0
TEXT
  5
22A9
330
18
100
AcDbEntity
  8
文字
100
AcDbText
 10
350.6839398909836
 20
329.3377144973719
 30
0.0
 40
1.5
  1
-0.03
  7
STYLE3
100
AcDbText
  0
TEXT
  5
2314
330
18
100
AcDbEntity
  8
文字
100
AcDbText
 10
319.1157914842636
 20
358.7385067652519
 30
0.0
 40
4.0
  1
Model No.PC-4 Pic Test Indicator
  7
STYLE3
100
AcDbText
  0
LINE
  5
2315
330
18
100
AcDbEntity
  8
外形線
100
AcDbLine
 10
318.4940804842636
 20
357.3201137652518
 30
0.0
 11
419.4940804842635
 21
357.3201137652518
 31
0.0
  0
LINE
  5
2316
330
18
100
AcDbEntity
  8
外形線
100
AcDbLine
 10
318.4940804842636
 20
356.3201137652519
 30
0.0
 11
419.4940804842635
 21
356.3201137652519
 31
0.0
  0
LINE
  5
2319
330
18
100
AcDbEntity
  8
外形線
100
AcDbLine
 10
350.5266474842636
 20
192.6533727652518
 30
0.0
 11
491.3180654842635
 21
192.6533727652518
 31
0.0
  0
LINE
  5
231A
330
18
100
AcDbEntity
  8
外形線
100
AcDbLine
 10
350.5266474842636
 20
181.8731667652519
 30
0.0
 11
491.3180654842635
 21
181.8731667652519
 31
0.0
  0
TEXT
  5
231B
330
18
100
AcDbEntity
  8
0
  6
Continuous
100
AcDbText
 10
351.9841144842636
 20
183.7711567652519
 30
0.0
 40
2.1
  1
Design and specifications are subject to change without notice for future improvement.
  7
STYLE3
100
AcDbText
  0
TEXT
  5
231C
330
18
100
AcDbEntity
  8
0
  6
Continuous
100
AcDbText
 10
352.2756084842636
 20
187.7003047652518
 30
0.0
 40
3.5
  1
仕様及び外観は予告なく変更される場合がございますのでご了承下さい。
  7
STYLE3
100
AcDbText
  0
TEXT
  5
231D
330
18
100
AcDbEntity
  8
0
  6
Continuous
100
AcDbText
 10
351.6926234842636
 20
174.0065287652519
 30
0.0
 40
2.1
  1
3RD Angle Projection
  7
STYLE3
100
AcDbText
  0
TEXT
  5
231E
330
18
100
AcDbEntity
  8
0
  6
Continuous
100
AcDbText
 10
354.3160664842635
 20
177.5028117652519
 30
0.0
 40
3.0
  1
三　　角　　法
  7
STYLE3
100
AcDbText
  0
LINE
  5
231F
330
18
100
AcDbEntity
  8
外形線
100
AcDbLine
 10
350.5266474842636
 20
172.2583887652518
 30
0.0
 11
350.5266474842636
 21
192.6533727652518
 31
0.0
  0
LINE
  5
2320
330
18
100
AcDbEntity
  8
外形線
100
AcDbLine
 10
452.5494144842635
 20
181.8731667652519
 30
0.0
 11
452.5494144842635
 21
172.2583887652518
 31
0.0
  0
LINE
  5
2321
330
18
100
AcDbEntity
  8
外形線
100
AcDbLine
 10
422.8170644842635
 20
181.8731667652519
 30
0.0
 11
422.8170644842635
 21
172.2583887652518
 31
0.0
  0
LINE
  5
2322
330
18
100
AcDbEntity
  8
外形線
100
AcDbLine
 10
403.2869924842635
 20
181.8731667652519
 30
0.0
 11
403.2869924842635
 21
172.2583887652518
 31
0.0
  0
LINE
  5
2323
330
18
100
AcDbEntity
  8
外形線
100
AcDbLine
 10
385.7973754842636
 20
181.8731667652519
 30
0.0
 11
385.7973754842636
 21
172.2583887652518
 31
0.0
  0
TEXT
  5
2324
330
18
100
AcDbEntity
  8
0
  6
Continuous
100
AcDbText
 10
387.2548444842636
 20
177.5087667652519
 30
0.0
 40
3.0
  1
単位
  7
STYLE3
100
AcDbText
  0
TEXT
  5
2325
330
18
100
AcDbEntity
  8
0
  6
Continuous
100
AcDbText
 10
387.4265654842636
 20
174.0065297652519
 30
0.0
 40
2.1
  1
Unit
  7
STYLE3
100
AcDbText
  0
TEXT
  5
2326
330
18
100
AcDbEntity
  8
0
  6
Continuous
100
AcDbText
 10
404.5727404842635
 20
177.2174087652519
 30
0.0
 40
3.0
  1
尺 度
  7
STYLE3
100
AcDbText
  0
TEXT
  5
2327
330
18
100
AcDbEntity
  8
0
  6
Continuous
100
AcDbText
 10
395.2968924842636
 20
175.7546727652519
 30
0.0
 40
2.399999999999999
  1
mm
  7
STYLE3
100
AcDbText
  0
TEXT
  5
2328
330
18
100
AcDbEntity
  8
0
  6
Continuous
100
AcDbText
 10
405.0359554842635
 20
174.2978867652519
 30
0.0
 40
2.1
  1
Scale
  7
STYLE3
100
AcDbText
  0
TEXT
  5
2329
330
18
100
AcDbEntity
  8
0
  6
Continuous
100
AcDbText
 10
414.6552444842635
 20
176.0460297652519
 30
0.0
 40
2.399999999999999
  1
1/1
  7
STYLE3
100
AcDbText
  0
TEXT
  5
232A
330
18
100
AcDbEntity
  8
0
  6
Continuous
100
AcDbText
 10
424.7490154842635
 20
174.0065307652518
 30
0.0
 40
2.1
  1
Date
  7
STYLE3
100
AcDbText
  0
TEXT
  5
232B
330
18
100
AcDbEntity
  8
0
  6
Continuous
100
AcDbText
 10
424.3656544842635
 20
177.3396137652518
 30
0.0
 40
3.0
  1
日 付
  7
STYLE3
100
AcDbText
  0
TEXT
  5
232C
330
18
100
AcDbEntity
  8
0
  6
Continuous
100
AcDbText
 10
433.4938234842635
 20
175.7546717652519
 30
0.0
 40
2.1
  1
2010.06.15
  7
STYLE3
100
AcDbText
  0
TEXT
  5
232D
330
18
100
AcDbEntity
  8
0
  6
Continuous
100
AcDbText
 10
453.8983774842635
 20
177.7941687652518
 30
0.0
 40
3.0
  1
株式会社　尾崎製作所
  7
STYLE3
100
AcDbText
  0
TEXT
  5
232E
330
18
100
AcDbEntity
  8
0
  6
Continuous
100
AcDbText
 10
454.7728564842635
 20
174.0065297652519
 30
0.0
 40
2.1
  1
OZAKI MFG. CO., LTD.
  7
STYLE3
100
AcDbText
  0
ENDSEC
  0
SECTION
  2
OBJECTS
  0
DICTIONARY
  5
C
330
0
100
AcDbDictionary
281
     1
  3
ACAD_COLOR
350
1BF7
  3
ACAD_GROUP
350
D
  3
ACAD_IMAGE_DICT
350
B2C
  3
ACAD_LAYOUT
350
1BFA
  3
ACAD_MATERIAL
350
1BF6
  3
ACAD_MLINESTYLE
350
1B
  3
ACAD_PLOTSETTINGS
350
1BFB
  3
ACAD_PLOTSTYLENAME
350
1BF4
  3
ACAD_TABLESTYLE
350
1BF8
  3
ACDBVARIABLEDICTIONARY
350
1297
  0
DICTIONARY
  5
1C03
330
1C02
100
AcDbDictionary
280
     1
281
     1
  3
ACAD_SORTENTS
360
1C04
  0
DICTIONARY
  5
1BF7
102
{ACAD_REACTORS
330
C
102
}
330
C
100
AcDbDictionary
281
     1
  0
DICTIONARY
  5
D
102
{ACAD_REACTORS
330
C
102
}
330
C
100
AcDbDictionary
281
     1
  0
DICTIONARY
  5
B2C
102
{ACAD_REACTORS
330
C
102
}
330
C
100
AcDbDictionary
281
     1
  3
ROGO01
350
B2D
  0
DICTIONARY
  5
1BFA
102
{ACAD_REACTORS
330
C
102
}
330
C
100
AcDbDictionary
281
     1
  3
Model
350
1BFC
  3
レイアウト1
350
1BFD
  0
DICTIONARY
  5
1BF6
102
{ACAD_REACTORS
330
C
102
}
330
C
100
AcDbDictionary
281
     1
  0
DICTIONARY
  5
1B
102
{ACAD_REACTORS
330
C
102
}
330
C
100
AcDbDictionary
281
     1
  3
STANDARD
350
1C
  0
DICTIONARY
  5
1BFB
102
{ACAD_REACTORS
330
C
102
}
330
C
100
AcDbDictionary
281
     1
  0
ACDBDICTIONARYWDFLT
  5
1BF4
102
{ACAD_REACTORS
330
C
102
}
330
C
100
AcDbDictionary
281
     1
  3
Normal
350
1BF5
100
AcDbDictionaryWithDefault
340
1BF5
  0
DICTIONARY
  5
1BF8
102
{ACAD_REACTORS
330
C
102
}
330
C
100
AcDbDictionary
281
     1
  3
Standard
350
1BF9
  0
DICTIONARY
  5
1297
102
{ACAD_REACTORS
330
C
102
}
330
C
100
AcDbDictionary
281
     1
  3
CTABLESTYLE
350
22B2
  3
SORTENTS
350
1298
  0
SORTENTSTABLE
  5
1C04
102
{ACAD_REACTORS
330
1C03
102
}
330
1C03
100
AcDbSortentsTable
330
1C02
  0
IMAGEDEF
  5
B2D
102
{ACAD_REACTORS
330
B2C
102
}
330
B2C
100
AcDbRasterImageDef
 90
        0
  1
D:\ﾃｽﾄ\rogo01.TIF
 10
3388.0
 20
4668.0
 11
0.0635
 21
0.0635
280
     1
281
     5
  0
LAYOUT
  5
1BFC
102
{ACAD_REACTORS
330
1BFA
102
}
330
1BFA
100
AcDbPlotSettings
  1

  2
A4 EPSON LP-6100.pc3
  4
A4
  6

 40
5.873749732971191
 41
5.873747825622558
 42
5.873748779296875
 43
5.873748779296875
 44
209.9733276367187
 45
297.0106506347656
 46
0.9
 47
25.0
 48
0.0
 49
0.0
140
0.0
141
0.0
142
1.0
143
1.0
 70
 28336
 72
     1
 73
     1
 74
     1
  7
AutoCAD LT 98.ctb
 75
    16
147
1.0
 76
     1
 77
     2
 78
   300
148
-236.4886379941706
149
-171.6235136330668
100
AcDbLayout
  1
Model
 70
     1
 71
     0
 10
0.0
 20
0.0
 11
12.0
 21
9.0
 12
0.0
 22
0.0
 32
0.0
 14
0.0
 24
0.0
 34
0.0
 15
0.0
 25
0.0
 35
0.0
146
0.0
 13
0.0
 23
0.0
 33
0.0
 16
1.0
 26
0.0
 36
0.0
 17
0.0
 27
1.0
 37
0.0
 76
     0
330
18
1001
ACAD_PSEXT
1000
A4 EPSON LP-6100.pc3
1000
EPSON LP-6100
1000
\\SATO-MATE2
1000

1070
     0
  0
LAYOUT
  5
1BFD
102
{ACAD_REACTORS
330
1BFA
102
}
330
1BFA
100
AcDbPlotSettings
  1

  2
WIDR Printer
  4

  6

 40
0.0
 41
0.0
 42
0.0
 43
0.0
 44
0.0
 45
0.0
 46
0.0
 47
0.0
 48
0.0
 49
0.0
140
0.0
141
0.0
142
1.0
143
1.0
 70
   688
 72
     0
 73
     0
 74
     5
  7
AutoCad LT 98.ctb
 75
    16
147
1.0
 76
     0
 77
     2
 78
   300
148
0.0
149
0.0
100
AcDbLayout
  1
レイアウト1
 70
     1
 71
     1
 10
0.0
 20
0.0
 11
420.0
 21
297.0
 12
0.0
 22
0.0
 32
0.0
 14
1.000000000000000E+20
 24
1.000000000000000E+20
 34
1.000000000000000E+20
 15
-1.000000000000000E+20
 25
-1.000000000000000E+20
 35
-1.000000000000000E+20
146
0.0
 13
0.0
 23
0.0
 33
0.0
 16
1.0
 26
0.0
 36
0.0
 17
0.0
 27
1.0
 37
0.0
 76
     0
330
15
  0
MLINESTYLE
  5
1C
102
{ACAD_REACTORS
330
1B
102
}
330
1B
100
AcDbMlineStyle
  2
STANDARD
 70
     0
  3

 62
   256
 51
90.0
 52
90.0
 71
     2
 49
0.5
 62
   256
  6
BYLAYER
 49
-0.5
 62
   256
  6
BYLAYER
  0
ACDBPLACEHOLDER
  5
1BF5
102
{ACAD_REACTORS
330
1BF4
102
}
330
1BF4
  0
ACAD_PROXY_OBJECT
  5
1BF9
102
{ACAD_REACTORS
330
1BF8
102
}
330
1BF8
100
AcDbProxyObject
 90
      499
 91
      505
 95
  2555929
 70
     0
 93
     1849
310
4214DD185B99185C992420000000000000F83F0000000000003E0FC00000000000004901028000000C1008070000C3001FDFF8000000C1003FBFF000000182007F7FE00000030400FEFFC00000060801FDFF8000000C1003FBFF000000182000000000000000C2020B0000001820100E000186003FBFF000000182007F7FE0
310
0000030400FEFFC00000060801FDFF8000000C1003FBFF000000182007F7FE0000003040000000000000012404160000003040201C00030C007F7FE00000030400FEFFC00000060801FDFF8000000C1003FBFF000000182007F7FE00000030400FEFFC000000608065
340
F
340
F
340
F
 94
        0
  0
DICTIONARYVAR
  5
22B2
102
{ACAD_REACTORS
330
1297
102
}
330
1297
100
DictionaryVariables
280
     0
  1
STANDARD
  0
DICTIONARYVAR
  5
1298
102
{ACAD_REACTORS
330
1297
102
}
330
1297
100
DictionaryVariables
280
     0
  1
96
  0
ENDSEC
  0
EOF
